  0
SECTION
  2
HEADER
  9
$EXTMIN
 10
0
 20
0
  9
$EXTMAX
 10
84100
 20
59500
  0
ENDSEC
  0
SECTION
  2
TABLES
  0
TABLE
  2
LTYPE
 70
     6
  0
LTYPE
  2
CONTINUOUS
 70
    64
  3
CONTINUOUS
 72
    65
 73
     0
 40
0.0
  0
LTYPE
  2
DASHED1
 70
    64
  3
DASHED1
 72
    65
 73
     2
 40
2.5
 49
1.250
 49
-1.25
  0
LTYPE
  2
DASHED2
 70
    64
  3
DASHED2
 72
    65
 73
     2
 40
5.0
 49
3.750
 49
-1.25
  0
LTYPE
  2
DASHED2
 70
    64
  3
DASHED2
 72
    65
 73
     4
 40
10.0
 49
6.250
 49
-1.25
 49
1.25
 49
-1.25
  0
LTYPE
  2
CENTER
 70
    64
  3
CENTER
 72
    65
 73
     6
 40
10.0
 49
3.250
 49
-1.25
 49
1.25
 49
-1.25
 49
1.25
 49
-1.25
  0
LTYPE
  2
CENTER
 70
    64
  3
CENTER
 72
    65
 73
     2
 40
2.5
 49
0.625
 49
-1.875
  0
ENDTAB
  0
TABLE
  2
STYLE
 70
     1
  0
STYLE
  2
STANDARD
 70
    64
 40
0.0
 41
1.0
 42
0.0
 50
0.0
 71
     0
  3
TXT
  4
BIGFONT
  0
ENDTAB
  0
TABLE
  2
LAYER
 70
   256
  0
LAYER
  2
LAY0_0
 70
   64
 62
    7
  6
CONTINUOUS
  0
ENDTAB
  0
ENDSEC
  0
SECTION
  2
ENTITIES
  0
LINE
  8
LAY0_0
  6
CONTINUOUS
 62
1
 10
39074.6002197266
 20
23452.2888183594
 11
39074.6002197266
 21
23571.1822509766
  0
LINE
  8
LAY0_0
  6
CONTINUOUS
 62
1
 10
38874.6002197266
 20
23452.2888183594
 11
38874.6002197266
 21
23652.2888183594
  0
LINE
  8
LAY0_0
  6
CONTINUOUS
 62
1
 10
48874.5880126953
 20
23452.2888183594
 11
48874.5880126953
 21
23652.2888183594
  0
LINE
  8
LAY0_0
  6
CONTINUOUS
 62
1
 10
44874.6002197266
 20
23452.2888183594
 11
44874.6002197266
 21
23652.2888183594
  0
LINE
  8
LAY0_0
  6
CONTINUOUS
 62
1
 10
32733.2916259766
 20
32016.2475585938
 11
32733.2916259766
 21
32315.0543212891
  0
LINE
  8
LAY0_0
  6
CONTINUOUS
 62
1
 10
29733.2946777344
 20
32016.2475585938
 11
29733.2946777344
 21
32516.2475585938
  0
LINE
  8
LAY0_0
  6
CONTINUOUS
 62
1
 10
31233.2916259766
 20
32016.2475585938
 11
31233.2916259766
 21
32314.9230957031
  0
LINE
  8
LAY0_0
  6
CONTINUOUS
 62
1
 10
37233.2916259766
 20
32016.2475585938
 11
37233.2916259766
 21
32419.8120117188
  0
LINE
  8
LAY0_0
  6
CONTINUOUS
 62
1
 10
34233.2916259766
 20
32016.2475585938
 11
34233.2916259766
 21
32314.1845703125
  0
LINE
  8
LAY0_0
  6
CONTINUOUS
 62
1
 10
42874.6002197266
 20
23452.2888183594
 11
42874.6002197266
 21
23652.2888183594
  0
LINE
  8
LAY0_0
  6
CONTINUOUS
 62
1
 10
44874.6002197266
 20
23452.2888183594
 11
44874.6002197266
 21
23652.2888183594
  0
LINE
  8
LAY0_0
  6
CONTINUOUS
 62
1
 10
47874.5941162109
 20
23452.2888183594
 11
47874.5941162109
 21
23613.7145996094
  0
LINE
  8
LAY0_0
  6
CONTINUOUS
 62
1
 10
40274.6002197266
 20
23452.2888183594
 11
40274.6002197266
 21
23571.3806152344
  0
LINE
  8
LAY0_0
  6
CONTINUOUS
 62
6
 10
38874.6002197266
 20
23452.2888183594
 11
48874.5880126953
 21
23452.2888183594
  0
LINE
  8
LAY0_0
  6
CONTINUOUS
 62
1
 10
39874.6002197266
 20
23452.2888183594
 11
39874.6002197266
 21
23613.7145996094
  0
LINE
  8
LAY0_0
  6
CONTINUOUS
 62
1
 10
40474.6002197266
 20
23452.2888183594
 11
40474.6002197266
 21
23571.7590332031
  0
LINE
  8
LAY0_0
  6
CONTINUOUS
 62
1
 10
40874.6002197266
 20
23452.2888183594
 11
40874.6002197266
 21
23652.2888183594
  0
LINE
  8
LAY0_0
  6
CONTINUOUS
 62
1
 10
45874.6002197266
 20
23452.2888183594
 11
45874.6002197266
 21
23613.7145996094
  0
LINE
  8
LAY0_0
  6
CONTINUOUS
 62
1
 10
47233.2916259766
 20
32016.2475585938
 11
47233.2916259766
 21
32419.8120117188
  0
LINE
  8
LAY0_0
  6
CONTINUOUS
 62
1
 10
32233.2916259766
 20
32016.2475585938
 11
32233.2916259766
 21
32419.8120117188
  0
LINE
  8
LAY0_0
  6
CONTINUOUS
 62
6
 10
29733.2946777344
 20
32016.2475585938
 11
54733.2641601563
 21
32016.2475585938
  0
LINE
  8
LAY0_0
  6
CONTINUOUS
 62
1
 10
34733.2916259766
 20
32016.2475585938
 11
34733.2916259766
 21
32516.2475585938
  0
LINE
  8
LAY0_0
  6
CONTINUOUS
 62
1
 10
33733.2916259766
 20
32016.2475585938
 11
33733.2916259766
 21
32314.9230957031
  0
LINE
  8
LAY0_0
  6
CONTINUOUS
 62
1
 10
30233.2916259766
 20
32016.2475585938
 11
30233.2916259766
 21
32313.4826660156
  0
LINE
  8
LAY0_0
  6
CONTINUOUS
 62
1
 10
29733.2946777344
 20
32016.2475585938
 11
29733.2946777344
 21
32516.2475585938
  0
LINE
  8
LAY0_0
  6
CONTINUOUS
 62
1
 10
54733.2641601563
 20
32016.2475585938
 11
54733.2641601563
 21
32516.2475585938
  0
LINE
  8
LAY0_0
  6
CONTINUOUS
 62
1
 10
44733.2916259766
 20
32016.2475585938
 11
44733.2916259766
 21
32516.2475585938
  0
LINE
  8
LAY0_0
  6
CONTINUOUS
 62
1
 10
30733.2916259766
 20
32016.2475585938
 11
30733.2916259766
 21
32314.7613525391
  0
LINE
  8
LAY0_0
  6
CONTINUOUS
 62
1
 10
31733.2916259766
 20
32016.2475585938
 11
31733.2916259766
 21
32315.1672363281
  0
LINE
  8
LAY0_0
  6
CONTINUOUS
 62
1
 10
49733.2916259766
 20
32016.2475585938
 11
49733.2916259766
 21
32516.2475585938
  0
LINE
  8
LAY0_0
  6
CONTINUOUS
 62
1
 10
29733.2946777344
 20
32316.2506103516
 11
54733.2641601563
 21
32316.2506103516
  0
LINE
  8
LAY0_0
  6
CONTINUOUS
 62
1
 10
42233.2916259766
 20
32016.2475585938
 11
42233.2916259766
 21
32419.8120117188
  0
LINE
  8
LAY0_0
  6
CONTINUOUS
 62
1
 10
39733.2916259766
 20
32016.2475585938
 11
39733.2916259766
 21
32516.2475585938
  0
LINE
  8
LAY0_0
  6
CONTINUOUS
 62
1
 10
44733.2916259766
 20
32016.2475585938
 11
44733.2916259766
 21
32516.2475585938
  0
LINE
  8
LAY0_0
  6
CONTINUOUS
 62
1
 10
52233.2763671875
 20
32016.2475585938
 11
52233.2763671875
 21
32419.8120117188
  0
LINE
  8
LAY0_0
  6
CONTINUOUS
 62
1
 10
33233.2916259766
 20
32016.2475585938
 11
33233.2916259766
 21
32313.9770507813
  0
LINE
  8
LAY0_0
  6
CONTINUOUS
 62
1
 10
42153.7750244141
 20
15658.1237792969
 11
42153.7750244141
 21
15717.8588867188
  0
LINE
  8
LAY0_0
  6
CONTINUOUS
 62
1
 10
41553.7750244141
 20
15658.1253051758
 11
41553.7750244141
 21
15716.2445068359
  0
LINE
  8
LAY0_0
  6
CONTINUOUS
 62
1
 10
41753.7750244141
 20
15658.1253051758
 11
41753.7750244141
 21
15716.2460327148
  0
LINE
  8
LAY0_0
  6
CONTINUOUS
 62
1
 10
42253.7719726563
 20
15658.1237792969
 11
42253.7719726563
 21
15719.4747924805
  0
LINE
  8
LAY0_0
  6
CONTINUOUS
 62
1
 10
46353.7689208984
 20
15658.1253051758
 11
46353.7689208984
 21
15758.122253418
  0
LINE
  8
LAY0_0
  6
CONTINUOUS
 62
1
 10
42353.7750244141
 20
15658.1253051758
 11
42353.7750244141
 21
15758.1253051758
  0
LINE
  8
LAY0_0
  6
CONTINUOUS
 62
1
 10
41453.7750244141
 20
15658.1253051758
 11
41453.7750244141
 21
15716.2445068359
  0
LINE
  8
LAY0_0
  6
CONTINUOUS
 62
1
 10
41853.7750244141
 20
15658.1237792969
 11
41853.7750244141
 21
15738.8381958008
  0
LINE
  8
LAY0_0
  6
CONTINUOUS
 62
1
 10
42053.7750244141
 20
15658.1253051758
 11
42053.7750244141
 21
15716.2460327148
  0
LINE
  8
LAY0_0
  6
CONTINUOUS
 62
1
 10
43853.7750244141
 20
15658.1253051758
 11
43853.7750244141
 21
15738.8397216797
  0
LINE
  8
LAY0_0
  6
CONTINUOUS
 62
1
 10
43853.7750244141
 20
15658.1253051758
 11
43853.7750244141
 21
15738.8397216797
  0
LINE
  8
LAY0_0
  6
CONTINUOUS
 62
1
 10
43853.7750244141
 20
15658.1253051758
 11
43853.7750244141
 21
15738.8397216797
  0
LINE
  8
LAY0_0
  6
CONTINUOUS
 62
1
 10
45853.7750244141
 20
15658.1253051758
 11
45853.7750244141
 21
15738.8397216797
  0
LINE
  8
LAY0_0
  6
CONTINUOUS
 62
1
 10
42853.7750244141
 20
15658.1253051758
 11
42853.7750244141
 21
15738.8397216797
  0
LINE
  8
LAY0_0
  6
CONTINUOUS
 62
1
 10
43353.7750244141
 20
15658.1253051758
 11
43353.7750244141
 21
15758.1253051758
  0
LINE
  8
LAY0_0
  6
CONTINUOUS
 62
1
 10
43853.7750244141
 20
15658.1253051758
 11
43853.7750244141
 21
15738.8397216797
  0
LINE
  8
LAY0_0
  6
CONTINUOUS
 62
1
 10
44853.7750244141
 20
15658.1253051758
 11
44853.7750244141
 21
15738.8397216797
  0
LINE
  8
LAY0_0
  6
CONTINUOUS
 62
1
 10
38874.6002197266
 20
23452.2888183594
 11
38874.6002197266
 21
23652.2888183594
  0
LINE
  8
LAY0_0
  6
CONTINUOUS
 62
1
 10
39474.6002197266
 20
23452.2888183594
 11
39474.6002197266
 21
23571.7590332031
  0
LINE
  8
LAY0_0
  6
CONTINUOUS
 62
1
 10
41874.6002197266
 20
23452.2888183594
 11
41874.6002197266
 21
23613.7145996094
  0
LINE
  8
LAY0_0
  6
CONTINUOUS
 62
1
 10
40674.6002197266
 20
23452.2888183594
 11
40674.6002197266
 21
23571.4630126953
  0
LINE
  8
LAY0_0
  6
CONTINUOUS
 62
1
 10
46874.6002197266
 20
23452.2888183594
 11
46874.6002197266
 21
23652.2888183594
  0
LINE
  8
LAY0_0
  6
CONTINUOUS
 62
1
 10
39674.6002197266
 20
23452.2888183594
 11
39674.6002197266
 21
23571.8566894531
  0
LINE
  8
LAY0_0
  6
CONTINUOUS
 62
1
 10
43874.6002197266
 20
23452.2888183594
 11
43874.6002197266
 21
23613.7145996094
  0
LINE
  8
LAY0_0
  6
CONTINUOUS
 62
1
 10
38874.6002197266
 20
23572.2900390625
 11
48874.5880126953
 21
23572.2900390625
  0
LINE
  8
LAY0_0
  6
CONTINUOUS
 62
1
 10
39274.6002197266
 20
23452.2888183594
 11
39274.6002197266
 21
23571.6949462891
  0
LINE
  8
LAY0_0
  6
CONTINUOUS
 62
1
 10
41353.7750244141
 20
15658.1237792969
 11
41353.7750244141
 21
15758.1237792969
  0
LINE
  8
LAY0_0
  6
CONTINUOUS
 62
1
 10
41353.7750244141
 20
15718.1259155273
 11
46353.7689208984
 21
15718.1259155273
  0
LINE
  8
LAY0_0
  6
CONTINUOUS
 62
1
 10
44353.7719726563
 20
15658.1253051758
 11
44353.7719726563
 21
15758.1253051758
  0
LINE
  8
LAY0_0
  6
CONTINUOUS
 62
1
 10
44353.7719726563
 20
15658.1253051758
 11
44353.7719726563
 21
15758.1253051758
  0
LINE
  8
LAY0_0
  6
CONTINUOUS
 62
1
 10
45353.7719726563
 20
15658.1237792969
 11
45353.7719726563
 21
15758.1268310547
  0
LINE
  8
LAY0_0
  6
CONTINUOUS
 62
1
 10
41953.7750244141
 20
15658.1237792969
 11
41953.7750244141
 21
15714.6331787109
  0
LINE
  8
LAY0_0
  6
CONTINUOUS
 62
1
 10
40074.6002197266
 20
23452.2888183594
 11
40074.6002197266
 21
23571.8109130859
  0
LINE
  8
LAY0_0
  6
CONTINUOUS
 62
1
 10
41353.7750244141
 20
15658.1237792969
 11
46353.7689208984
 21
15658.1253051758
  0
LINE
  8
LAY0_0
  6
CONTINUOUS
 62
1
 10
41653.7750244141
 20
15658.1237792969
 11
41653.7750244141
 21
15717.8604125977
  0
TEXT
  8
LAY0_0
  1
20 m
 10
54592.08984375
 20
32582.4890136719
 40
200
 41
1
 50
0
  0
TEXT
  8
LAY0_0
  1
Scale　1/100
 10
42807.4798583984
 20
24380.1971435547
 40
0
 41
1
 50
0
  0
TEXT
  8
LAY0_0
  1
Scale　1/100　参考データ
 10
13086.5005493164
 20
50972.4212646484
 40
0
 41
1
 50
0
  0
TEXT
  8
LAY0_0
  1
2
 10
38826.9195556641
 20
23720.7244873047
 40
200
 41
1
 50
0
  0
TEXT
  8
LAY0_0
  1
2
 10
42818.408203125
 20
23724.2935180664
 40
200
 41
1
 50
0
  0
TEXT
  8
LAY0_0
  1
5
 10
29684.7564697266
 20
32589.2028808594
 40
200
 41
1
 50
0
  0
TEXT
  8
LAY0_0
  1
5
 10
39693.3685302734
 20
32590.3198242188
 40
200
 41
1
 50
0
  0
TEXT
  8
LAY0_0
  1
15
 10
49622.6654052734
 20
32578.1982421875
 40
200
 41
1
 50
0
  0
TEXT
  8
LAY0_0
  1
0
 10
34704.7180175781
 20
32588.2202148438
 40
200
 41
1
 50
0
  0
TEXT
  8
LAY0_0
  1
10
 10
44632.5836181641
 20
32586.0412597656
 40
200
 41
1
 50
0
  0
TEXT
  8
LAY0_0
  1
6
 10
46816.0308837891
 20
23723.1643676758
 40
200
 41
1
 50
0
  0
TEXT
  8
LAY0_0
  1
0
 10
42321.9818115234
 20
15836.9857788086
 40
200
 41
1
 50
0
  0
TEXT
  8
LAY0_0
  1
4 m
 10
46282.4249267578
 20
15815.4525756836
 40
200
 41
1
 50
0
  0
TEXT
  8
LAY0_0
  1
2
 10
44282.7484130859
 20
15809.0408325195
 40
200
 41
1
 50
0
  0
TEXT
  8
LAY0_0
  1
1
 10
43282.4188232422
 20
15815.4525756836
 40
200
 41
1
 50
0
  0
TEXT
  8
LAY0_0
  1
1
 10
41288.1561279297
 20
15828.2791137695
 40
200
 41
1
 50
0
  0
TEXT
  8
LAY0_0
  1
0
 10
40809.6527099609
 20
23720.7244873047
 40
200
 41
1
 50
0
  0
TEXT
  8
LAY0_0
  1
4
 10
44806.8420410156
 20
23721.8673706055
 40
200
 41
1
 50
0
  0
TEXT
  8
LAY0_0
  1
8 m
 10
48846.5972900391
 20
23751.1077880859
 40
200
 41
1
 50
0
  0
TEXT
  8
LAY0_0
  1
3
 10
45283.0902099609
 20
15815.4525756836
 40
200
 41
1
 50
0
  0
TEXT
  8
LAY0_0
  1
Scale　1/100
 10
42720.0897216797
 20
16340.7379150391
 40
0
 41
1
 50
0
  0
ENDSEC
  0
EOF
