  0
SECTION
  2
HEADER
  9
$EXTMIN
 10
0
 20
0
  9
$EXTMAX
 10
841000
 20
595000
  0
ENDSEC
  0
SECTION
  2
TABLES
  0
TABLE
  2
LTYPE
 70
     6
  0
LTYPE
  2
CONTINUOUS
 70
    64
  3
CONTINUOUS
 72
    65
 73
     0
 40
0.0
  0
LTYPE
  2
DASHED1
 70
    64
  3
DASHED1
 72
    65
 73
     2
 40
2.5
 49
1.250
 49
-1.25
  0
LTYPE
  2
DASHED2
 70
    64
  3
DASHED2
 72
    65
 73
     2
 40
5.0
 49
3.750
 49
-1.25
  0
LTYPE
  2
DASHED2
 70
    64
  3
DASHED2
 72
    65
 73
     4
 40
10.0
 49
6.250
 49
-1.25
 49
1.25
 49
-1.25
  0
LTYPE
  2
CENTER
 70
    64
  3
CENTER
 72
    65
 73
     6
 40
10.0
 49
3.250
 49
-1.25
 49
1.25
 49
-1.25
 49
1.25
 49
-1.25
  0
LTYPE
  2
CENTER
 70
    64
  3
CENTER
 72
    65
 73
     2
 40
2.5
 49
0.625
 49
-1.875
  0
ENDTAB
  0
TABLE
  2
STYLE
 70
     1
  0
STYLE
  2
STANDARD
 70
    64
 40
0.0
 41
1.0
 42
0.0
 50
0.0
 71
     0
  3
TXT
  4
BIGFONT
  0
ENDTAB
  0
TABLE
  2
LAYER
 70
   256
  0
LAYER
  2
LAY0_0
 70
   64
 62
    7
  6
CONTINUOUS
  0
ENDTAB
  0
ENDSEC
  0
SECTION
  2
ENTITIES
  0
LINE
  8
LAY0_0
  6
CONTINUOUS
 62
1
 10
423368.408203125
 20
174863.861083984
 11
423368.408203125
 21
175671.005249023
  0
LINE
  8
LAY0_0
  6
CONTINUOUS
 62
1
 10
443368.408203125
 20
174863.861083984
 11
443368.408203125
 21
175671.005249023
  0
LINE
  8
LAY0_0
  6
CONTINUOUS
 62
1
 10
423368.408203125
 20
174863.861083984
 11
423368.408203125
 21
175671.005249023
  0
LINE
  8
LAY0_0
  6
CONTINUOUS
 62
1
 10
423368.408203125
 20
174863.861083984
 11
423368.408203125
 21
175671.005249023
  0
LINE
  8
LAY0_0
  6
CONTINUOUS
 62
1
 10
413368.408203125
 20
174863.861083984
 11
413368.408203125
 21
175671.005249023
  0
LINE
  8
LAY0_0
  6
CONTINUOUS
 62
1
 10
423368.408203125
 20
174863.861083984
 11
423368.408203125
 21
175671.005249023
  0
LINE
  8
LAY0_0
  6
CONTINUOUS
 62
1
 10
433368.408203125
 20
174863.861083984
 11
433368.408203125
 21
175671.005249023
  0
LINE
  8
LAY0_0
  6
CONTINUOUS
 62
1
 10
418368.408203125
 20
174863.861083984
 11
418368.408203125
 21
175863.861083984
  0
LINE
  8
LAY0_0
  6
CONTINUOUS
 62
1
 10
402368.408203125
 20
174863.861083984
 11
402368.408203125
 21
175445.068359375
  0
LINE
  8
LAY0_0
  6
CONTINUOUS
 62
1
 10
407368.377685547
 20
174863.845825195
 11
407368.377685547
 21
175477.355957031
  0
LINE
  8
LAY0_0
  6
CONTINUOUS
 62
1
 10
406368.408203125
 20
174863.845825195
 11
406368.408203125
 21
175461.196899414
  0
LINE
  8
LAY0_0
  6
CONTINUOUS
 62
1
 10
400368.408203125
 20
174863.861083984
 11
400368.408203125
 21
175445.053100586
  0
LINE
  8
LAY0_0
  6
CONTINUOUS
 62
1
 10
448368.347167969
 20
174863.861083984
 11
448368.347167969
 21
175863.830566406
  0
LINE
  8
LAY0_0
  6
CONTINUOUS
 62
1
 10
403368.408203125
 20
174863.845825195
 11
403368.408203125
 21
175670.989990234
  0
LINE
  8
LAY0_0
  6
CONTINUOUS
 62
1
 10
405368.408203125
 20
174863.861083984
 11
405368.408203125
 21
175445.068359375
  0
LINE
  8
LAY0_0
  6
CONTINUOUS
 62
1
 10
408368.408203125
 20
174863.861083984
 11
408368.408203125
 21
175863.861083984
  0
LINE
  8
LAY0_0
  6
CONTINUOUS
 62
1
 10
399368.408203125
 20
174863.861083984
 11
399368.408203125
 21
175445.053100586
  0
LINE
  8
LAY0_0
  6
CONTINUOUS
 62
1
 10
428368.377685547
 20
174863.861083984
 11
428368.377685547
 21
175863.861083984
  0
LINE
  8
LAY0_0
  6
CONTINUOUS
 62
1
 10
428368.377685547
 20
174863.861083984
 11
428368.377685547
 21
175863.861083984
  0
LINE
  8
LAY0_0
  6
CONTINUOUS
 62
1
 10
398368.408203125
 20
174863.845825195
 11
398368.408203125
 21
175863.845825195
  0
LINE
  8
LAY0_0
  6
CONTINUOUS
 62
1
 10
398368.408203125
 20
175463.8671875
 11
448368.347167969
 21
175463.8671875
  0
LINE
  8
LAY0_0
  6
CONTINUOUS
 62
1
 10
438368.377685547
 20
174863.845825195
 11
438368.377685547
 21
175863.876342773
  0
LINE
  8
LAY0_0
  6
CONTINUOUS
 62
1
 10
398368.408203125
 20
174863.845825195
 11
448368.347167969
 21
174863.861083984
  0
LINE
  8
LAY0_0
  6
CONTINUOUS
 62
1
 10
401368.408203125
 20
174863.845825195
 11
401368.408203125
 21
175461.212158203
  0
LINE
  8
LAY0_0
  6
CONTINUOUS
 62
1
 10
404368.408203125
 20
174863.845825195
 11
404368.408203125
 21
175428.939819336
  0
TEXT
  8
LAY0_0
  1
10
 10
417365.051269531
 20
176247.955322266
 40
2000
 41
1
 50
0
  0
TEXT
  8
LAY0_0
  1
10
 10
397422.424316406
 20
176376.220703125
 40
2000
 41
1
 50
0
  0
TEXT
  8
LAY0_0
  1
20
 10
427368.347167969
 20
176183.837890625
 40
2000
 41
1
 50
0
  0
TEXT
  8
LAY0_0
  1
0
 10
407760.681152344
 20
176463.287353516
 40
2000
 41
1
 50
0
  0
TEXT
  8
LAY0_0
  1
Scale　1/1000　参考データ
 10
111620.140075684
 20
463536.62109375
 40
0
 41
1
 50
0
  0
TEXT
  8
LAY0_0
  1
Scale　1/1000
 10
412031.555175781
 20
181689.987182617
 40
0
 41
1
 50
0
  0
TEXT
  8
LAY0_0
  1
40 m
 10
447365.112304688
 20
176247.955322266
 40
2000
 41
1
 50
0
  0
TEXT
  8
LAY0_0
  1
30
 10
437371.765136719
 20
176247.955322266
 40
2000
 41
1
 50
0
  0
ENDSEC
  0
EOF
