  0
SECTION
  2
HEADER
  9
$EXTMIN
 10
0
 20
0
  9
$EXTMAX
 10
210250
 20
148750
  0
ENDSEC
  0
SECTION
  2
TABLES
  0
TABLE
  2
LTYPE
 70
     6
  0
LTYPE
  2
CONTINUOUS
 70
    64
  3
CONTINUOUS
 72
    65
 73
     0
 40
0.0
  0
LTYPE
  2
DASHED1
 70
    64
  3
DASHED1
 72
    65
 73
     2
 40
2.5
 49
1.250
 49
-1.25
  0
LTYPE
  2
DASHED2
 70
    64
  3
DASHED2
 72
    65
 73
     2
 40
5.0
 49
3.750
 49
-1.25
  0
LTYPE
  2
DASHED2
 70
    64
  3
DASHED2
 72
    65
 73
     4
 40
10.0
 49
6.250
 49
-1.25
 49
1.25
 49
-1.25
  0
LTYPE
  2
CENTER
 70
    64
  3
CENTER
 72
    65
 73
     6
 40
10.0
 49
3.250
 49
-1.25
 49
1.25
 49
-1.25
 49
1.25
 49
-1.25
  0
LTYPE
  2
CENTER
 70
    64
  3
CENTER
 72
    65
 73
     2
 40
2.5
 49
0.625
 49
-1.875
  0
ENDTAB
  0
TABLE
  2
STYLE
 70
     1
  0
STYLE
  2
STANDARD
 70
    64
 40
0.0
 41
1.0
 42
0.0
 50
0.0
 71
     0
  3
TXT
  4
BIGFONT
  0
ENDTAB
  0
TABLE
  2
LAYER
 70
   256
  0
LAYER
  2
LAY0_0
 70
   64
 62
    7
  6
CONTINUOUS
  0
ENDTAB
  0
ENDSEC
  0
SECTION
  2
ENTITIES
  0
LINE
  8
LAY0_0
  6
CONTINUOUS
 62
1
 10
99508.1787109375
 20
18457.0941925049
 11
99508.1787109375
 21
18576.5647888184
  0
LINE
  8
LAY0_0
  6
CONTINUOUS
 62
1
 10
103908.180236816
 20
18457.0941925049
 11
103908.180236816
 21
18657.0949554443
  0
LINE
  8
LAY0_0
  6
CONTINUOUS
 62
1
 10
107908.172607422
 20
18457.0941925049
 11
107908.172607422
 21
18657.0949554443
  0
LINE
  8
LAY0_0
  6
CONTINUOUS
 62
1
 10
98908.1802368164
 20
18457.0941925049
 11
98908.1802368164
 21
18618.5207366943
  0
LINE
  8
LAY0_0
  6
CONTINUOUS
 62
1
 10
104908.180236816
 20
18457.0941925049
 11
104908.180236816
 21
18618.5207366943
  0
LINE
  8
LAY0_0
  6
CONTINUOUS
 62
1
 10
101908.180236816
 20
18457.0941925049
 11
101908.180236816
 21
18657.0949554443
  0
LINE
  8
LAY0_0
  6
CONTINUOUS
 62
1
 10
97908.1802368164
 20
18457.0941925049
 11
97908.1802368164
 21
18657.0949554443
  0
LINE
  8
LAY0_0
  6
CONTINUOUS
 62
1
 10
98108.1771850586
 20
18457.0941925049
 11
98108.1771850586
 21
18576.0345458984
  0
LINE
  8
LAY0_0
  6
CONTINUOUS
 62
1
 10
103908.180236816
 20
18457.0941925049
 11
103908.180236816
 21
18657.0949554443
  0
LINE
  8
LAY0_0
  6
CONTINUOUS
 62
1
 10
99908.1802368164
 20
18457.0941925049
 11
99908.1802368164
 21
18657.0949554443
  0
LINE
  8
LAY0_0
  6
CONTINUOUS
 62
6
 10
97908.1802368164
 20
18457.0941925049
 11
107908.172607422
 21
18457.0941925049
  0
LINE
  8
LAY0_0
  6
CONTINUOUS
 62
1
 10
99308.1817626953
 20
18457.0941925049
 11
99308.1817626953
 21
18576.6429901123
  0
LINE
  8
LAY0_0
  6
CONTINUOUS
 62
1
 10
98708.1832885742
 20
18457.0941925049
 11
98708.1832885742
 21
18576.6658782959
  0
LINE
  8
LAY0_0
  6
CONTINUOUS
 62
1
 10
98308.1817626953
 20
18457.0941925049
 11
98308.1817626953
 21
18576.2252807617
  0
LINE
  8
LAY0_0
  6
CONTINUOUS
 62
1
 10
99708.1832885742
 20
18457.0941925049
 11
99708.1832885742
 21
18576.4865875244
  0
LINE
  8
LAY0_0
  6
CONTINUOUS
 62
1
 10
100908.180236816
 20
18457.0941925049
 11
100908.180236816
 21
18618.5207366943
  0
LINE
  8
LAY0_0
  6
CONTINUOUS
 62
1
 10
99108.1771850586
 20
18457.0941925049
 11
99108.1771850586
 21
18577.1217346191
  0
LINE
  8
LAY0_0
  6
CONTINUOUS
 62
1
 10
106908.172607422
 20
18457.0941925049
 11
106908.172607422
 21
18618.5207366943
  0
LINE
  8
LAY0_0
  6
CONTINUOUS
 62
1
 10
97908.1802368164
 20
18577.0950317383
 11
107908.172607422
 21
18577.0950317383
  0
LINE
  8
LAY0_0
  6
CONTINUOUS
 62
1
 10
105908.180236816
 20
18457.0941925049
 11
105908.180236816
 21
18657.0949554443
  0
LINE
  8
LAY0_0
  6
CONTINUOUS
 62
1
 10
97908.1802368164
 20
18457.0941925049
 11
97908.1802368164
 21
18657.0949554443
  0
LINE
  8
LAY0_0
  6
CONTINUOUS
 62
1
 10
102908.180236816
 20
18457.0941925049
 11
102908.180236816
 21
18618.5207366943
  0
LINE
  8
LAY0_0
  6
CONTINUOUS
 62
1
 10
98508.1787109375
 20
18457.0941925049
 11
98508.1787109375
 21
18576.5647888184
  0
LINE
  8
LAY0_0
  6
CONTINUOUS
 62
1
 10
84922.7600097656
 20
46602.6878356934
 11
84922.7600097656
 21
47200.0389099121
  0
LINE
  8
LAY0_0
  6
CONTINUOUS
 62
1
 10
106922.760009766
 20
46602.6878356934
 11
106922.760009766
 21
47602.6878356934
  0
LINE
  8
LAY0_0
  6
CONTINUOUS
 62
1
 10
126922.714233398
 20
46602.6878356934
 11
126922.714233398
 21
47602.6878356934
  0
LINE
  8
LAY0_0
  6
CONTINUOUS
 62
1
 10
81922.7600097656
 20
46602.6878356934
 11
81922.7600097656
 21
47409.8167419434
  0
LINE
  8
LAY0_0
  6
CONTINUOUS
 62
1
 10
111922.760009766
 20
46602.6878356934
 11
111922.760009766
 21
47409.8167419434
  0
LINE
  8
LAY0_0
  6
CONTINUOUS
 62
1
 10
96922.7600097656
 20
46602.6878356934
 11
96922.7600097656
 21
47602.6878356934
  0
LINE
  8
LAY0_0
  6
CONTINUOUS
 62
1
 10
76922.7676391602
 20
46602.6878356934
 11
76922.7676391602
 21
47602.6878356934
  0
LINE
  8
LAY0_0
  6
CONTINUOUS
 62
1
 10
77922.7600097656
 20
46602.6878356934
 11
77922.7600097656
 21
47197.1626281738
  0
LINE
  8
LAY0_0
  6
CONTINUOUS
 62
1
 10
106922.760009766
 20
46602.6878356934
 11
106922.760009766
 21
47602.6878356934
  0
LINE
  8
LAY0_0
  6
CONTINUOUS
 62
1
 10
86922.7600097656
 20
46602.6878356934
 11
86922.7600097656
 21
47602.6878356934
  0
LINE
  8
LAY0_0
  6
CONTINUOUS
 62
6
 10
76922.7676391602
 20
46602.6878356934
 11
126922.714233398
 21
46602.6878356934
  0
LINE
  8
LAY0_0
  6
CONTINUOUS
 62
1
 10
83922.7600097656
 20
46602.6878356934
 11
83922.7600097656
 21
47198.1468200684
  0
LINE
  8
LAY0_0
  6
CONTINUOUS
 62
1
 10
80922.7600097656
 20
46602.6878356934
 11
80922.7600097656
 21
47200.5310058594
  0
LINE
  8
LAY0_0
  6
CONTINUOUS
 62
1
 10
78922.7600097656
 20
46602.6878356934
 11
78922.7600097656
 21
47199.7146606445
  0
LINE
  8
LAY0_0
  6
CONTINUOUS
 62
1
 10
85922.7600097656
 20
46602.6878356934
 11
85922.7600097656
 21
47198.5664367676
  0
LINE
  8
LAY0_0
  6
CONTINUOUS
 62
1
 10
91922.7600097656
 20
46602.6878356934
 11
91922.7600097656
 21
47409.8167419434
  0
LINE
  8
LAY0_0
  6
CONTINUOUS
 62
1
 10
82922.7600097656
 20
46602.6878356934
 11
82922.7600097656
 21
47200.3021240234
  0
LINE
  8
LAY0_0
  6
CONTINUOUS
 62
1
 10
121922.729492188
 20
46602.6878356934
 11
121922.729492188
 21
47409.8167419434
  0
LINE
  8
LAY0_0
  6
CONTINUOUS
 62
1
 10
76922.7676391602
 20
47202.693939209
 11
126922.714233398
 21
47202.693939209
  0
LINE
  8
LAY0_0
  6
CONTINUOUS
 62
1
 10
116922.760009766
 20
46602.6878356934
 11
116922.760009766
 21
47602.6878356934
  0
LINE
  8
LAY0_0
  6
CONTINUOUS
 62
1
 10
76922.7676391602
 20
46602.6878356934
 11
76922.7676391602
 21
47602.6878356934
  0
LINE
  8
LAY0_0
  6
CONTINUOUS
 62
1
 10
101922.760009766
 20
46602.6878356934
 11
101922.760009766
 21
47409.8167419434
  0
LINE
  8
LAY0_0
  6
CONTINUOUS
 62
1
 10
79922.7600097656
 20
46602.6878356934
 11
79922.7600097656
 21
47200.0389099121
  0
LINE
  8
LAY0_0
  6
CONTINUOUS
 62
1
 10
94153.6026000977
 20
32890.7318115234
 11
94153.6026000977
 21
33189.4073486328
  0
LINE
  8
LAY0_0
  6
CONTINUOUS
 62
1
 10
105153.602600098
 20
32890.7318115234
 11
105153.602600098
 21
33390.7318115234
  0
LINE
  8
LAY0_0
  6
CONTINUOUS
 62
1
 10
115153.579711914
 20
32890.7318115234
 11
115153.579711914
 21
33390.7318115234
  0
LINE
  8
LAY0_0
  6
CONTINUOUS
 62
1
 10
92653.6026000977
 20
32890.7318115234
 11
92653.6026000977
 21
33294.2962646484
  0
LINE
  8
LAY0_0
  6
CONTINUOUS
 62
1
 10
107653.602600098
 20
32890.7318115234
 11
107653.602600098
 21
33294.2962646484
  0
LINE
  8
LAY0_0
  6
CONTINUOUS
 62
1
 10
100153.602600098
 20
32890.7318115234
 11
100153.602600098
 21
33390.7318115234
  0
LINE
  8
LAY0_0
  6
CONTINUOUS
 62
1
 10
90153.6026000977
 20
32890.7318115234
 11
90153.6026000977
 21
33390.7318115234
  0
LINE
  8
LAY0_0
  6
CONTINUOUS
 62
1
 10
90653.6026000977
 20
32890.7318115234
 11
90653.6026000977
 21
33188.0836486816
  0
LINE
  8
LAY0_0
  6
CONTINUOUS
 62
1
 10
105153.602600098
 20
32890.7318115234
 11
105153.602600098
 21
33390.7318115234
  0
LINE
  8
LAY0_0
  6
CONTINUOUS
 62
1
 10
95153.6026000977
 20
32890.7318115234
 11
95153.6026000977
 21
33390.7318115234
  0
LINE
  8
LAY0_0
  6
CONTINUOUS
 62
6
 10
90153.6026000977
 20
32890.7318115234
 11
115153.579711914
 21
32890.7318115234
  0
LINE
  8
LAY0_0
  6
CONTINUOUS
 62
1
 10
93653.6026000977
 20
32890.7318115234
 11
93653.6026000977
 21
33189.6018981934
  0
LINE
  8
LAY0_0
  6
CONTINUOUS
 62
1
 10
92153.6026000977
 20
32890.7318115234
 11
92153.6026000977
 21
33189.6591186523
  0
LINE
  8
LAY0_0
  6
CONTINUOUS
 62
1
 10
91153.6026000977
 20
32890.7318115234
 11
91153.6026000977
 21
33188.5604858398
  0
LINE
  8
LAY0_0
  6
CONTINUOUS
 62
1
 10
94653.6026000977
 20
32890.7318115234
 11
94653.6026000977
 21
33189.2127990723
  0
LINE
  8
LAY0_0
  6
CONTINUOUS
 62
1
 10
97653.6026000977
 20
32890.7318115234
 11
97653.6026000977
 21
33294.2962646484
  0
LINE
  8
LAY0_0
  6
CONTINUOUS
 62
1
 10
93153.6026000977
 20
32890.7318115234
 11
93153.6026000977
 21
33190.7997131348
  0
LINE
  8
LAY0_0
  6
CONTINUOUS
 62
1
 10
112653.587341309
 20
32890.7318115234
 11
112653.587341309
 21
33294.2962646484
  0
LINE
  8
LAY0_0
  6
CONTINUOUS
 62
1
 10
90153.6026000977
 20
33190.7348632813
 11
115153.579711914
 21
33190.7348632813
  0
LINE
  8
LAY0_0
  6
CONTINUOUS
 62
1
 10
110153.602600098
 20
32890.7318115234
 11
110153.602600098
 21
33390.7318115234
  0
LINE
  8
LAY0_0
  6
CONTINUOUS
 62
1
 10
90153.6026000977
 20
32890.7318115234
 11
90153.6026000977
 21
33390.7318115234
  0
LINE
  8
LAY0_0
  6
CONTINUOUS
 62
1
 10
102653.602600098
 20
32890.7318115234
 11
102653.602600098
 21
33294.2962646484
  0
LINE
  8
LAY0_0
  6
CONTINUOUS
 62
1
 10
91653.6026000977
 20
32890.7318115234
 11
91653.6026000977
 21
33189.4073486328
  0
TEXT
  8
LAY0_0
  1
2
 10
101747.833251953
 20
18781.0935974121
 40
500
 41
1
 50
0
  0
TEXT
  8
LAY0_0
  1
2
 10
97765.3732299805
 20
18766.5061950684
 40
500
 41
1
 50
0
  0
TEXT
  8
LAY0_0
  1
0
 10
99778.4881591797
 20
18766.5061950684
 40
500
 41
1
 50
0
  0
TEXT
  8
LAY0_0
  1
6
 10
105759.468078613
 20
18751.916885376
 40
500
 41
1
 50
0
  0
TEXT
  8
LAY0_0
  1
8 m
 10
107641.296386719
 20
18751.916885376
 40
500
 41
1
 50
0
  0
TEXT
  8
LAY0_0
  1
4
 10
103702.598571777
 20
18766.5061950684
 40
500
 41
1
 50
0
  0
TEXT
  8
LAY0_0
  1
10
 10
76678.3065795898
 20
47803.3828735352
 40
500
 41
1
 50
0
  0
TEXT
  8
LAY0_0
  1
20
 10
106623.70300293
 20
47781.9900512695
 40
500
 41
1
 50
0
  0
TEXT
  8
LAY0_0
  1
30
 10
116641.334533691
 20
47781.2309265137
 40
500
 41
1
 50
0
  0
TEXT
  8
LAY0_0
  1
10
 10
96607.3150634766
 20
47781.6581726074
 40
500
 41
1
 50
0
  0
TEXT
  8
LAY0_0
  1
5
 10
100000.694274902
 20
33523.9562988281
 40
500
 41
1
 50
0
  0
TEXT
  8
LAY0_0
  1
5
 10
89998.3673095703
 20
33517.1737670898
 40
500
 41
1
 50
0
  0
TEXT
  8
LAY0_0
  1
40 m
 10
126552.810668945
 20
47786.6439819336
 40
500
 41
1
 50
0
  0
TEXT
  8
LAY0_0
  1
0
 10
95014.8773193359
 20
33517.3416137695
 40
500
 41
1
 50
0
  0
TEXT
  8
LAY0_0
  1
Scale　1/250
 10
100087.577819824
 20
35381.1531066895
 40
0
 41
1
 50
0
  0
TEXT
  8
LAY0_0
  1
15
 10
109856.330871582
 20
33519.4931030273
 40
500
 41
1
 50
0
  0
TEXT
  8
LAY0_0
  1
0
 10
86767.5170898438
 20
47784.8701477051
 40
500
 41
1
 50
0
  0
TEXT
  8
LAY0_0
  1
20 m
 10
114867.172241211
 20
33518.9590454102
 40
500
 41
1
 50
0
  0
TEXT
  8
LAY0_0
  1
10
 10
104864.395141602
 20
33518.424987793
 40
500
 41
1
 50
0
  0
TEXT
  8
LAY0_0
  1
Scale　1/250　参考データ
 10
34400.1731872559
 20
125266.014099121
 40
0
 41
1
 50
0
  0
ENDSEC
  0
EOF
