  0
SECTION
  2
HEADER
  9
$EXTMIN
 10
0
 20
0
  9
$EXTMAX
 10
252300
 20
178500
  0
ENDSEC
  0
SECTION
  2
TABLES
  0
TABLE
  2
LTYPE
 70
     6
  0
LTYPE
  2
CONTINUOUS
 70
    64
  3
CONTINUOUS
 72
    65
 73
     0
 40
0.0
  0
LTYPE
  2
DASHED1
 70
    64
  3
DASHED1
 72
    65
 73
     2
 40
2.5
 49
1.250
 49
-1.25
  0
LTYPE
  2
DASHED2
 70
    64
  3
DASHED2
 72
    65
 73
     2
 40
5.0
 49
3.750
 49
-1.25
  0
LTYPE
  2
DASHED2
 70
    64
  3
DASHED2
 72
    65
 73
     4
 40
10.0
 49
6.250
 49
-1.25
 49
1.25
 49
-1.25
  0
LTYPE
  2
CENTER
 70
    64
  3
CENTER
 72
    65
 73
     6
 40
10.0
 49
3.250
 49
-1.25
 49
1.25
 49
-1.25
 49
1.25
 49
-1.25
  0
LTYPE
  2
CENTER
 70
    64
  3
CENTER
 72
    65
 73
     2
 40
2.5
 49
0.625
 49
-1.875
  0
ENDTAB
  0
TABLE
  2
STYLE
 70
     1
  0
STYLE
  2
STANDARD
 70
    64
 40
0.0
 41
1.0
 42
0.0
 50
0.0
 71
     0
  3
TXT
  4
BIGFONT
  0
ENDTAB
  0
TABLE
  2
LAYER
 70
   256
  0
LAYER
  2
LAY0_0
 70
   64
 62
    7
  6
CONTINUOUS
  0
ENDTAB
  0
ENDSEC
  0
SECTION
  2
ENTITIES
  0
LINE
  8
LAY0_0
  6
CONTINUOUS
 62
1
 10
116489.794921875
 20
25323.9120483398
 11
116489.794921875
 21
25442.8550720215
  0
LINE
  8
LAY0_0
  6
CONTINUOUS
 62
1
 10
116289.788818359
 20
25323.9120483398
 11
116289.788818359
 21
25523.9158630371
  0
LINE
  8
LAY0_0
  6
CONTINUOUS
 62
1
 10
122289.916992188
 20
25323.9120483398
 11
122289.916992188
 21
25523.9158630371
  0
LINE
  8
LAY0_0
  6
CONTINUOUS
 62
6
 10
116289.788818359
 20
25323.9120483398
 11
126289.984130859
 21
25323.9120483398
  0
LINE
  8
LAY0_0
  6
CONTINUOUS
 62
1
 10
118289.831542969
 20
25323.9120483398
 11
118289.831542969
 21
25523.9158630371
  0
LINE
  8
LAY0_0
  6
CONTINUOUS
 62
1
 10
120289.874267578
 20
25323.9120483398
 11
120289.874267578
 21
25523.9158630371
  0
LINE
  8
LAY0_0
  6
CONTINUOUS
 62
1
 10
122289.916992188
 20
25323.9120483398
 11
122289.916992188
 21
25523.9158630371
  0
LINE
  8
LAY0_0
  6
CONTINUOUS
 62
1
 10
117889.819335938
 20
25323.9120483398
 11
117889.819335938
 21
25443.3837890625
  0
LINE
  8
LAY0_0
  6
CONTINUOUS
 62
1
 10
126289.984130859
 20
25323.9120483398
 11
126289.984130859
 21
25523.9158630371
  0
LINE
  8
LAY0_0
  6
CONTINUOUS
 62
1
 10
123289.938354492
 20
25323.9120483398
 11
123289.938354492
 21
25485.3424072266
  0
LINE
  8
LAY0_0
  6
CONTINUOUS
 62
1
 10
117289.819335938
 20
25323.9120483398
 11
117289.819335938
 21
25485.3424072266
  0
LINE
  8
LAY0_0
  6
CONTINUOUS
 62
1
 10
117689.831542969
 20
25323.9120483398
 11
117689.831542969
 21
25443.4616088867
  0
LINE
  8
LAY0_0
  6
CONTINUOUS
 62
1
 10
124289.959716797
 20
25323.9120483398
 11
124289.959716797
 21
25523.9158630371
  0
LINE
  8
LAY0_0
  6
CONTINUOUS
 62
1
 10
116289.788818359
 20
25443.9147949219
 11
126289.984130859
 21
25443.9147949219
  0
LINE
  8
LAY0_0
  6
CONTINUOUS
 62
1
 10
116289.788818359
 20
25323.9120483398
 11
116289.788818359
 21
25523.9158630371
  0
LINE
  8
LAY0_0
  6
CONTINUOUS
 62
1
 10
116889.807128906
 20
25323.9120483398
 11
116889.807128906
 21
25443.3837890625
  0
LINE
  8
LAY0_0
  6
CONTINUOUS
 62
1
 10
121289.895629883
 20
25323.9120483398
 11
121289.895629883
 21
25485.3424072266
  0
LINE
  8
LAY0_0
  6
CONTINUOUS
 62
1
 10
125289.971923828
 20
25323.9120483398
 11
125289.971923828
 21
25485.3424072266
  0
LINE
  8
LAY0_0
  6
CONTINUOUS
 62
1
 10
116689.801025391
 20
25323.9120483398
 11
116689.801025391
 21
25443.0450439453
  0
LINE
  8
LAY0_0
  6
CONTINUOUS
 62
1
 10
117089.813232422
 20
25323.9120483398
 11
117089.813232422
 21
25443.4844970703
  0
LINE
  8
LAY0_0
  6
CONTINUOUS
 62
1
 10
118089.825439453
 20
25323.9120483398
 11
118089.825439453
 21
25443.3059692383
  0
LINE
  8
LAY0_0
  6
CONTINUOUS
 62
1
 10
117489.81628418
 20
25323.9120483398
 11
117489.81628418
 21
25443.9422607422
  0
LINE
  8
LAY0_0
  6
CONTINUOUS
 62
1
 10
119289.862060547
 20
25323.9120483398
 11
119289.862060547
 21
25485.3424072266
  0
LINE
  8
LAY0_0
  6
CONTINUOUS
 62
1
 10
96221.9604492188
 20
56138.3514404297
 11
96221.9604492188
 21
56732.8308105469
  0
LINE
  8
LAY0_0
  6
CONTINUOUS
 62
1
 10
95221.9665527344
 20
56138.3514404297
 11
95221.9665527344
 21
57138.3544921875
  0
LINE
  8
LAY0_0
  6
CONTINUOUS
 62
1
 10
125221.966552734
 20
56138.3514404297
 11
125221.966552734
 21
57138.3544921875
  0
LINE
  8
LAY0_0
  6
CONTINUOUS
 62
6
 10
95221.9665527344
 20
56138.3514404297
 11
145221.917724609
 21
56138.3514404297
  0
LINE
  8
LAY0_0
  6
CONTINUOUS
 62
1
 10
105221.960449219
 20
56138.3514404297
 11
105221.960449219
 21
57138.3544921875
  0
LINE
  8
LAY0_0
  6
CONTINUOUS
 62
1
 10
115221.963500977
 20
56138.3514404297
 11
115221.963500977
 21
57138.3544921875
  0
LINE
  8
LAY0_0
  6
CONTINUOUS
 62
1
 10
125221.966552734
 20
56138.3514404297
 11
125221.966552734
 21
57138.3544921875
  0
LINE
  8
LAY0_0
  6
CONTINUOUS
 62
1
 10
103221.963500977
 20
56138.3514404297
 11
103221.963500977
 21
56735.7055664063
  0
LINE
  8
LAY0_0
  6
CONTINUOUS
 62
1
 10
145221.917724609
 20
56138.3514404297
 11
145221.917724609
 21
57138.3544921875
  0
LINE
  8
LAY0_0
  6
CONTINUOUS
 62
1
 10
130221.963500977
 20
56138.3514404297
 11
130221.963500977
 21
56945.4803466797
  0
LINE
  8
LAY0_0
  6
CONTINUOUS
 62
1
 10
100221.963500977
 20
56138.3514404297
 11
100221.963500977
 21
56945.4803466797
  0
LINE
  8
LAY0_0
  6
CONTINUOUS
 62
1
 10
102221.960449219
 20
56138.3514404297
 11
102221.960449219
 21
56733.8104248047
  0
LINE
  8
LAY0_0
  6
CONTINUOUS
 62
1
 10
135221.960449219
 20
56138.3514404297
 11
135221.960449219
 21
57138.3544921875
  0
LINE
  8
LAY0_0
  6
CONTINUOUS
 62
1
 10
95221.9665527344
 20
56738.3605957031
 11
145221.917724609
 21
56738.3605957031
  0
LINE
  8
LAY0_0
  6
CONTINUOUS
 62
1
 10
95221.9665527344
 20
56138.3514404297
 11
95221.9665527344
 21
57138.3544921875
  0
LINE
  8
LAY0_0
  6
CONTINUOUS
 62
1
 10
98221.9665527344
 20
56138.3514404297
 11
98221.9665527344
 21
56735.7055664063
  0
LINE
  8
LAY0_0
  6
CONTINUOUS
 62
1
 10
120221.960449219
 20
56138.3514404297
 11
120221.960449219
 21
56945.4803466797
  0
LINE
  8
LAY0_0
  6
CONTINUOUS
 62
1
 10
140221.929931641
 20
56138.3514404297
 11
140221.929931641
 21
56945.4803466797
  0
LINE
  8
LAY0_0
  6
CONTINUOUS
 62
1
 10
97221.9635009766
 20
56138.3514404297
 11
97221.9635009766
 21
56735.3851318359
  0
LINE
  8
LAY0_0
  6
CONTINUOUS
 62
1
 10
99221.9604492188
 20
56138.3514404297
 11
99221.9604492188
 21
56736.1999511719
  0
LINE
  8
LAY0_0
  6
CONTINUOUS
 62
1
 10
104221.966552734
 20
56138.3514404297
 11
104221.966552734
 21
56734.2315673828
  0
LINE
  8
LAY0_0
  6
CONTINUOUS
 62
1
 10
101221.966552734
 20
56138.3514404297
 11
101221.966552734
 21
56735.9710693359
  0
LINE
  8
LAY0_0
  6
CONTINUOUS
 62
1
 10
110221.966552734
 20
56138.3514404297
 11
110221.966552734
 21
56945.4803466797
  0
LINE
  8
LAY0_0
  6
CONTINUOUS
 62
1
 10
109770.703125
 20
40165.1275634766
 11
109770.703125
 21
40462.4816894531
  0
LINE
  8
LAY0_0
  6
CONTINUOUS
 62
1
 10
109270.706176758
 20
40165.1275634766
 11
109270.706176758
 21
40665.1245117188
  0
LINE
  8
LAY0_0
  6
CONTINUOUS
 62
1
 10
124270.706176758
 20
40165.1275634766
 11
124270.706176758
 21
40665.1245117188
  0
LINE
  8
LAY0_0
  6
CONTINUOUS
 62
6
 10
109270.706176758
 20
40165.1275634766
 11
134270.681762695
 21
40165.1275634766
  0
LINE
  8
LAY0_0
  6
CONTINUOUS
 62
1
 10
114270.703125
 20
40165.1275634766
 11
114270.703125
 21
40665.1245117188
  0
LINE
  8
LAY0_0
  6
CONTINUOUS
 62
1
 10
119270.709228516
 20
40165.1275634766
 11
119270.709228516
 21
40665.1245117188
  0
LINE
  8
LAY0_0
  6
CONTINUOUS
 62
1
 10
124270.706176758
 20
40165.1275634766
 11
124270.706176758
 21
40665.1245117188
  0
LINE
  8
LAY0_0
  6
CONTINUOUS
 62
1
 10
113270.709228516
 20
40165.1275634766
 11
113270.709228516
 21
40463.8000488281
  0
LINE
  8
LAY0_0
  6
CONTINUOUS
 62
1
 10
134270.681762695
 20
40165.1275634766
 11
134270.681762695
 21
40665.1245117188
  0
LINE
  8
LAY0_0
  6
CONTINUOUS
 62
1
 10
126770.709228516
 20
40165.1275634766
 11
126770.709228516
 21
40568.6920166016
  0
LINE
  8
LAY0_0
  6
CONTINUOUS
 62
1
 10
111770.709228516
 20
40165.1275634766
 11
111770.709228516
 21
40568.6920166016
  0
LINE
  8
LAY0_0
  6
CONTINUOUS
 62
1
 10
112770.703125
 20
40165.1275634766
 11
112770.703125
 21
40464.0014648438
  0
LINE
  8
LAY0_0
  6
CONTINUOUS
 62
1
 10
129270.703125
 20
40165.1275634766
 11
129270.703125
 21
40665.1245117188
  0
LINE
  8
LAY0_0
  6
CONTINUOUS
 62
1
 10
109270.706176758
 20
40465.1275634766
 11
134270.681762695
 21
40465.1275634766
  0
LINE
  8
LAY0_0
  6
CONTINUOUS
 62
1
 10
109270.706176758
 20
40165.1275634766
 11
109270.706176758
 21
40665.1245117188
  0
LINE
  8
LAY0_0
  6
CONTINUOUS
 62
1
 10
110770.706176758
 20
40165.1275634766
 11
110770.706176758
 21
40463.8000488281
  0
LINE
  8
LAY0_0
  6
CONTINUOUS
 62
1
 10
121770.703125
 20
40165.1275634766
 11
121770.703125
 21
40568.6920166016
  0
LINE
  8
LAY0_0
  6
CONTINUOUS
 62
1
 10
131770.697021484
 20
40165.1275634766
 11
131770.697021484
 21
40568.6920166016
  0
LINE
  8
LAY0_0
  6
CONTINUOUS
 62
1
 10
110270.709228516
 20
40165.1275634766
 11
110270.709228516
 21
40462.9577636719
  0
LINE
  8
LAY0_0
  6
CONTINUOUS
 62
1
 10
111270.703125
 20
40165.1275634766
 11
111270.703125
 21
40464.0563964844
  0
LINE
  8
LAY0_0
  6
CONTINUOUS
 62
1
 10
113770.706176758
 20
40165.1275634766
 11
113770.706176758
 21
40463.6077880859
  0
LINE
  8
LAY0_0
  6
CONTINUOUS
 62
1
 10
112270.706176758
 20
40165.1275634766
 11
112270.706176758
 21
40465.1916503906
  0
LINE
  8
LAY0_0
  6
CONTINUOUS
 62
1
 10
116770.706176758
 20
40165.1275634766
 11
116770.706176758
 21
40568.6920166016
  0
TEXT
  8
LAY0_0
  1
2
 10
116247.235107422
 20
25552.2125244141
 40
600
 41
1
 50
0
  0
TEXT
  8
LAY0_0
  1
2
 10
120242.211914063
 20
25553.0548095703
 40
600
 41
1
 50
0
  0
TEXT
  8
LAY0_0
  1
0
 10
118241.253662109
 20
25556.192779541
 40
600
 41
1
 50
0
  0
TEXT
  8
LAY0_0
  1
4
 10
122192.230224609
 20
25551.9744873047
 40
600
 41
1
 50
0
  0
TEXT
  8
LAY0_0
  1
8 m
 10
126179.425048828
 20
25552.8923034668
 40
600
 41
1
 50
0
  0
TEXT
  8
LAY0_0
  1
6
 10
124192.794799805
 20
25554.4303894043
 40
600
 41
1
 50
0
  0
TEXT
  8
LAY0_0
  1
30
 10
135000.714111328
 20
57262.2528076172
 40
600
 41
1
 50
0
  0
TEXT
  8
LAY0_0
  1
20
 10
125020.550537109
 20
57277.9449462891
 40
600
 41
1
 50
0
  0
TEXT
  8
LAY0_0
  1
10
 10
95021.1822509766
 20
57283.3923339844
 40
600
 41
1
 50
0
  0
TEXT
  8
LAY0_0
  1
10
 10
114993.548583984
 20
57259.1674804688
 40
600
 41
1
 50
0
  0
TEXT
  8
LAY0_0
  1
40 m
 10
144939.55078125
 20
57270.8404541016
 40
600
 41
1
 50
0
  0
TEXT
  8
LAY0_0
  1
Scale　1/300
 10
118666.021728516
 20
42187.20703125
 40
0
 41
1
 50
0
  0
TEXT
  8
LAY0_0
  1
5
 10
119151.53503418
 20
40737.9730224609
 40
600
 41
1
 50
0
  0
TEXT
  8
LAY0_0
  1
Scale　1/300　参考データ
 10
17031.6925048828
 20
156407.775878906
 40
0
 41
1
 50
0
  0
TEXT
  8
LAY0_0
  1
5
 10
109164.312744141
 20
40735.8673095703
 40
600
 41
1
 50
0
  0
TEXT
  8
LAY0_0
  1
10
 10
124026.489257813
 20
40735.2722167969
 40
600
 41
1
 50
0
  0
TEXT
  8
LAY0_0
  1
0
 10
114149.258422852
 20
40745.8190917969
 40
600
 41
1
 50
0
  0
TEXT
  8
LAY0_0
  1
15
 10
129027.795410156
 20
40741.4154052734
 40
600
 41
1
 50
0
  0
TEXT
  8
LAY0_0
  1
0
 10
105101.614379883
 20
57271.4996337891
 40
600
 41
1
 50
0
  0
TEXT
  8
LAY0_0
  1
20 m
 10
133994.26574707
 20
40737.5701904297
 40
600
 41
1
 50
0
  0
ENDSEC
  0
EOF
