0
SECTION
2
HEADER
9
$ACADVER
1
AC1009
9
$EXTMIN
10
0.000
20
0.000
30
0.0
9
$EXTMAX
10
8410.000
20
5940.000
30
0.0
9
$LIMMIN
10
0.000
20
0.000
9
$LIMMAX
10
8410.000
20
5940.000
9
$DIMSCALE
40
10.000000
9
$LTSCALE
40
10.000
9
$PDMODE
70
0
9
$PDSIZE
40
40.0
9
$HANDSEED
5
61ae4
9
$UNITMODE
70
0
9
$VISRETAIN
70
0
9
$PLINEGEN
70
0
9
$PSLTSCALE
70
1
9
$TREEDEPTH
70
3020
9
$CMLSTYLE
2
STANDARD
9
$CMLJUST
70
0
9
$CMLSCALE
40
1.0
0
ENDSEC
0
SECTION
2
TABLES
0
TABLE
2
VPORT
5
190
100
AcDbSymbolTable
70
2
0
VPORT
5
191
100
AcDbSymbolTableRecord
100
AcDbViewportTableRecord
2
*ACTIVE
70
0
10
0.0
20
0.0
11
1.0
21
1.0
12
4205.000
22
2970.000
13
0.0
23
0.0
14
1.0
24
1.0
15
0.0
25
0.0
16
0.0
26
0.0
36
1.0
17
0.0
27
0.0
37
0.0
40
6094.203
41
2.0
42
50.0
43
0.0
44
0.0
50
0.0
51
0.0
71
0
72
100
73
1
74
1
75
0
76
0
77
0
78
0
0
ENDTAB
0
TABLE
2
LTYPE
70
9
0
LTYPE
5
1f4
2
CONTINUOUS
70
64
3
SolidLine
72
65
73
0
40
0.0
0
LTYPE
5
1f5
2
DOT
70
64
3
--  --  --  --  --  --  --  --     
72
65
73
2
40
3.000
49
1.000
49
-2.000
0
LTYPE
5
1f6
2
DASHED
70
64
3
----    ----    ----    ----    
72
65
73
2
40
5.000
49
2.000
49
-3.000
0
LTYPE
5
1f7
2
DASHED2
70
64
3
------  ------  ------  ------ 
72
65
73
2
40
10.000
49
4.000
49
-6.000
0
LTYPE
5
1f8
2
CENTER
70
64
3
----- - ----- - ----- - ----- - 
72
65
73
4
40
10.000
49
6.000
49
-3.000
49
1.000
49
-3.000
0
LTYPE
5
1f9
2
CENTER2
70
64
3
----------  --  ----------  -- 
72
65
73
4
40
17.000
49
12.000
49
-5.000
49
2.000
49
-5.000
0
LTYPE
5
1fa
2
PHANTOM
70
64
3
--- - - --- - - --- - - --- - -
72
65
73
6
40
13.000
49
5.000
49
-3.000
49
1.000
49
-3.000
49
1.000
49
-3.000
0
LTYPE
5
1fb
2
PHANTOM2
70
64
3
--------  -  -  --------  -  -
72
65
73
6
40
20.000
49
6.000
49
-5.000
49
2.000
49
-5.000
49
2.000
49
-5.000
0
LTYPE
5
1fc
2
HIDDEN
70
64
3
-   -   -   -   -   -   -   -   
72
65
73
2
40
3.000
49
0.500
49
-2.500
0
ENDTAB
0
TABLE
2
STYLE
70
1
0
STYLE
5
1fd
100
AcDbSymbolTableRecord
100
AcDbTextStyleTableRecord
2
STANDARD
70
0
40
0.0
41
1.0
50
0.0
71
0
42
0.0
3
txt.shx
4
extfont.shx
0
STYLE
5
1fe
100
AcDbSymbolTableRecord
100
AcDbTextStyleTableRecord
2
TATEGAKI
70
4
40
0.0
41
1.0
50
0.0
71
0
42
0.0
3
txt.shx
4
extfont.shx
0
STYLE
5
1ff
100
AcDbSymbolTableRecord
100
AcDbTextStyleTableRecord
2
DIM
70
0
40
0.0
41
0.75
50
0.0
71
0
42
0.0
3
txt.shx
4
extfont.shx
0
STYLE
5
200
100
AcDbSymbolTableRecord
100
AcDbTextStyleTableRecord
2
_Gothic_
70
0
40
0.0
41
1.0
50
0.0
71
0
42
0.0
3
MS Gothic
4

0
STYLE
5
201
100
AcDbSymbolTableRecord
100
AcDbTextStyleTableRecord
2
_TateGothic_
70
4
40
0.0
41
1.0
50
0.0
71
0
42
0.0
3
@MS Gothic
4

0
ENDTAB
0
TABLE
2
DIMSTYLE
5
403
100
AcDbSymbolTable
70
1
0
DIMSTYLE
105
404
330
402
100
AcDbSymbolTableRecord
100
AcDbDimStyleTableRecord
2
JAC_DIM
70
0
41
20.000
42
0.000
44
0.0
73
0
74
0
77
1
78
8
79
2
140
0.000
170
0
171
2
172
0
173
0
174
0
175
0
176
0
177
0
178
0
270
2
271
0
272
0
273
2
274
2
340
201
275
0
280
0
281
0
282
0
283
0
284
0
285
0
286
0
287
3
288
0
0
ENDTAB
0
TABLE
2
BLOCK_RECORD
5
405
100
AcDbSymbolTable
70
0
0
BLOCK_RECORD
5
406
100
AcDbSymbolTableRecord
100
AcDbBlockTableRecord
2
*MODEL_SPACE
0
BLOCK_RECORD
5
407
100
AcDbSymbolTableRecord
100
AcDbBlockTableRecord
2
*PAPER_SPACE
0
BLOCK_RECORD
5
408
100
AcDbSymbolTableRecord
100
AcDbBlockTableRecord
2
_JACCONVERT_
0
ENDTAB
0
TABLE
2
LAYER
5
409
100
AcDbSymbolTable
70
10
0
LAYER
5
40a
100
AcDbSymbolTableRecord
100
AcDbLayerTableRecord
2
0
70
0
62
7
6
CONTINUOUS
0
LAYER
5
40b
100
AcDbSymbolTableRecord
100
AcDbLayerTableRecord
2
0-0
70
0
62
7
6
CONTINUOUS
0
LAYER
5
40c
100
AcDbSymbolTableRecord
100
AcDbLayerTableRecord
2
F-F_J_ADD
70
0
62
-7
6
CONTINUOUS
0
ENDTAB
0
ENDSEC
0
SECTION
2
BLOCKS
0
BLOCK
5
40d
100
AcDbEntity
67
1
8
0
100
AcDbBlockBegin
2
*MODEL_SPACE
70
0
10
0.0
20
0.0
30
0.0
3
*MODEL_SPACE
1

0
ENDBLK
5
40e
100
AcDbEntity
8
0
100
AcDbBlockEnd
0
BLOCK
5
40f
100
AcDbEntity
67
1
8
0
100
AcDbBlockBegin
2
*PAPER_SPACE
70
0
10
0.0
20
0.0
30
0.0
3
*PAPER_SPACE
1

0
ENDBLK
5
410
100
AcDbEntity
67
1
8
0
100
AcDbBlockEnd
0
BLOCK
5
411
100
AcDbEntity
8
0
100
AcDbBlockBegin
2
_JACCONVERT_
70
2
10
0.0
20
0.0
30
0.0
3
_JACCONVERT_
1
_JACCONVERT_
0
ATTDEF
5
412
100
AcDbEntity
8
0
62
0
100
AcDbText
10
0.0
20
0.0
30
0.0
40
1.0
1
User:川口俊雄
100
AcDbAttributeDefinition
3

2
USER
70
8
0
ATTDEF
5
413
100
AcDbEntity
8
0
62
0
100
AcDbText
10
0.0
20
2.0
30
0.0
40
1.0
1
Date:04/11/26 11:28
100
AcDbAttributeDefinition
3

2
REVDATE
70
8
0
ATTDEF
5
414
100
AcDbEntity
8
0
62
0
100
AcDbText
10
0.0
20
4.0
30
0.0
40
1.0
1
File:Scale10$.dxf
100
AcDbAttributeDefinition
3

2
FNAME
70
8
0
ATTDEF
5
415
100
AcDbEntity
8
0
62
0
100
AcDbText
10
0.0
20
6.0
30
0.0
40
1.0
1
JacConvert Version2.53 Copyright (c) 2001-2004 K.Nakahara
100
AcDbAttributeDefinition
3

2
VER
70
8
0
ENDBLK
5
416
100
AcDbEntity
67
1
8
0
100
AcDbBlockEnd
0
ENDSEC
0
SECTION
2
ENTITIES
0
LINE
5
417
100
AcDbEntity
8
0-0
6
CONTINUOUS
62
4
100
AcDbLine
10
4491.840000000000
20
3952.180000000000
30
0.0
11
4491.840000000000
21
4032.890000000000
31
0.0
0
LINE
5
418
100
AcDbEntity
8
0-0
6
CONTINUOUS
62
4
100
AcDbLine
10
4203.680000000000
20
2807.110000000000
30
0.0
11
4203.680000000000
21
2815.180000000000
31
0.0
0
LINE
5
419
100
AcDbEntity
8
0-0
6
CONTINUOUS
62
4
100
AcDbLine
10
1991.840000000000
20
3952.170000000000
30
0.0
11
1991.840000000000
21
4052.170000000000
31
0.0
0
LINE
5
41a
100
AcDbEntity
8
0-0
6
CONTINUOUS
62
4
100
AcDbLine
10
5491.840000000000
20
3952.180000000000
30
0.0
11
5491.840000000000
21
4032.890000000000
31
0.0
0
LINE
5
41b
100
AcDbEntity
8
0-0
6
CONTINUOUS
62
4
100
AcDbLine
10
4023.680000000000
20
2807.110000000000
30
0.0
11
4023.680000000000
21
2812.920000000000
31
0.0
0
LINE
5
41c
100
AcDbEntity
8
0-0
6
CONTINUOUS
62
4
100
AcDbLine
10
4203.680000000000
20
2807.110000000000
30
0.0
11
4203.680000000000
21
2815.180000000000
31
0.0
0
LINE
5
41d
100
AcDbEntity
8
0-0
6
CONTINUOUS
62
4
100
AcDbLine
10
4203.680000000000
20
2807.110000000000
30
0.0
11
4203.680000000000
21
2815.180000000000
31
0.0
0
LINE
5
41e
100
AcDbEntity
8
0-0
6
CONTINUOUS
62
4
100
AcDbLine
10
4003.680000000000
20
2807.110000000000
30
0.0
11
4003.680000000000
21
2815.180000000000
31
0.0
0
LINE
5
41f
100
AcDbEntity
8
0-0
6
CONTINUOUS
62
4
100
AcDbLine
10
4403.680000000000
20
2807.110000000000
30
0.0
11
4403.680000000000
21
2815.180000000000
31
0.0
0
LINE
5
420
100
AcDbEntity
8
0-0
6
CONTINUOUS
62
4
100
AcDbLine
10
3491.840000000000
20
3952.180000000000
30
0.0
11
3491.840000000000
21
4032.890000000000
31
0.0
0
LINE
5
421
100
AcDbEntity
8
0-0
6
CONTINUOUS
62
4
100
AcDbLine
10
4991.840000000000
20
3952.180000000000
30
0.0
11
4991.840000000000
21
4052.180000000000
31
0.0
0
LINE
5
422
100
AcDbEntity
8
0-0
6
CONTINUOUS
62
4
100
AcDbLine
10
2291.840000000000
20
3952.170000000000
30
0.0
11
2291.840000000000
21
4011.910000000000
31
0.0
0
LINE
5
423
100
AcDbEntity
8
0-0
6
CONTINUOUS
62
4
100
AcDbLine
10
5991.840000000000
20
3952.170000000000
30
0.0
11
5991.840000000000
21
4052.180000000000
31
0.0
0
LINE
5
424
100
AcDbEntity
8
0-0
6
CONTINUOUS
62
4
100
AcDbLine
10
4991.840000000000
20
3952.180000000000
30
0.0
11
4991.840000000000
21
4052.180000000000
31
0.0
0
LINE
5
425
100
AcDbEntity
8
0-0
6
CONTINUOUS
62
4
100
AcDbLine
10
1991.840000000000
20
3952.170000000000
30
0.0
11
6991.840000000000
21
3952.180000000000
31
0.0
0
LINE
5
426
100
AcDbEntity
8
0-0
6
CONTINUOUS
62
4
100
AcDbLine
10
3991.840000000000
20
3952.180000000000
30
0.0
11
3991.840000000000
21
4052.180000000000
31
0.0
0
LINE
5
427
100
AcDbEntity
8
F-F_J_ADD
6
HIDDEN
62
4
100
AcDbLine
10
3491.840000000000
20
3952.180000000000
30
0.0
11
6491.840000000000
21
3952.180000000000
31
0.0
0
LINE
5
428
100
AcDbEntity
8
0-0
6
CONTINUOUS
62
4
100
AcDbLine
10
2591.840000000000
20
3952.170000000000
30
0.0
11
2591.840000000000
21
4008.680000000000
31
0.0
0
LINE
5
429
100
AcDbEntity
8
0-0
6
CONTINUOUS
62
4
100
AcDbLine
10
1991.840000000000
20
4012.180000000000
30
0.0
11
6991.840000000000
21
4012.180000000000
31
0.0
0
LINE
5
42a
100
AcDbEntity
8
0-0
6
CONTINUOUS
62
4
100
AcDbLine
10
3963.680000000000
20
2807.110000000000
30
0.0
11
3963.680000000000
21
2812.920000000000
31
0.0
0
LINE
5
42b
100
AcDbEntity
8
0-0
6
CONTINUOUS
62
4
100
AcDbLine
10
3953.680000000000
20
2813.110000000000
30
0.0
11
4453.680000000000
21
2813.110000000000
31
0.0
0
LINE
5
42c
100
AcDbEntity
8
0-0
6
CONTINUOUS
62
4
100
AcDbLine
10
4153.680000000000
20
2807.110000000000
30
0.0
11
4153.680000000000
21
2817.110000000000
31
0.0
0
LINE
5
42d
100
AcDbEntity
8
0-0
6
CONTINUOUS
62
4
100
AcDbLine
10
3953.680000000000
20
2807.110000000000
30
0.0
11
4453.680000000000
21
2807.110000000000
31
0.0
0
LINE
5
42e
100
AcDbEntity
8
0-0
6
CONTINUOUS
62
4
100
AcDbLine
10
4013.680000000000
20
2807.110000000000
30
0.0
11
4013.680000000000
21
2812.760000000000
31
0.0
0
LINE
5
42f
100
AcDbEntity
8
F-F_J_ADD
6
HIDDEN
62
4
100
AcDbLine
10
4103.680000000000
20
2807.110000000000
30
0.0
11
4403.680000000000
21
2807.110000000000
31
0.0
0
LINE
5
430
100
AcDbEntity
8
0-0
6
CONTINUOUS
62
4
100
AcDbLine
10
4303.680000000000
20
2807.110000000000
30
0.0
11
4303.680000000000
21
2815.180000000000
31
0.0
0
LINE
5
431
100
AcDbEntity
8
0-0
6
CONTINUOUS
62
4
100
AcDbLine
10
4203.680000000000
20
2807.110000000000
30
0.0
11
4203.680000000000
21
2815.180000000000
31
0.0
0
LINE
5
432
100
AcDbEntity
8
0-0
6
CONTINUOUS
62
4
100
AcDbLine
10
4103.680000000000
20
2807.110000000000
30
0.0
11
4103.680000000000
21
2815.180000000000
31
0.0
0
LINE
5
433
100
AcDbEntity
8
0-0
6
CONTINUOUS
62
4
100
AcDbLine
10
3953.680000000000
20
2807.110000000000
30
0.0
11
3953.680000000000
21
2817.110000000000
31
0.0
0
LINE
5
434
100
AcDbEntity
8
0-0
6
CONTINUOUS
62
4
100
AcDbLine
10
3983.680000000000
20
2807.110000000000
30
0.0
11
3983.680000000000
21
2813.080000000000
31
0.0
0
LINE
5
435
100
AcDbEntity
8
0-0
6
CONTINUOUS
62
4
100
AcDbLine
10
4033.680000000000
20
2807.110000000000
30
0.0
11
4033.680000000000
21
2813.080000000000
31
0.0
0
LINE
5
436
100
AcDbEntity
8
0-0
6
CONTINUOUS
62
4
100
AcDbLine
10
4053.680000000000
20
2807.110000000000
30
0.0
11
4053.680000000000
21
2817.110000000000
31
0.0
0
LINE
5
437
100
AcDbEntity
8
0-0
6
CONTINUOUS
62
4
100
AcDbLine
10
3993.680000000000
20
2807.110000000000
30
0.0
11
3993.680000000000
21
2812.920000000000
31
0.0
0
LINE
5
438
100
AcDbEntity
8
0-0
6
CONTINUOUS
62
4
100
AcDbLine
10
3973.680000000000
20
2807.110000000000
30
0.0
11
3973.680000000000
21
2812.920000000000
31
0.0
0
LINE
5
439
100
AcDbEntity
8
0-0
6
CONTINUOUS
62
4
100
AcDbLine
10
4453.680000000000
20
2807.110000000000
30
0.0
11
4453.680000000000
21
2817.110000000000
31
0.0
0
LINE
5
43a
100
AcDbEntity
8
0-0
6
CONTINUOUS
62
4
100
AcDbLine
10
4253.680000000000
20
2807.110000000000
30
0.0
11
4253.680000000000
21
2817.110000000000
31
0.0
0
LINE
5
43b
100
AcDbEntity
8
0-0
6
CONTINUOUS
62
4
100
AcDbLine
10
4253.680000000000
20
2807.110000000000
30
0.0
11
4253.680000000000
21
2817.110000000000
31
0.0
0
LINE
5
43c
100
AcDbEntity
8
0-0
6
CONTINUOUS
62
4
100
AcDbLine
10
4043.680000000000
20
2807.110000000000
30
0.0
11
4043.680000000000
21
2813.240000000000
31
0.0
0
LINE
5
43d
100
AcDbEntity
8
0-0
6
CONTINUOUS
62
4
100
AcDbLine
10
4353.680000000000
20
2807.110000000000
30
0.0
11
4353.680000000000
21
2817.110000000000
31
0.0
0
LINE
5
43e
100
AcDbEntity
8
0-0
6
CONTINUOUS
62
4
100
AcDbLine
10
4064.060000000000
20
2046.930000000000
30
0.0
11
4064.060000000000
21
2053.070000000000
31
0.0
0
LINE
5
43f
100
AcDbEntity
8
0-0
6
CONTINUOUS
62
4
100
AcDbLine
10
4374.060000000000
20
2046.930000000000
30
0.0
11
4374.060000000000
21
2056.930000000000
31
0.0
0
LINE
5
440
100
AcDbEntity
8
0-0
6
CONTINUOUS
62
4
100
AcDbLine
10
4074.060000000000
20
2046.930000000000
30
0.0
11
4074.060000000000
21
2056.930000000000
31
0.0
0
LINE
5
441
100
AcDbEntity
8
0-0
6
CONTINUOUS
62
4
100
AcDbLine
10
4474.060000000000
20
2046.930000000000
30
0.0
11
4474.060000000000
21
2056.930000000000
31
0.0
0
LINE
5
442
100
AcDbEntity
8
0-0
6
CONTINUOUS
62
4
100
AcDbLine
10
4274.060000000000
20
2046.930000000000
30
0.0
11
4274.060000000000
21
2056.930000000000
31
0.0
0
LINE
5
443
100
AcDbEntity
8
0-0
6
CONTINUOUS
62
4
100
AcDbLine
10
3974.060000000000
20
2046.930000000000
30
0.0
11
4474.060000000000
21
2046.930000000000
31
0.0
0
LINE
5
444
100
AcDbEntity
8
0-0
6
CONTINUOUS
62
4
100
AcDbLine
10
4034.060000000000
20
2046.930000000000
30
0.0
11
4034.060000000000
21
2052.580000000000
31
0.0
0
LINE
5
445
100
AcDbEntity
8
0-0
6
CONTINUOUS
62
4
100
AcDbLine
10
4274.060000000000
20
2046.930000000000
30
0.0
11
4274.060000000000
21
2056.930000000000
31
0.0
0
LINE
5
446
100
AcDbEntity
8
0-0
6
CONTINUOUS
62
4
100
AcDbLine
10
4004.060000000000
20
2046.930000000000
30
0.0
11
4004.060000000000
21
2052.910000000000
31
0.0
0
LINE
5
447
100
AcDbEntity
8
0-0
6
CONTINUOUS
62
4
100
AcDbLine
10
4054.060000000000
20
2046.930000000000
30
0.0
11
4054.060000000000
21
2052.910000000000
31
0.0
0
LINE
5
448
100
AcDbEntity
8
0-0
6
CONTINUOUS
62
4
100
AcDbLine
10
4024.060000000000
20
2046.930000000000
30
0.0
11
4024.060000000000
21
2055.010000000000
31
0.0
0
LINE
5
449
100
AcDbEntity
8
0-0
6
CONTINUOUS
62
4
100
AcDbLine
10
4424.060000000000
20
2046.930000000000
30
0.0
11
4424.060000000000
21
2055.010000000000
31
0.0
0
LINE
5
44a
100
AcDbEntity
8
0-0
6
CONTINUOUS
62
4
100
AcDbLine
10
4224.060000000000
20
2046.930000000000
30
0.0
11
4224.060000000000
21
2055.010000000000
31
0.0
0
LINE
5
44b
100
AcDbEntity
8
0-0
6
CONTINUOUS
62
4
100
AcDbLine
10
4044.060000000000
20
2046.930000000000
30
0.0
11
4044.060000000000
21
2052.750000000000
31
0.0
0
LINE
5
44c
100
AcDbEntity
8
0-0
6
CONTINUOUS
62
4
100
AcDbLine
10
4224.060000000000
20
2046.930000000000
30
0.0
11
4224.060000000000
21
2055.010000000000
31
0.0
0
LINE
5
44d
100
AcDbEntity
8
0-0
6
CONTINUOUS
62
4
100
AcDbLine
10
4014.060000000000
20
2046.930000000000
30
0.0
11
4014.060000000000
21
2052.750000000000
31
0.0
0
LINE
5
44e
100
AcDbEntity
8
0-0
6
CONTINUOUS
62
4
100
AcDbLine
10
3994.060000000000
20
2046.930000000000
30
0.0
11
3994.060000000000
21
2052.750000000000
31
0.0
0
LINE
5
44f
100
AcDbEntity
8
0-0
6
CONTINUOUS
62
4
100
AcDbLine
10
4224.060000000000
20
2046.930000000000
30
0.0
11
4224.060000000000
21
2055.010000000000
31
0.0
0
LINE
5
450
100
AcDbEntity
8
0-0
6
CONTINUOUS
62
4
100
AcDbLine
10
3984.060000000000
20
2046.930000000000
30
0.0
11
3984.060000000000
21
2052.750000000000
31
0.0
0
LINE
5
451
100
AcDbEntity
8
0-0
6
CONTINUOUS
62
4
100
AcDbLine
10
3974.060000000000
20
2052.930000000000
30
0.0
11
4474.060000000000
21
2052.930000000000
31
0.0
0
LINE
5
452
100
AcDbEntity
8
0-0
6
CONTINUOUS
62
4
100
AcDbLine
10
2091.840000000000
20
3952.180000000000
30
0.0
11
2091.840000000000
21
4010.290000000000
31
0.0
0
LINE
5
453
100
AcDbEntity
8
0-0
6
CONTINUOUS
62
4
100
AcDbLine
10
2391.840000000000
20
3952.180000000000
30
0.0
11
2391.840000000000
21
4010.300000000000
31
0.0
0
LINE
5
454
100
AcDbEntity
8
0-0
6
CONTINUOUS
62
4
100
AcDbLine
10
4491.840000000000
20
3952.180000000000
30
0.0
11
4491.840000000000
21
4032.890000000000
31
0.0
0
LINE
5
455
100
AcDbEntity
8
0-0
6
CONTINUOUS
62
4
100
AcDbLine
10
4491.840000000000
20
3952.180000000000
30
0.0
11
4491.840000000000
21
4032.890000000000
31
0.0
0
LINE
5
456
100
AcDbEntity
8
0-0
6
CONTINUOUS
62
4
100
AcDbLine
10
2191.840000000000
20
3952.180000000000
30
0.0
11
2191.840000000000
21
4010.290000000000
31
0.0
0
LINE
5
457
100
AcDbEntity
8
0-0
6
CONTINUOUS
62
4
100
AcDbLine
10
6991.840000000000
20
3952.180000000000
30
0.0
11
6991.840000000000
21
4052.170000000000
31
0.0
0
LINE
5
458
100
AcDbEntity
8
0-0
6
CONTINUOUS
62
4
100
AcDbLine
10
2891.840000000000
20
3952.170000000000
30
0.0
11
2891.840000000000
21
4013.520000000000
31
0.0
0
LINE
5
459
100
AcDbEntity
8
0-0
6
CONTINUOUS
62
4
100
AcDbLine
10
2791.840000000000
20
3952.170000000000
30
0.0
11
2791.840000000000
21
4011.910000000000
31
0.0
0
LINE
5
45a
100
AcDbEntity
8
0-0
6
CONTINUOUS
62
4
100
AcDbLine
10
2991.840000000000
20
3952.180000000000
30
0.0
11
2991.840000000000
21
4052.180000000000
31
0.0
0
LINE
5
45b
100
AcDbEntity
8
0-0
6
CONTINUOUS
62
4
100
AcDbLine
10
6491.840000000000
20
3952.180000000000
30
0.0
11
6491.840000000000
21
4032.890000000000
31
0.0
0
LINE
5
45c
100
AcDbEntity
8
0-0
6
CONTINUOUS
62
4
100
AcDbLine
10
4124.060000000000
20
2046.930000000000
30
0.0
11
4124.060000000000
21
2055.010000000000
31
0.0
0
LINE
5
45d
100
AcDbEntity
8
0-0
6
CONTINUOUS
62
4
100
AcDbLine
10
3974.060000000000
20
2046.930000000000
30
0.0
11
3974.060000000000
21
2056.930000000000
31
0.0
0
LINE
5
45e
100
AcDbEntity
8
0-0
6
CONTINUOUS
62
4
100
AcDbLine
10
4174.060000000000
20
2046.930000000000
30
0.0
11
4174.060000000000
21
2056.930000000000
31
0.0
0
LINE
5
45f
100
AcDbEntity
8
F-F_J_ADD
6
HIDDEN
62
4
100
AcDbLine
10
4124.060000000000
20
2046.930000000000
30
0.0
11
4424.060000000000
21
2046.930000000000
31
0.0
0
LINE
5
460
100
AcDbEntity
8
0-0
6
CONTINUOUS
62
4
100
AcDbLine
10
4324.060000000000
20
2046.930000000000
30
0.0
11
4324.060000000000
21
2055.010000000000
31
0.0
0
LINE
5
461
100
AcDbEntity
8
0-0
6
CONTINUOUS
62
4
100
AcDbLine
10
2691.840000000000
20
3952.180000000000
30
0.0
11
2691.840000000000
21
4010.300000000000
31
0.0
0
LINE
5
462
100
AcDbEntity
8
0-0
6
CONTINUOUS
62
4
100
AcDbLine
10
2491.840000000000
20
3952.170000000000
30
0.0
11
2491.840000000000
21
4032.890000000000
31
0.0
0
LINE
5
463
100
AcDbEntity
8
0-0
6
CONTINUOUS
62
4
100
AcDbLine
10
4224.060000000000
20
2046.930000000000
30
0.0
11
4224.060000000000
21
2055.010000000000
31
0.0
0
LINE
5
464
100
AcDbEntity
8
0-0
6
CONTINUOUS
62
4
100
AcDbLine
10
4491.840000000000
20
3952.180000000000
30
0.0
11
4491.840000000000
21
4032.890000000000
31
0.0
0
TEXT
5
465
100
AcDbEntity
8
0-0
62
6
100
AcDbText
10
1318.273
20
5054.326
30
0.0
40
51.963
1
Scale　1/10　参考データ
41
1.140
50
0.000
100
AcDbText
0
TEXT
5
466
100
AcDbEntity
8
0-0
62
7
100
AcDbText
10
4243.974
20
2824.383
30
0.0
40
17.321
1
20
41
1.053
50
0.000
100
AcDbText
0
TEXT
5
467
100
AcDbEntity
8
0-0
62
7
100
AcDbText
10
1991.491
20
4083.315
30
0.0
40
17.321
1
1
41
1.053
50
0.000
100
AcDbText
0
TEXT
5
468
100
AcDbEntity
8
0-0
62
3
100
AcDbText
10
4373.581
20
4383.592
30
0.0
40
30.312
1
Scale　1/10
41
1.053
50
0.000
100
AcDbText
0
TEXT
5
469
100
AcDbEntity
8
0-0
62
7
100
AcDbText
10
5987.132
20
4066.955
30
0.0
40
17.321
1
3
41
1.053
50
0.000
100
AcDbText
0
TEXT
5
46a
100
AcDbEntity
8
0-0
62
7
100
AcDbText
10
4444.841
20
2824.383
30
0.0
40
17.321
1
40 cm
41
1.053
50
0.000
100
AcDbText
0
TEXT
5
46b
100
AcDbEntity
8
0-0
62
7
100
AcDbText
10
4342.658
20
2824.383
30
0.0
40
17.321
1
30
41
1.053
50
0.000
100
AcDbText
0
TEXT
5
46c
100
AcDbEntity
8
0-0
62
7
100
AcDbText
10
3945.123
20
2824.383
30
0.0
40
17.321
1
10
41
1.053
50
0.000
100
AcDbText
0
TEXT
5
46d
100
AcDbEntity
8
0-0
62
3
100
AcDbText
10
4110.329
20
2882.800
30
0.0
40
30.312
1
Scale　1/10
41
1.053
50
0.000
100
AcDbText
0
TEXT
5
46e
100
AcDbEntity
8
0-0
62
7
100
AcDbText
10
4049.406
20
2824.383
30
0.0
40
17.321
1
0
41
1.053
50
0.000
100
AcDbText
0
TEXT
5
46f
100
AcDbEntity
8
0-0
62
7
100
AcDbText
10
4142.491
20
2824.383
30
0.0
40
17.321
1
10
41
1.053
50
0.000
100
AcDbText
0
TEXT
5
470
100
AcDbEntity
8
0-0
62
7
100
AcDbText
10
4160.836
20
2069.467
30
0.0
40
17.321
1
100
41
1.053
50
0.000
100
AcDbText
0
TEXT
5
471
100
AcDbEntity
8
0-0
62
3
100
AcDbText
10
4130.706
20
2122.628
30
0.0
40
30.312
1
Scale　1/10
41
1.053
50
0.000
100
AcDbText
0
TEXT
5
472
100
AcDbEntity
8
0-0
62
7
100
AcDbText
10
4069.608
20
2068.743
30
0.0
40
17.321
1
0
41
1.053
50
0.000
100
AcDbText
0
TEXT
5
473
100
AcDbEntity
8
0-0
62
7
100
AcDbText
10
4260.029
20
2069.467
30
0.0
40
17.321
1
200
41
1.053
50
0.000
100
AcDbText
0
TEXT
5
474
100
AcDbEntity
8
0-0
62
7
100
AcDbText
10
4456.243
20
2068.743
30
0.0
40
17.321
1
400 mm
41
1.053
50
0.000
100
AcDbText
0
TEXT
5
475
100
AcDbEntity
8
0-0
62
7
100
AcDbText
10
4357.774
20
2068.743
30
0.0
40
17.321
1
300
41
1.053
50
0.000
100
AcDbText
0
TEXT
5
476
100
AcDbEntity
8
0-0
62
7
100
AcDbText
10
2988.667
20
4074.893
30
0.0
40
17.321
1
0
41
1.053
50
0.000
100
AcDbText
0
TEXT
5
477
100
AcDbEntity
8
0-0
62
7
100
AcDbText
10
3989.102
20
4072.548
30
0.0
40
17.321
1
1
41
1.053
50
0.000
100
AcDbText
0
TEXT
5
478
100
AcDbEntity
8
0-0
62
7
100
AcDbText
10
6978.132
20
4069.971
30
0.0
40
17.321
1
4 m
41
1.053
50
0.000
100
AcDbText
0
TEXT
5
479
100
AcDbEntity
8
0-0
62
7
100
AcDbText
10
3961.727
20
2069.467
30
0.0
40
17.321
1
100
41
1.053
50
0.000
100
AcDbText
0
TEXT
5
47a
100
AcDbEntity
8
0-0
62
7
100
AcDbText
10
4986.290
20
4082.786
30
0.0
40
17.321
1
2
41
1.053
50
0.000
100
AcDbText
0
ENDSEC
 0
SECTION
  2
OBJECTS
 0
DICTIONARY
  5
C
100
AcDbDictionary
  3
ACAD_GROUP
350
D
  3
ACAD_MLINESTYLE
350
E
 0
DICTIONARY
  5
D
100
AcDbDictionary
 0
DICTIONARY
  5
E
100
AcDbDictionary
  3
STANDARD
350
13
0
MLINESTYLE
  5
13
100
AcDbMlineStyle
  2
STANDARD
 70
    0
3

62
256
51
90.0
52
90.0
71
0
0
ENDSEC
0
EOF
