0
SECTION
2
HEADER
9
$ACADVER
1
AC1009
9
$EXTMIN
10
0.000
20
0.000
30
0.0
9
$EXTMAX
10
16820.000
20
11880.000
30
0.0
9
$LIMMIN
10
0.000
20
0.000
9
$LIMMAX
10
16820.000
20
11880.000
9
$DIMSCALE
40
20.000000
9
$LTSCALE
40
20.000
9
$PDMODE
70
0
9
$PDSIZE
40
40.0
9
$HANDSEED
5
61acf
9
$UNITMODE
70
0
9
$VISRETAIN
70
0
9
$PLINEGEN
70
0
9
$PSLTSCALE
70
1
9
$TREEDEPTH
70
3020
9
$CMLSTYLE
2
STANDARD
9
$CMLJUST
70
0
9
$CMLSCALE
40
1.0
0
ENDSEC
0
SECTION
2
TABLES
0
TABLE
2
VPORT
5
190
100
AcDbSymbolTable
70
2
0
VPORT
5
191
100
AcDbSymbolTableRecord
100
AcDbViewportTableRecord
2
*ACTIVE
70
0
10
0.0
20
0.0
11
1.0
21
1.0
12
8410.000
22
5940.000
13
0.0
23
0.0
14
1.0
24
1.0
15
0.0
25
0.0
16
0.0
26
0.0
36
1.0
17
0.0
27
0.0
37
0.0
40
12188.406
41
2.0
42
50.0
43
0.0
44
0.0
50
0.0
51
0.0
71
0
72
100
73
1
74
1
75
0
76
0
77
0
78
0
0
ENDTAB
0
TABLE
2
LTYPE
70
9
0
LTYPE
5
1f4
2
CONTINUOUS
70
64
3
SolidLine
72
65
73
0
40
0.0
0
LTYPE
5
1f5
2
DOT
70
64
3
--  --  --  --  --  --  --  --     
72
65
73
2
40
3.000
49
1.000
49
-2.000
0
LTYPE
5
1f6
2
DASHED
70
64
3
----    ----    ----    ----    
72
65
73
2
40
5.000
49
2.000
49
-3.000
0
LTYPE
5
1f7
2
DASHED2
70
64
3
------  ------  ------  ------ 
72
65
73
2
40
10.000
49
4.000
49
-6.000
0
LTYPE
5
1f8
2
CENTER
70
64
3
----- - ----- - ----- - ----- - 
72
65
73
4
40
10.000
49
6.000
49
-3.000
49
1.000
49
-3.000
0
LTYPE
5
1f9
2
CENTER2
70
64
3
----------  --  ----------  -- 
72
65
73
4
40
17.000
49
12.000
49
-5.000
49
2.000
49
-5.000
0
LTYPE
5
1fa
2
PHANTOM
70
64
3
--- - - --- - - --- - - --- - -
72
65
73
6
40
13.000
49
5.000
49
-3.000
49
1.000
49
-3.000
49
1.000
49
-3.000
0
LTYPE
5
1fb
2
PHANTOM2
70
64
3
--------  -  -  --------  -  -
72
65
73
6
40
20.000
49
6.000
49
-5.000
49
2.000
49
-5.000
49
2.000
49
-5.000
0
LTYPE
5
1fc
2
HIDDEN
70
64
3
-   -   -   -   -   -   -   -   
72
65
73
2
40
3.000
49
0.500
49
-2.500
0
ENDTAB
0
TABLE
2
STYLE
70
1
0
STYLE
5
1fd
100
AcDbSymbolTableRecord
100
AcDbTextStyleTableRecord
2
STANDARD
70
0
40
0.0
41
1.0
50
0.0
71
0
42
0.0
3
txt.shx
4
extfont.shx
0
STYLE
5
1fe
100
AcDbSymbolTableRecord
100
AcDbTextStyleTableRecord
2
TATEGAKI
70
4
40
0.0
41
1.0
50
0.0
71
0
42
0.0
3
txt.shx
4
extfont.shx
0
STYLE
5
1ff
100
AcDbSymbolTableRecord
100
AcDbTextStyleTableRecord
2
DIM
70
0
40
0.0
41
0.75
50
0.0
71
0
42
0.0
3
txt.shx
4
extfont.shx
0
STYLE
5
200
100
AcDbSymbolTableRecord
100
AcDbTextStyleTableRecord
2
_Gothic_
70
0
40
0.0
41
1.0
50
0.0
71
0
42
0.0
3
MS Gothic
4

0
STYLE
5
201
100
AcDbSymbolTableRecord
100
AcDbTextStyleTableRecord
2
_TateGothic_
70
4
40
0.0
41
1.0
50
0.0
71
0
42
0.0
3
@MS Gothic
4

0
ENDTAB
0
TABLE
2
DIMSTYLE
5
403
100
AcDbSymbolTable
70
1
0
DIMSTYLE
105
404
330
402
100
AcDbSymbolTableRecord
100
AcDbDimStyleTableRecord
2
JAC_DIM
70
0
41
40.000
42
0.000
44
0.0
73
0
74
0
77
1
78
8
79
2
140
0.000
170
0
171
2
172
0
173
0
174
0
175
0
176
0
177
0
178
0
270
2
271
0
272
0
273
2
274
2
340
201
275
0
280
0
281
0
282
0
283
0
284
0
285
0
286
0
287
3
288
0
0
ENDTAB
0
TABLE
2
BLOCK_RECORD
5
405
100
AcDbSymbolTable
70
0
0
BLOCK_RECORD
5
406
100
AcDbSymbolTableRecord
100
AcDbBlockTableRecord
2
*MODEL_SPACE
0
BLOCK_RECORD
5
407
100
AcDbSymbolTableRecord
100
AcDbBlockTableRecord
2
*PAPER_SPACE
0
BLOCK_RECORD
5
408
100
AcDbSymbolTableRecord
100
AcDbBlockTableRecord
2
_JACCONVERT_
0
ENDTAB
0
TABLE
2
LAYER
5
409
100
AcDbSymbolTable
70
10
0
LAYER
5
40a
100
AcDbSymbolTableRecord
100
AcDbLayerTableRecord
2
0
70
0
62
7
6
CONTINUOUS
0
LAYER
5
40b
100
AcDbSymbolTableRecord
100
AcDbLayerTableRecord
2
0-0
70
0
62
7
6
CONTINUOUS
0
LAYER
5
40c
100
AcDbSymbolTableRecord
100
AcDbLayerTableRecord
2
F-F_J_ADD
70
0
62
-7
6
CONTINUOUS
0
ENDTAB
0
ENDSEC
0
SECTION
2
BLOCKS
0
BLOCK
5
40d
100
AcDbEntity
67
1
8
0
100
AcDbBlockBegin
2
*MODEL_SPACE
70
0
10
0.0
20
0.0
30
0.0
3
*MODEL_SPACE
1

0
ENDBLK
5
40e
100
AcDbEntity
8
0
100
AcDbBlockEnd
0
BLOCK
5
40f
100
AcDbEntity
67
1
8
0
100
AcDbBlockBegin
2
*PAPER_SPACE
70
0
10
0.0
20
0.0
30
0.0
3
*PAPER_SPACE
1

0
ENDBLK
5
410
100
AcDbEntity
67
1
8
0
100
AcDbBlockEnd
0
BLOCK
5
411
100
AcDbEntity
8
0
100
AcDbBlockBegin
2
_JACCONVERT_
70
2
10
0.0
20
0.0
30
0.0
3
_JACCONVERT_
1
_JACCONVERT_
0
ATTDEF
5
412
100
AcDbEntity
8
0
62
0
100
AcDbText
10
0.0
20
0.0
30
0.0
40
1.0
1
User:川口俊雄
100
AcDbAttributeDefinition
3

2
USER
70
8
0
ATTDEF
5
413
100
AcDbEntity
8
0
62
0
100
AcDbText
10
0.0
20
2.0
30
0.0
40
1.0
1
Date:04/11/26 18:21
100
AcDbAttributeDefinition
3

2
REVDATE
70
8
0
ATTDEF
5
414
100
AcDbEntity
8
0
62
0
100
AcDbText
10
0.0
20
4.0
30
0.0
40
1.0
1
File:Scale20$.dxf
100
AcDbAttributeDefinition
3

2
FNAME
70
8
0
ATTDEF
5
415
100
AcDbEntity
8
0
62
0
100
AcDbText
10
0.0
20
6.0
30
0.0
40
1.0
1
JacConvert Version2.53 Copyright (c) 2001-2004 K.Nakahara
100
AcDbAttributeDefinition
3

2
VER
70
8
0
ENDBLK
5
416
100
AcDbEntity
67
1
8
0
100
AcDbBlockEnd
0
ENDSEC
0
SECTION
2
ENTITIES
0
LINE
5
417
100
AcDbEntity
8
0-0
6
CONTINUOUS
62
4
100
AcDbLine
10
8049.510000000000
20
3229.740000000000
30
0.0
11
8049.510000000000
21
3249.740000000000
31
0.0
0
LINE
5
418
100
AcDbEntity
8
0-0
6
CONTINUOUS
62
4
100
AcDbLine
10
7565.490000000000
20
5152.330000000000
30
0.0
11
7565.490000000000
21
5164.270000000000
31
0.0
0
LINE
5
419
100
AcDbEntity
8
0-0
6
CONTINUOUS
62
4
100
AcDbLine
10
7465.490000000000
20
5152.330000000000
30
0.0
11
7465.490000000000
21
5164.290000000000
31
0.0
0
LINE
5
41a
100
AcDbEntity
8
0-0
6
CONTINUOUS
62
4
100
AcDbLine
10
7385.490000000000
20
5152.330000000000
30
0.0
11
7385.490000000000
21
5172.330000000000
31
0.0
0
LINE
5
41b
100
AcDbEntity
8
0-0
6
CONTINUOUS
62
4
100
AcDbLine
10
7589.500000000000
20
3229.740000000000
30
0.0
11
7589.500000000000
21
3241.700000000000
31
0.0
0
LINE
5
41c
100
AcDbEntity
8
0-0
6
CONTINUOUS
62
4
100
AcDbLine
10
7685.500000000000
20
5152.330000000000
30
0.0
11
7685.500000000000
21
5168.480000000000
31
0.0
0
LINE
5
41d
100
AcDbEntity
8
0-0
6
CONTINUOUS
62
4
100
AcDbLine
10
7505.490000000000
20
5152.330000000000
30
0.0
11
7505.490000000000
21
5164.340000000000
31
0.0
0
LINE
5
41e
100
AcDbEntity
8
0-0
6
CONTINUOUS
62
4
100
AcDbLine
10
7885.500000000000
20
5152.330000000000
30
0.0
11
7885.500000000000
21
5168.480000000000
31
0.0
0
LINE
5
41f
100
AcDbEntity
8
0-0
6
CONTINUOUS
62
4
100
AcDbLine
10
7385.490000000000
20
5164.330000000000
30
0.0
11
8385.510000000000
21
5164.330000000000
31
0.0
0
LINE
5
420
100
AcDbEntity
8
0-0
6
CONTINUOUS
62
4
100
AcDbLine
10
8185.510000000000
20
5152.330000000000
30
0.0
11
8185.510000000000
21
5172.330000000000
31
0.0
0
LINE
5
421
100
AcDbEntity
8
0-0
6
CONTINUOUS
62
4
100
AcDbLine
10
7549.500000000000
20
3241.740000000000
30
0.0
11
8049.510000000000
21
3241.740000000000
31
0.0
0
LINE
5
422
100
AcDbEntity
8
0-0
6
CONTINUOUS
62
4
100
AcDbLine
10
7425.490000000000
20
5152.330000000000
30
0.0
11
7425.490000000000
21
5164.250000000000
31
0.0
0
LINE
5
423
100
AcDbEntity
8
0-0
6
CONTINUOUS
62
4
100
AcDbLine
10
7445.490000000000
20
5152.330000000000
30
0.0
11
7445.490000000000
21
5164.280000000000
31
0.0
0
LINE
5
424
100
AcDbEntity
8
0-0
6
CONTINUOUS
62
4
100
AcDbLine
10
7949.510000000000
20
3249.740000000000
30
0.0
11
7949.510000000000
21
3229.740000000000
31
0.0
0
LINE
5
425
100
AcDbEntity
8
0-0
6
CONTINUOUS
62
4
100
AcDbLine
10
7749.500000000000
20
3249.740000000000
30
0.0
11
7749.500000000000
21
3229.740000000000
31
0.0
0
LINE
5
426
100
AcDbEntity
8
0-0
6
CONTINUOUS
62
4
100
AcDbLine
10
7569.500000000000
20
3229.740000000000
30
0.0
11
7569.500000000000
21
3241.750000000000
31
0.0
0
LINE
5
427
100
AcDbEntity
8
0-0
6
CONTINUOUS
62
4
100
AcDbLine
10
7629.500000000000
20
3229.740000000000
30
0.0
11
7629.500000000000
21
3241.680000000000
31
0.0
0
LINE
5
428
100
AcDbEntity
8
0-0
6
CONTINUOUS
62
4
100
AcDbLine
10
7849.510000000000
20
3229.740000000000
30
0.0
11
7849.510000000000
21
3249.740000000000
31
0.0
0
LINE
5
429
100
AcDbEntity
8
0-0
6
CONTINUOUS
62
4
100
AcDbLine
10
7649.500000000000
20
3229.740000000000
30
0.0
11
7649.500000000000
21
3249.740000000000
31
0.0
0
LINE
5
42a
100
AcDbEntity
8
0-0
6
CONTINUOUS
62
5
100
AcDbLine
10
7549.500000000000
20
3229.740000000000
30
0.0
11
8049.510000000000
21
3229.740000000000
31
0.0
0
LINE
5
42b
100
AcDbEntity
8
0-0
6
CONTINUOUS
62
4
100
AcDbLine
10
7549.500000000000
20
3249.740000000000
30
0.0
11
7549.500000000000
21
3229.740000000000
31
0.0
0
LINE
5
42c
100
AcDbEntity
8
0-0
6
CONTINUOUS
62
4
100
AcDbLine
10
7609.500000000000
20
3229.740000000000
30
0.0
11
7609.500000000000
21
3241.690000000000
31
0.0
0
LINE
5
42d
100
AcDbEntity
8
0-0
6
CONTINUOUS
62
4
100
AcDbLine
10
8049.510000000000
20
3229.740000000000
30
0.0
11
8049.510000000000
21
3249.740000000000
31
0.0
0
LINE
5
42e
100
AcDbEntity
8
0-0
6
CONTINUOUS
62
4
100
AcDbLine
10
7525.490000000000
20
5152.330000000000
30
0.0
11
7525.490000000000
21
5164.290000000000
31
0.0
0
LINE
5
42f
100
AcDbEntity
8
0-0
6
CONTINUOUS
62
4
100
AcDbLine
10
7543.980000000000
20
2130.890000000000
30
0.0
11
8043.990000000000
21
2130.890000000000
31
0.0
0
LINE
5
430
100
AcDbEntity
8
0-0
6
CONTINUOUS
62
4
100
AcDbLine
10
7583.990000000000
20
2118.890000000000
30
0.0
11
7583.990000000000
21
2130.850000000000
31
0.0
0
LINE
5
431
100
AcDbEntity
8
0-0
6
CONTINUOUS
62
4
100
AcDbLine
10
7543.980000000000
20
2138.890000000000
30
0.0
11
7543.980000000000
21
2118.890000000000
31
0.0
0
LINE
5
432
100
AcDbEntity
8
0-0
6
CONTINUOUS
62
4
100
AcDbLine
10
7563.980000000000
20
2118.890000000000
30
0.0
11
7563.980000000000
21
2130.890000000000
31
0.0
0
LINE
5
433
100
AcDbEntity
8
0-0
6
CONTINUOUS
62
4
100
AcDbLine
10
8285.510000000000
20
5152.330000000000
30
0.0
11
8285.510000000000
21
5168.480000000000
31
0.0
0
LINE
5
434
100
AcDbEntity
8
0-0
6
CONTINUOUS
62
4
100
AcDbLine
10
7623.990000000000
20
2118.890000000000
30
0.0
11
7623.990000000000
21
2130.830000000000
31
0.0
0
LINE
5
435
100
AcDbEntity
8
0-0
6
CONTINUOUS
62
4
100
AcDbLine
10
7943.990000000000
20
2138.890000000000
30
0.0
11
7943.990000000000
21
2118.890000000000
31
0.0
0
LINE
5
436
100
AcDbEntity
8
0-0
6
CONTINUOUS
62
4
100
AcDbLine
10
7643.990000000000
20
2118.890000000000
30
0.0
11
7643.990000000000
21
2138.890000000000
31
0.0
0
LINE
5
437
100
AcDbEntity
8
0-0
6
CONTINUOUS
62
5
100
AcDbLine
10
7543.980000000000
20
2118.890000000000
30
0.0
11
8043.990000000000
21
2118.890000000000
31
0.0
0
LINE
5
438
100
AcDbEntity
8
0-0
6
CONTINUOUS
62
4
100
AcDbLine
10
8043.990000000000
20
2118.890000000000
30
0.0
11
8043.990000000000
21
2138.890000000000
31
0.0
0
LINE
5
439
100
AcDbEntity
8
0-0
6
CONTINUOUS
62
4
100
AcDbLine
10
7603.980000000000
20
2118.890000000000
30
0.0
11
7603.980000000000
21
2130.840000000000
31
0.0
0
LINE
5
43a
100
AcDbEntity
8
0-0
6
CONTINUOUS
62
4
100
AcDbLine
10
8043.990000000000
20
2118.890000000000
30
0.0
11
8043.990000000000
21
2138.890000000000
31
0.0
0
LINE
5
43b
100
AcDbEntity
8
0-0
6
CONTINUOUS
62
4
100
AcDbLine
10
7843.990000000000
20
2118.890000000000
30
0.0
11
7843.990000000000
21
2138.890000000000
31
0.0
0
LINE
5
43c
100
AcDbEntity
8
0-0
6
CONTINUOUS
62
4
100
AcDbLine
10
7545.490000000000
20
5152.330000000000
30
0.0
11
7545.490000000000
21
5164.280000000000
31
0.0
0
LINE
5
43d
100
AcDbEntity
8
0-0
6
CONTINUOUS
62
4
100
AcDbLine
10
7985.500000000000
20
5152.330000000000
30
0.0
11
7985.500000000000
21
5172.330000000000
31
0.0
0
LINE
5
43e
100
AcDbEntity
8
0-0
6
CONTINUOUS
62
4
100
AcDbLine
10
7785.500000000000
20
5152.330000000000
30
0.0
11
7785.500000000000
21
5172.330000000000
31
0.0
0
LINE
5
43f
100
AcDbEntity
8
0-0
6
CONTINUOUS
62
4
100
AcDbLine
10
7485.490000000000
20
5152.330000000000
30
0.0
11
7485.490000000000
21
5168.480000000000
31
0.0
0
LINE
5
440
100
AcDbEntity
8
0-0
6
CONTINUOUS
62
4
100
AcDbLine
10
8085.500000000000
20
5152.330000000000
30
0.0
11
8085.500000000000
21
5168.480000000000
31
0.0
0
LINE
5
441
100
AcDbEntity
8
0-0
6
CONTINUOUS
62
4
100
AcDbLine
10
8385.510000000000
20
5152.330000000000
30
0.0
11
8385.510000000000
21
5172.330000000000
31
0.0
0
LINE
5
442
100
AcDbEntity
8
0-0
6
CONTINUOUS
62
4
100
AcDbLine
10
7743.990000000000
20
2138.890000000000
30
0.0
11
7743.990000000000
21
2118.890000000000
31
0.0
0
LINE
5
443
100
AcDbEntity
8
0-0
6
CONTINUOUS
62
4
100
AcDbLine
10
7585.490000000000
20
5152.330000000000
30
0.0
11
7585.490000000000
21
5172.330000000000
31
0.0
0
LINE
5
444
100
AcDbEntity
8
0-0
6
CONTINUOUS
62
4
100
AcDbLine
10
7793.990000000000
20
2134.880000000000
30
0.0
11
7793.990000000000
21
2118.930000000000
31
0.0
0
LINE
5
445
100
AcDbEntity
8
0-0
6
CONTINUOUS
62
4
100
AcDbLine
10
7405.490000000000
20
5152.330000000000
30
0.0
11
7405.490000000000
21
5164.230000000000
31
0.0
0
LINE
5
446
100
AcDbEntity
8
0-0
6
CONTINUOUS
62
4
100
AcDbLine
10
7985.500000000000
20
5152.330000000000
30
0.0
11
7985.500000000000
21
5172.330000000000
31
0.0
0
LINE
5
447
100
AcDbEntity
8
0-0
6
CONTINUOUS
62
4
100
AcDbLine
10
7699.500000000000
20
3245.650000000000
30
0.0
11
7699.500000000000
21
3229.730000000000
31
0.0
0
LINE
5
448
100
AcDbEntity
8
0-0
6
CONTINUOUS
62
5
100
AcDbLine
10
7385.490000000000
20
5152.330000000000
30
0.0
11
8385.510000000000
21
5152.330000000000
31
0.0
0
LINE
5
449
100
AcDbEntity
8
0-0
6
CONTINUOUS
62
4
100
AcDbLine
10
7899.500000000000
20
3245.650000000000
30
0.0
11
7899.500000000000
21
3229.730000000000
31
0.0
0
LINE
5
44a
100
AcDbEntity
8
0-0
6
CONTINUOUS
62
4
100
AcDbLine
10
7999.500000000000
20
3245.650000000000
30
0.0
11
7999.500000000000
21
3229.730000000000
31
0.0
0
LINE
5
44b
100
AcDbEntity
8
0-0
6
CONTINUOUS
62
4
100
AcDbLine
10
7385.490000000000
20
5152.330000000000
30
0.0
11
7385.490000000000
21
5172.330000000000
31
0.0
0
LINE
5
44c
100
AcDbEntity
8
0-0
6
CONTINUOUS
62
4
100
AcDbLine
10
7799.500000000000
20
3245.650000000000
30
0.0
11
7799.500000000000
21
3229.730000000000
31
0.0
0
LINE
5
44d
100
AcDbEntity
8
0-0
6
CONTINUOUS
62
4
100
AcDbLine
10
7893.990000000000
20
2134.880000000000
30
0.0
11
7893.990000000000
21
2118.930000000000
31
0.0
0
LINE
5
44e
100
AcDbEntity
8
0-0
6
CONTINUOUS
62
4
100
AcDbLine
10
7993.990000000000
20
2134.880000000000
30
0.0
11
7993.990000000000
21
2118.930000000000
31
0.0
0
LINE
5
44f
100
AcDbEntity
8
0-0
6
CONTINUOUS
62
4
100
AcDbLine
10
7693.990000000000
20
2134.880000000000
30
0.0
11
7693.990000000000
21
2118.930000000000
31
0.0
0
TEXT
5
450
100
AcDbEntity
8
0-0
62
4
100
AcDbText
10
8034.170
20
3261.405
30
0.0
40
29.445
1
40 cm
41
1.053
50
0.000
100
AcDbText
0
TEXT
5
451
100
AcDbEntity
8
0-0
62
4
100
AcDbText
10
7643.150
20
3261.405
30
0.0
40
29.445
1
0
41
1.053
50
0.000
100
AcDbText
0
TEXT
5
452
100
AcDbEntity
8
0-0
62
4
100
AcDbText
10
7933.110
20
3261.405
30
0.0
40
29.445
1
30
41
1.053
50
0.000
100
AcDbText
0
TEXT
5
453
100
AcDbEntity
8
0-0
62
4
100
AcDbText
10
7734.100
20
3261.405
30
0.0
40
29.445
1
10
41
1.053
50
0.000
100
AcDbText
0
TEXT
5
454
100
AcDbEntity
8
0-0
62
4
100
AcDbText
10
7833.610
20
3261.405
30
0.0
40
29.445
1
20
41
1.053
50
0.000
100
AcDbText
0
TEXT
5
455
100
AcDbEntity
8
0-0
62
4
100
AcDbText
10
8170.130
20
5183.985
30
0.0
40
29.445
1
60
41
1.053
50
0.000
100
AcDbText
0
TEXT
5
456
100
AcDbEntity
8
0-0
62
4
100
AcDbText
10
8362.360
20
5183.985
30
0.0
40
29.445
1
80 cm
41
1.053
50
0.000
100
AcDbText
0
TEXT
5
457
100
AcDbEntity
8
0-0
62
4
100
AcDbText
10
7970.790
20
5183.985
30
0.0
40
29.445
1
40
41
1.053
50
0.000
100
AcDbText
0
TEXT
5
458
100
AcDbEntity
8
0-0
62
4
100
AcDbText
10
7576.440
20
5184.135
30
0.0
40
29.445
1
0
41
1.053
50
0.000
100
AcDbText
0
TEXT
5
459
100
AcDbEntity
8
0-0
62
4
100
AcDbText
10
7769.430
20
5184.135
30
0.0
40
29.445
1
20
41
1.053
50
0.000
100
AcDbText
0
TEXT
5
45a
100
AcDbEntity
8
0-0
62
4
100
AcDbText
10
7534.320
20
3261.405
30
0.0
40
29.445
1
10
41
1.053
50
0.000
100
AcDbText
0
TEXT
5
45b
100
AcDbEntity
8
0-0
62
4
100
AcDbText
10
7820.100
20
2151.215
30
0.0
40
29.445
1
200
41
1.053
50
0.000
100
AcDbText
0
TEXT
5
45c
100
AcDbEntity
8
0-0
62
4
100
AcDbText
10
7918.410
20
2151.215
30
0.0
40
29.445
1
300
41
1.053
50
0.000
100
AcDbText
0
TEXT
5
45d
100
AcDbEntity
8
0-0
62
4
100
AcDbText
10
7720.670
20
2151.215
30
0.0
40
29.445
1
100
41
1.053
50
0.000
100
AcDbText
0
TEXT
5
45e
100
AcDbEntity
8
0-0
62
3
100
AcDbText
10
7607.170
20
2303.312
30
0.0
40
60.623
1
Scale　1/20
41
1.053
50
0.000
100
AcDbText
0
TEXT
5
45f
100
AcDbEntity
8
0-0
62
4
100
AcDbText
10
7520.720
20
2151.215
30
0.0
40
29.445
1
100
41
1.053
50
0.000
100
AcDbText
0
TEXT
5
460
100
AcDbEntity
8
0-0
62
3
100
AcDbText
10
7612.680
20
3414.162
30
0.0
40
60.623
1
Scale　1/20
41
1.053
50
0.000
100
AcDbText
0
TEXT
5
461
100
AcDbEntity
8
0-0
62
4
100
AcDbText
10
7371.840
20
5184.135
30
0.0
40
29.445
1
20
41
1.053
50
0.000
100
AcDbText
0
TEXT
5
462
100
AcDbEntity
8
0-0
62
6
100
AcDbText
10
2232.400
20
9627.533
30
0.0
40
103.925
1
Scale　1/20　参考データ
41
1.140
50
0.000
100
AcDbText
0
TEXT
5
463
100
AcDbEntity
8
0-0
62
4
100
AcDbText
10
8013.420
20
2151.215
30
0.0
40
29.445
1
400 mm
41
1.053
50
0.000
100
AcDbText
0
TEXT
5
464
100
AcDbEntity
8
0-0
62
4
100
AcDbText
10
7637.630
20
2150.555
30
0.0
40
29.445
1
0
41
1.053
50
0.000
100
AcDbText
0
TEXT
5
465
100
AcDbEntity
8
0-0
62
3
100
AcDbText
10
7693.060
20
5304.782
30
0.0
40
60.623
1
Scale　1/20
41
1.053
50
0.000
100
AcDbText
0
ENDSEC
 0
SECTION
  2
OBJECTS
 0
DICTIONARY
  5
C
100
AcDbDictionary
  3
ACAD_GROUP
350
D
  3
ACAD_MLINESTYLE
350
E
 0
DICTIONARY
  5
D
100
AcDbDictionary
 0
DICTIONARY
  5
E
100
AcDbDictionary
  3
STANDARD
350
13
0
MLINESTYLE
  5
13
100
AcDbMlineStyle
  2
STANDARD
 70
    0
3

62
256
51
90.0
52
90.0
71
0
0
ENDSEC
0
EOF
