0
SECTION
2
HEADER
9
$ACADVER
1
AC1009
9
$EXTMIN
10
0.000
20
0.000
30
0.0
9
$EXTMAX
10
2523.000
20
1782.000
30
0.0
9
$LIMMIN
10
0.000
20
0.000
9
$LIMMAX
10
2523.000
20
1782.000
9
$DIMSCALE
40
3.000000
9
$LTSCALE
40
3.000
9
$PDMODE
70
0
9
$PDSIZE
40
40.0
9
$HANDSEED
5
61adb
9
$UNITMODE
70
0
9
$VISRETAIN
70
0
9
$PLINEGEN
70
0
9
$PSLTSCALE
70
1
9
$TREEDEPTH
70
3020
9
$CMLSTYLE
2
STANDARD
9
$CMLJUST
70
0
9
$CMLSCALE
40
1.0
0
ENDSEC
0
SECTION
2
TABLES
0
TABLE
2
VPORT
5
190
100
AcDbSymbolTable
70
2
0
VPORT
5
191
100
AcDbSymbolTableRecord
100
AcDbViewportTableRecord
2
*ACTIVE
70
0
10
0.0
20
0.0
11
1.0
21
1.0
12
1261.500
22
891.000
13
0.0
23
0.0
14
1.0
24
1.0
15
0.0
25
0.0
16
0.0
26
0.0
36
1.0
17
0.0
27
0.0
37
0.0
40
1828.261
41
2.0
42
50.0
43
0.0
44
0.0
50
0.0
51
0.0
71
0
72
100
73
1
74
1
75
0
76
0
77
0
78
0
0
ENDTAB
0
TABLE
2
LTYPE
70
9
0
LTYPE
5
1f4
2
CONTINUOUS
70
64
3
SolidLine
72
65
73
0
40
0.0
0
LTYPE
5
1f5
2
DOT
70
64
3
--  --  --  --  --  --  --  --     
72
65
73
2
40
3.000
49
1.000
49
-2.000
0
LTYPE
5
1f6
2
DASHED
70
64
3
----    ----    ----    ----    
72
65
73
2
40
5.000
49
2.000
49
-3.000
0
LTYPE
5
1f7
2
DASHED2
70
64
3
------  ------  ------  ------ 
72
65
73
2
40
10.000
49
4.000
49
-6.000
0
LTYPE
5
1f8
2
CENTER
70
64
3
----- - ----- - ----- - ----- - 
72
65
73
4
40
10.000
49
6.000
49
-3.000
49
1.000
49
-3.000
0
LTYPE
5
1f9
2
CENTER2
70
64
3
----------  --  ----------  -- 
72
65
73
4
40
17.000
49
12.000
49
-5.000
49
2.000
49
-5.000
0
LTYPE
5
1fa
2
PHANTOM
70
64
3
--- - - --- - - --- - - --- - -
72
65
73
6
40
13.000
49
5.000
49
-3.000
49
1.000
49
-3.000
49
1.000
49
-3.000
0
LTYPE
5
1fb
2
PHANTOM2
70
64
3
--------  -  -  --------  -  -
72
65
73
6
40
20.000
49
6.000
49
-5.000
49
2.000
49
-5.000
49
2.000
49
-5.000
0
LTYPE
5
1fc
2
HIDDEN
70
64
3
-   -   -   -   -   -   -   -   
72
65
73
2
40
3.000
49
0.500
49
-2.500
0
ENDTAB
0
TABLE
2
STYLE
70
1
0
STYLE
5
1fd
100
AcDbSymbolTableRecord
100
AcDbTextStyleTableRecord
2
STANDARD
70
0
40
0.0
41
1.0
50
0.0
71
0
42
0.0
3
txt.shx
4
extfont.shx
0
STYLE
5
1fe
100
AcDbSymbolTableRecord
100
AcDbTextStyleTableRecord
2
TATEGAKI
70
4
40
0.0
41
1.0
50
0.0
71
0
42
0.0
3
txt.shx
4
extfont.shx
0
STYLE
5
1ff
100
AcDbSymbolTableRecord
100
AcDbTextStyleTableRecord
2
DIM
70
0
40
0.0
41
0.75
50
0.0
71
0
42
0.0
3
txt.shx
4
extfont.shx
0
STYLE
5
200
100
AcDbSymbolTableRecord
100
AcDbTextStyleTableRecord
2
_Gothic_
70
0
40
0.0
41
1.0
50
0.0
71
0
42
0.0
3
MS Gothic
4

0
STYLE
5
201
100
AcDbSymbolTableRecord
100
AcDbTextStyleTableRecord
2
_TateGothic_
70
4
40
0.0
41
1.0
50
0.0
71
0
42
0.0
3
@MS Gothic
4

0
ENDTAB
0
TABLE
2
DIMSTYLE
5
403
100
AcDbSymbolTable
70
1
0
DIMSTYLE
105
404
330
402
100
AcDbSymbolTableRecord
100
AcDbDimStyleTableRecord
2
JAC_DIM
70
0
41
6.000
42
0.000
44
0.0
73
0
74
0
77
1
78
8
79
2
140
0.000
170
0
171
2
172
0
173
0
174
0
175
0
176
0
177
0
178
0
270
2
271
0
272
0
273
2
274
2
340
201
275
0
280
0
281
0
282
0
283
0
284
0
285
0
286
0
287
3
288
0
0
ENDTAB
0
TABLE
2
BLOCK_RECORD
5
405
100
AcDbSymbolTable
70
0
0
BLOCK_RECORD
5
406
100
AcDbSymbolTableRecord
100
AcDbBlockTableRecord
2
*MODEL_SPACE
0
BLOCK_RECORD
5
407
100
AcDbSymbolTableRecord
100
AcDbBlockTableRecord
2
*PAPER_SPACE
0
BLOCK_RECORD
5
408
100
AcDbSymbolTableRecord
100
AcDbBlockTableRecord
2
_JACCONVERT_
0
ENDTAB
0
TABLE
2
LAYER
5
409
100
AcDbSymbolTable
70
10
0
LAYER
5
40a
100
AcDbSymbolTableRecord
100
AcDbLayerTableRecord
2
0
70
0
62
7
6
CONTINUOUS
0
LAYER
5
40b
100
AcDbSymbolTableRecord
100
AcDbLayerTableRecord
2
0-0
70
0
62
7
6
CONTINUOUS
0
LAYER
5
40c
100
AcDbSymbolTableRecord
100
AcDbLayerTableRecord
2
F-F_J_ADD
70
0
62
-7
6
CONTINUOUS
0
ENDTAB
0
ENDSEC
0
SECTION
2
BLOCKS
0
BLOCK
5
40d
100
AcDbEntity
67
1
8
0
100
AcDbBlockBegin
2
*MODEL_SPACE
70
0
10
0.0
20
0.0
30
0.0
3
*MODEL_SPACE
1

0
ENDBLK
5
40e
100
AcDbEntity
8
0
100
AcDbBlockEnd
0
BLOCK
5
40f
100
AcDbEntity
67
1
8
0
100
AcDbBlockBegin
2
*PAPER_SPACE
70
0
10
0.0
20
0.0
30
0.0
3
*PAPER_SPACE
1

0
ENDBLK
5
410
100
AcDbEntity
67
1
8
0
100
AcDbBlockEnd
0
BLOCK
5
411
100
AcDbEntity
8
0
100
AcDbBlockBegin
2
_JACCONVERT_
70
2
10
0.0
20
0.0
30
0.0
3
_JACCONVERT_
1
_JACCONVERT_
0
ATTDEF
5
412
100
AcDbEntity
8
0
62
0
100
AcDbText
10
0.0
20
0.0
30
0.0
40
1.0
1
User:川口俊雄
100
AcDbAttributeDefinition
3

2
USER
70
8
0
ATTDEF
5
413
100
AcDbEntity
8
0
62
0
100
AcDbText
10
0.0
20
2.0
30
0.0
40
1.0
1
Date:04/11/26 18:23
100
AcDbAttributeDefinition
3

2
REVDATE
70
8
0
ATTDEF
5
414
100
AcDbEntity
8
0
62
0
100
AcDbText
10
0.0
20
4.0
30
0.0
40
1.0
1
File:Scale3$.dxf
100
AcDbAttributeDefinition
3

2
FNAME
70
8
0
ATTDEF
5
415
100
AcDbEntity
8
0
62
0
100
AcDbText
10
0.0
20
6.0
30
0.0
40
1.0
1
JacConvert Version2.53 Copyright (c) 2001-2004 K.Nakahara
100
AcDbAttributeDefinition
3

2
VER
70
8
0
ENDBLK
5
416
100
AcDbEntity
67
1
8
0
100
AcDbBlockEnd
0
ENDSEC
0
SECTION
2
ENTITIES
0
LINE
5
417
100
AcDbEntity
8
0-0
6
CONTINUOUS
62
4
100
AcDbLine
10
1127.860000000000
20
650.250000000000
30
0.0
11
1127.860000000000
21
653.220000000000
31
0.0
0
LINE
5
418
100
AcDbEntity
8
0-0
6
CONTINUOUS
62
4
100
AcDbLine
10
1122.860000000000
20
650.250000000000
30
0.0
11
1122.860000000000
21
655.250000000000
31
0.0
0
LINE
5
419
100
AcDbEntity
8
0-0
6
CONTINUOUS
62
4
100
AcDbLine
10
1205.050000000000
20
501.840000000000
30
0.0
11
1205.050000000000
21
503.040000000000
31
0.0
0
LINE
5
41a
100
AcDbEntity
8
0-0
6
CONTINUOUS
62
4
100
AcDbLine
10
1223.050000000000
20
501.840000000000
30
0.0
11
1223.050000000000
21
503.450000000000
31
0.0
0
LINE
5
41b
100
AcDbEntity
8
0-0
6
CONTINUOUS
62
4
100
AcDbLine
10
1172.860000000000
20
650.250000000000
30
0.0
11
1172.860000000000
21
655.250000000000
31
0.0
0
LINE
5
41c
100
AcDbEntity
8
0-0
6
CONTINUOUS
62
4
100
AcDbLine
10
1222.860000000000
20
650.250000000000
30
0.0
11
1222.860000000000
21
655.250000000000
31
0.0
0
LINE
5
41d
100
AcDbEntity
8
0-0
6
CONTINUOUS
62
4
100
AcDbLine
10
1272.860000000000
20
650.250000000000
30
0.0
11
1272.860000000000
21
655.250000000000
31
0.0
0
LINE
5
41e
100
AcDbEntity
8
0-0
6
CONTINUOUS
62
5
100
AcDbLine
10
1122.860000000000
20
650.250000000000
30
0.0
11
1372.860000000000
21
650.250000000000
31
0.0
0
LINE
5
41f
100
AcDbEntity
8
0-0
6
CONTINUOUS
62
4
100
AcDbLine
10
1211.050000000000
20
501.840000000000
30
0.0
11
1211.050000000000
21
503.030000000000
31
0.0
0
LINE
5
420
100
AcDbEntity
8
0-0
6
CONTINUOUS
62
4
100
AcDbLine
10
1193.050000000000
20
501.840000000000
30
0.0
11
1193.050000000000
21
503.840000000000
31
0.0
0
LINE
5
421
100
AcDbEntity
8
0-0
6
CONTINUOUS
62
4
100
AcDbLine
10
1199.050000000000
20
501.840000000000
30
0.0
11
1199.050000000000
21
503.030000000000
31
0.0
0
LINE
5
422
100
AcDbEntity
8
0-0
6
CONTINUOUS
62
4
100
AcDbLine
10
1273.050000000000
20
501.840000000000
30
0.0
11
1273.050000000000
21
503.840000000000
31
0.0
0
LINE
5
423
100
AcDbEntity
8
0-0
6
CONTINUOUS
62
4
100
AcDbLine
10
1193.050000000000
20
503.040000000000
30
0.0
11
1293.050000000000
21
503.040000000000
31
0.0
0
LINE
5
424
100
AcDbEntity
8
0-0
6
CONTINUOUS
62
4
100
AcDbLine
10
1197.050000000000
20
501.840000000000
30
0.0
11
1197.050000000000
21
503.030000000000
31
0.0
0
LINE
5
425
100
AcDbEntity
8
0-0
6
CONTINUOUS
62
4
100
AcDbLine
10
1201.050000000000
20
501.840000000000
30
0.0
11
1201.050000000000
21
503.030000000000
31
0.0
0
LINE
5
426
100
AcDbEntity
8
0-0
6
CONTINUOUS
62
4
100
AcDbLine
10
1243.050000000000
20
501.840000000000
30
0.0
11
1243.050000000000
21
503.450000000000
31
0.0
0
LINE
5
427
100
AcDbEntity
8
0-0
6
CONTINUOUS
62
4
100
AcDbLine
10
1283.050000000000
20
501.840000000000
30
0.0
11
1283.050000000000
21
503.450000000000
31
0.0
0
LINE
5
428
100
AcDbEntity
8
0-0
6
CONTINUOUS
62
4
100
AcDbLine
10
1347.860000000000
20
650.250000000000
30
0.0
11
1347.860000000000
21
654.290000000000
31
0.0
0
LINE
5
429
100
AcDbEntity
8
0-0
6
CONTINUOUS
62
4
100
AcDbLine
10
1132.860000000000
20
650.250000000000
30
0.0
11
1132.860000000000
21
653.230000000000
31
0.0
0
LINE
5
42a
100
AcDbEntity
8
0-0
6
CONTINUOUS
62
4
100
AcDbLine
10
1137.860000000000
20
650.250000000000
30
0.0
11
1137.860000000000
21
653.240000000000
31
0.0
0
LINE
5
42b
100
AcDbEntity
8
0-0
6
CONTINUOUS
62
4
100
AcDbLine
10
1247.860000000000
20
650.250000000000
30
0.0
11
1247.860000000000
21
654.290000000000
31
0.0
0
LINE
5
42c
100
AcDbEntity
8
0-0
6
CONTINUOUS
62
4
100
AcDbLine
10
1152.860000000000
20
650.250000000000
30
0.0
11
1152.860000000000
21
653.250000000000
31
0.0
0
LINE
5
42d
100
AcDbEntity
8
0-0
6
CONTINUOUS
62
4
100
AcDbLine
10
1197.860000000000
20
650.250000000000
30
0.0
11
1197.860000000000
21
654.290000000000
31
0.0
0
LINE
5
42e
100
AcDbEntity
8
0-0
6
CONTINUOUS
62
4
100
AcDbLine
10
1142.860000000000
20
650.250000000000
30
0.0
11
1142.860000000000
21
653.240000000000
31
0.0
0
LINE
5
42f
100
AcDbEntity
8
0-0
6
CONTINUOUS
62
4
100
AcDbLine
10
1167.860000000000
20
650.250000000000
30
0.0
11
1167.860000000000
21
653.230000000000
31
0.0
0
LINE
5
430
100
AcDbEntity
8
0-0
6
CONTINUOUS
62
4
100
AcDbLine
10
1122.860000000000
20
650.250000000000
30
0.0
11
1122.860000000000
21
655.250000000000
31
0.0
0
LINE
5
431
100
AcDbEntity
8
0-0
6
CONTINUOUS
62
4
100
AcDbLine
10
1372.860000000000
20
650.250000000000
30
0.0
11
1372.860000000000
21
655.250000000000
31
0.0
0
LINE
5
432
100
AcDbEntity
8
0-0
6
CONTINUOUS
62
4
100
AcDbLine
10
1297.860000000000
20
650.250000000000
30
0.0
11
1297.860000000000
21
654.290000000000
31
0.0
0
LINE
5
433
100
AcDbEntity
8
0-0
6
CONTINUOUS
62
4
100
AcDbLine
10
1272.860000000000
20
650.250000000000
30
0.0
11
1272.860000000000
21
655.250000000000
31
0.0
0
LINE
5
434
100
AcDbEntity
8
0-0
6
CONTINUOUS
62
4
100
AcDbLine
10
1162.860000000000
20
650.250000000000
30
0.0
11
1162.860000000000
21
653.240000000000
31
0.0
0
LINE
5
435
100
AcDbEntity
8
0-0
6
CONTINUOUS
62
4
100
AcDbLine
10
1322.860000000000
20
650.250000000000
30
0.0
11
1322.860000000000
21
655.250000000000
31
0.0
0
LINE
5
436
100
AcDbEntity
8
0-0
6
CONTINUOUS
62
4
100
AcDbLine
10
1122.860000000000
20
653.250000000000
30
0.0
11
1372.860000000000
21
653.250000000000
31
0.0
0
LINE
5
437
100
AcDbEntity
8
0-0
6
CONTINUOUS
62
4
100
AcDbLine
10
1147.860000000000
20
650.250000000000
30
0.0
11
1147.860000000000
21
654.290000000000
31
0.0
0
LINE
5
438
100
AcDbEntity
8
0-0
6
CONTINUOUS
62
4
100
AcDbLine
10
1157.860000000000
20
650.250000000000
30
0.0
11
1157.860000000000
21
653.240000000000
31
0.0
0
LINE
5
439
100
AcDbEntity
8
0-0
6
CONTINUOUS
62
4
100
AcDbLine
10
1207.050000000000
20
501.840000000000
30
0.0
11
1207.050000000000
21
503.030000000000
31
0.0
0
LINE
5
43a
100
AcDbEntity
8
0-0
6
CONTINUOUS
62
4
100
AcDbLine
10
1201.620000000000
20
307.010000000000
30
0.0
11
1201.620000000000
21
308.210000000000
31
0.0
0
LINE
5
43b
100
AcDbEntity
8
0-0
6
CONTINUOUS
62
4
100
AcDbLine
10
1267.620000000000
20
307.010000000000
30
0.0
11
1267.620000000000
21
309.010000000000
31
0.0
0
LINE
5
43c
100
AcDbEntity
8
0-0
6
CONTINUOUS
62
4
100
AcDbLine
10
1257.620000000000
20
307.010000000000
30
0.0
11
1257.620000000000
21
308.630000000000
31
0.0
0
LINE
5
43d
100
AcDbEntity
8
0-0
6
CONTINUOUS
62
4
100
AcDbLine
10
1197.620000000000
20
307.010000000000
30
0.0
11
1197.620000000000
21
308.630000000000
31
0.0
0
LINE
5
43e
100
AcDbEntity
8
0-0
6
CONTINUOUS
62
4
100
AcDbLine
10
1193.620000000000
20
307.010000000000
30
0.0
11
1193.620000000000
21
308.210000000000
31
0.0
0
LINE
5
43f
100
AcDbEntity
8
0-0
6
CONTINUOUS
62
4
100
AcDbLine
10
1237.620000000000
20
307.010000000000
30
0.0
11
1237.620000000000
21
308.630000000000
31
0.0
0
LINE
5
440
100
AcDbEntity
8
0-0
6
CONTINUOUS
62
4
100
AcDbLine
10
1187.620000000000
20
308.210000000000
30
0.0
11
1287.620000000000
21
308.210000000000
31
0.0
0
LINE
5
441
100
AcDbEntity
8
0-0
6
CONTINUOUS
62
4
100
AcDbLine
10
1187.620000000000
20
307.010000000000
30
0.0
11
1187.620000000000
21
309.010000000000
31
0.0
0
LINE
5
442
100
AcDbEntity
8
0-0
6
CONTINUOUS
62
4
100
AcDbLine
10
1287.620000000000
20
307.010000000000
30
0.0
11
1287.620000000000
21
309.010000000000
31
0.0
0
LINE
5
443
100
AcDbEntity
8
0-0
6
CONTINUOUS
62
4
100
AcDbLine
10
1247.620000000000
20
307.010000000000
30
0.0
11
1247.620000000000
21
309.010000000000
31
0.0
0
LINE
5
444
100
AcDbEntity
8
0-0
6
CONTINUOUS
62
5
100
AcDbLine
10
1187.620000000000
20
307.010000000000
30
0.0
11
1287.620000000000
21
307.010000000000
31
0.0
0
LINE
5
445
100
AcDbEntity
8
0-0
6
CONTINUOUS
62
4
100
AcDbLine
10
1189.620000000000
20
307.010000000000
30
0.0
11
1189.620000000000
21
308.200000000000
31
0.0
0
LINE
5
446
100
AcDbEntity
8
0-0
6
CONTINUOUS
62
4
100
AcDbLine
10
1187.620000000000
20
307.010000000000
30
0.0
11
1187.620000000000
21
309.010000000000
31
0.0
0
LINE
5
447
100
AcDbEntity
8
0-0
6
CONTINUOUS
62
4
100
AcDbLine
10
1247.620000000000
20
307.010000000000
30
0.0
11
1247.620000000000
21
309.010000000000
31
0.0
0
LINE
5
448
100
AcDbEntity
8
0-0
6
CONTINUOUS
62
4
100
AcDbLine
10
1203.620000000000
20
307.010000000000
30
0.0
11
1203.620000000000
21
308.210000000000
31
0.0
0
LINE
5
449
100
AcDbEntity
8
0-0
6
CONTINUOUS
62
4
100
AcDbLine
10
1207.620000000000
20
307.010000000000
30
0.0
11
1207.620000000000
21
309.010000000000
31
0.0
0
LINE
5
44a
100
AcDbEntity
8
0-0
6
CONTINUOUS
62
4
100
AcDbLine
10
1227.620000000000
20
307.010000000000
30
0.0
11
1227.620000000000
21
309.010000000000
31
0.0
0
LINE
5
44b
100
AcDbEntity
8
0-0
6
CONTINUOUS
62
4
100
AcDbLine
10
1233.050000000000
20
501.840000000000
30
0.0
11
1233.050000000000
21
503.840000000000
31
0.0
0
LINE
5
44c
100
AcDbEntity
8
0-0
6
CONTINUOUS
62
4
100
AcDbLine
10
1253.050000000000
20
501.840000000000
30
0.0
11
1253.050000000000
21
503.840000000000
31
0.0
0
LINE
5
44d
100
AcDbEntity
8
0-0
6
CONTINUOUS
62
5
100
AcDbLine
10
1193.050000000000
20
501.840000000000
30
0.0
11
1293.050000000000
21
501.840000000000
31
0.0
0
LINE
5
44e
100
AcDbEntity
8
0-0
6
CONTINUOUS
62
4
100
AcDbLine
10
1213.050000000000
20
501.840000000000
30
0.0
11
1213.050000000000
21
503.840000000000
31
0.0
0
LINE
5
44f
100
AcDbEntity
8
0-0
6
CONTINUOUS
62
4
100
AcDbLine
10
1263.050000000000
20
501.840000000000
30
0.0
11
1263.050000000000
21
503.450000000000
31
0.0
0
LINE
5
450
100
AcDbEntity
8
0-0
6
CONTINUOUS
62
4
100
AcDbLine
10
1203.050000000000
20
501.840000000000
30
0.0
11
1203.050000000000
21
503.450000000000
31
0.0
0
LINE
5
451
100
AcDbEntity
8
0-0
6
CONTINUOUS
62
4
100
AcDbLine
10
1209.050000000000
20
501.840000000000
30
0.0
11
1209.050000000000
21
503.030000000000
31
0.0
0
LINE
5
452
100
AcDbEntity
8
0-0
6
CONTINUOUS
62
4
100
AcDbLine
10
1293.050000000000
20
501.840000000000
30
0.0
11
1293.050000000000
21
503.840000000000
31
0.0
0
LINE
5
453
100
AcDbEntity
8
0-0
6
CONTINUOUS
62
4
100
AcDbLine
10
1253.050000000000
20
501.840000000000
30
0.0
11
1253.050000000000
21
503.840000000000
31
0.0
0
LINE
5
454
100
AcDbEntity
8
0-0
6
CONTINUOUS
62
4
100
AcDbLine
10
1195.620000000000
20
307.010000000000
30
0.0
11
1195.620000000000
21
308.210000000000
31
0.0
0
LINE
5
455
100
AcDbEntity
8
0-0
6
CONTINUOUS
62
4
100
AcDbLine
10
1205.620000000000
20
307.010000000000
30
0.0
11
1205.620000000000
21
308.210000000000
31
0.0
0
LINE
5
456
100
AcDbEntity
8
0-0
6
CONTINUOUS
62
4
100
AcDbLine
10
1277.620000000000
20
307.010000000000
30
0.0
11
1277.620000000000
21
308.630000000000
31
0.0
0
LINE
5
457
100
AcDbEntity
8
0-0
6
CONTINUOUS
62
4
100
AcDbLine
10
1191.620000000000
20
307.010000000000
30
0.0
11
1191.620000000000
21
308.200000000000
31
0.0
0
LINE
5
458
100
AcDbEntity
8
0-0
6
CONTINUOUS
62
4
100
AcDbLine
10
1195.050000000000
20
501.840000000000
30
0.0
11
1195.050000000000
21
503.030000000000
31
0.0
0
LINE
5
459
100
AcDbEntity
8
0-0
6
CONTINUOUS
62
4
100
AcDbLine
10
1193.050000000000
20
501.840000000000
30
0.0
11
1193.050000000000
21
503.840000000000
31
0.0
0
LINE
5
45a
100
AcDbEntity
8
0-0
6
CONTINUOUS
62
4
100
AcDbLine
10
1199.620000000000
20
307.010000000000
30
0.0
11
1199.620000000000
21
308.210000000000
31
0.0
0
LINE
5
45b
100
AcDbEntity
8
0-0
6
CONTINUOUS
62
4
100
AcDbLine
10
1217.620000000000
20
307.010000000000
30
0.0
11
1217.620000000000
21
308.630000000000
31
0.0
0
TEXT
5
45c
100
AcDbEntity
8
0-0
62
4
100
AcDbText
10
1320.149
20
658.502
30
0.0
40
4.417
1
15
41
1.053
50
0.000
100
AcDbText
0
TEXT
5
45d
100
AcDbEntity
8
0-0
62
4
100
AcDbText
10
1369.130
20
658.502
30
0.0
40
4.417
1
20 cm
41
1.053
50
0.000
100
AcDbText
0
TEXT
5
45e
100
AcDbEntity
8
0-0
62
4
100
AcDbText
10
1271.167
20
658.502
30
0.0
40
4.417
1
10
41
1.053
50
0.000
100
AcDbText
0
TEXT
5
45f
100
AcDbEntity
8
0-0
62
4
100
AcDbText
10
1171.862
20
658.502
30
0.0
40
4.417
1
0
41
1.053
50
0.000
100
AcDbText
0
TEXT
5
460
100
AcDbEntity
8
0-0
62
4
100
AcDbText
10
1221.515
20
658.502
30
0.0
40
4.417
1
5
41
1.053
50
0.000
100
AcDbText
0
TEXT
5
461
100
AcDbEntity
8
0-0
62
4
100
AcDbText
10
1211.759
20
505.738
30
0.0
40
4.417
1
0
41
1.053
50
0.000
100
AcDbText
0
TEXT
5
462
100
AcDbEntity
8
0-0
62
4
100
AcDbText
10
1292.125
20
505.738
30
0.0
40
4.417
1
8 cm
41
1.053
50
0.000
100
AcDbText
0
TEXT
5
463
100
AcDbEntity
8
0-0
62
3
100
AcDbText
10
1214.966
20
521.141
30
0.0
40
9.093
1
Scale　1/3
41
1.053
50
0.000
100
AcDbText
0
TEXT
5
464
100
AcDbEntity
8
0-0
62
4
100
AcDbText
10
1271.779
20
505.738
30
0.0
40
4.417
1
6
41
1.053
50
0.000
100
AcDbText
0
TEXT
5
465
100
AcDbEntity
8
0-0
62
4
100
AcDbText
10
1231.850
20
505.738
30
0.0
40
4.417
1
2
41
1.053
50
0.000
100
AcDbText
0
TEXT
5
466
100
AcDbEntity
8
0-0
62
4
100
AcDbText
10
1251.688
20
505.738
30
0.0
40
4.417
1
4
41
1.053
50
0.000
100
AcDbText
0
TEXT
5
467
100
AcDbEntity
8
0-0
62
4
100
AcDbText
10
1245.515
20
310.525
30
0.0
40
4.417
1
40
41
1.053
50
0.000
100
AcDbText
0
TEXT
5
468
100
AcDbEntity
8
0-0
62
4
100
AcDbText
10
1265.200
20
310.525
30
0.0
40
4.417
1
60
41
1.053
50
0.000
100
AcDbText
0
TEXT
5
469
100
AcDbEntity
8
0-0
62
4
100
AcDbText
10
1225.444
20
310.525
30
0.0
40
4.417
1
20
41
1.053
50
0.000
100
AcDbText
0
TEXT
5
46a
100
AcDbEntity
8
0-0
62
4
100
AcDbText
10
1185.687
20
310.525
30
0.0
40
4.417
1
20
41
1.053
50
0.000
100
AcDbText
0
TEXT
5
46b
100
AcDbEntity
8
0-0
62
4
100
AcDbText
10
1206.531
20
310.525
30
0.0
40
4.417
1
0
41
1.053
50
0.000
100
AcDbText
0
TEXT
5
46c
100
AcDbEntity
8
0-0
62
4
100
AcDbText
10
1285.078
20
310.525
30
0.0
40
4.417
1
80 mm
41
1.053
50
0.000
100
AcDbText
0
TEXT
5
46d
100
AcDbEntity
8
0-0
62
3
100
AcDbText
10
1216.809
20
671.380
30
0.0
40
9.093
1
Scale　1/3
41
1.053
50
0.000
100
AcDbText
0
TEXT
5
46e
100
AcDbEntity
8
0-0
62
4
100
AcDbText
10
1121.875
20
658.502
30
0.0
40
4.417
1
5
41
1.053
50
0.000
100
AcDbText
0
TEXT
5
46f
100
AcDbEntity
8
0-0
62
4
100
AcDbText
10
1191.922
20
505.738
30
0.0
40
4.417
1
2
41
1.053
50
0.000
100
AcDbText
0
TEXT
5
470
100
AcDbEntity
8
0-0
62
3
100
AcDbText
10
1209.539
20
326.317
30
0.0
40
9.093
1
Scale　1/3
41
1.053
50
0.000
100
AcDbText
0
TEXT
5
471
100
AcDbEntity
8
0-0
62
6
100
AcDbText
10
394.537
20
1332.152
30
0.0
40
15.589
1
Scale　1/3　参考データ
41
1.140
50
0.000
100
AcDbText
0
ENDSEC
 0
SECTION
  2
OBJECTS
 0
DICTIONARY
  5
C
100
AcDbDictionary
  3
ACAD_GROUP
350
D
  3
ACAD_MLINESTYLE
350
E
 0
DICTIONARY
  5
D
100
AcDbDictionary
 0
DICTIONARY
  5
E
100
AcDbDictionary
  3
STANDARD
350
13
0
MLINESTYLE
  5
13
100
AcDbMlineStyle
  2
STANDARD
 70
    0
3

62
256
51
90.0
52
90.0
71
0
0
ENDSEC
0
EOF
