0
SECTION
2
HEADER
9
$ACADVER
1
AC1009
9
$EXTMIN
10
0.000
20
0.000
30
0.0
9
$EXTMAX
10
25230.000
20
17820.000
30
0.0
9
$LIMMIN
10
0.000
20
0.000
9
$LIMMAX
10
25230.000
20
17820.000
9
$DIMSCALE
40
30.000000
9
$LTSCALE
40
30.000
9
$PDMODE
70
0
9
$PDSIZE
40
40.0
9
$HANDSEED
5
61adb
9
$UNITMODE
70
0
9
$VISRETAIN
70
0
9
$PLINEGEN
70
0
9
$PSLTSCALE
70
1
9
$TREEDEPTH
70
3020
9
$CMLSTYLE
2
STANDARD
9
$CMLJUST
70
0
9
$CMLSCALE
40
1.0
0
ENDSEC
0
SECTION
2
TABLES
0
TABLE
2
VPORT
5
190
100
AcDbSymbolTable
70
2
0
VPORT
5
191
100
AcDbSymbolTableRecord
100
AcDbViewportTableRecord
2
*ACTIVE
70
0
10
0.0
20
0.0
11
1.0
21
1.0
12
12615.000
22
8910.000
13
0.0
23
0.0
14
1.0
24
1.0
15
0.0
25
0.0
16
0.0
26
0.0
36
1.0
17
0.0
27
0.0
37
0.0
40
18282.609
41
2.0
42
50.0
43
0.0
44
0.0
50
0.0
51
0.0
71
0
72
100
73
1
74
1
75
0
76
0
77
0
78
0
0
ENDTAB
0
TABLE
2
LTYPE
70
9
0
LTYPE
5
1f4
2
CONTINUOUS
70
64
3
SolidLine
72
65
73
0
40
0.0
0
LTYPE
5
1f5
2
DOT
70
64
3
--  --  --  --  --  --  --  --     
72
65
73
2
40
3.000
49
1.000
49
-2.000
0
LTYPE
5
1f6
2
DASHED
70
64
3
----    ----    ----    ----    
72
65
73
2
40
5.000
49
2.000
49
-3.000
0
LTYPE
5
1f7
2
DASHED2
70
64
3
------  ------  ------  ------ 
72
65
73
2
40
10.000
49
4.000
49
-6.000
0
LTYPE
5
1f8
2
CENTER
70
64
3
----- - ----- - ----- - ----- - 
72
65
73
4
40
10.000
49
6.000
49
-3.000
49
1.000
49
-3.000
0
LTYPE
5
1f9
2
CENTER2
70
64
3
----------  --  ----------  -- 
72
65
73
4
40
17.000
49
12.000
49
-5.000
49
2.000
49
-5.000
0
LTYPE
5
1fa
2
PHANTOM
70
64
3
--- - - --- - - --- - - --- - -
72
65
73
6
40
13.000
49
5.000
49
-3.000
49
1.000
49
-3.000
49
1.000
49
-3.000
0
LTYPE
5
1fb
2
PHANTOM2
70
64
3
--------  -  -  --------  -  -
72
65
73
6
40
20.000
49
6.000
49
-5.000
49
2.000
49
-5.000
49
2.000
49
-5.000
0
LTYPE
5
1fc
2
HIDDEN
70
64
3
-   -   -   -   -   -   -   -   
72
65
73
2
40
3.000
49
0.500
49
-2.500
0
ENDTAB
0
TABLE
2
STYLE
70
1
0
STYLE
5
1fd
100
AcDbSymbolTableRecord
100
AcDbTextStyleTableRecord
2
STANDARD
70
0
40
0.0
41
1.0
50
0.0
71
0
42
0.0
3
txt.shx
4
extfont.shx
0
STYLE
5
1fe
100
AcDbSymbolTableRecord
100
AcDbTextStyleTableRecord
2
TATEGAKI
70
4
40
0.0
41
1.0
50
0.0
71
0
42
0.0
3
txt.shx
4
extfont.shx
0
STYLE
5
1ff
100
AcDbSymbolTableRecord
100
AcDbTextStyleTableRecord
2
DIM
70
0
40
0.0
41
0.75
50
0.0
71
0
42
0.0
3
txt.shx
4
extfont.shx
0
STYLE
5
200
100
AcDbSymbolTableRecord
100
AcDbTextStyleTableRecord
2
_Gothic_
70
0
40
0.0
41
1.0
50
0.0
71
0
42
0.0
3
MS Gothic
4

0
STYLE
5
201
100
AcDbSymbolTableRecord
100
AcDbTextStyleTableRecord
2
_TateGothic_
70
4
40
0.0
41
1.0
50
0.0
71
0
42
0.0
3
@MS Gothic
4

0
ENDTAB
0
TABLE
2
DIMSTYLE
5
403
100
AcDbSymbolTable
70
1
0
DIMSTYLE
105
404
330
402
100
AcDbSymbolTableRecord
100
AcDbDimStyleTableRecord
2
JAC_DIM
70
0
41
60.000
42
0.000
44
0.0
73
0
74
0
77
1
78
8
79
2
140
0.000
170
0
171
2
172
0
173
0
174
0
175
0
176
0
177
0
178
0
270
2
271
0
272
0
273
2
274
2
340
201
275
0
280
0
281
0
282
0
283
0
284
0
285
0
286
0
287
3
288
0
0
ENDTAB
0
TABLE
2
BLOCK_RECORD
5
405
100
AcDbSymbolTable
70
0
0
BLOCK_RECORD
5
406
100
AcDbSymbolTableRecord
100
AcDbBlockTableRecord
2
*MODEL_SPACE
0
BLOCK_RECORD
5
407
100
AcDbSymbolTableRecord
100
AcDbBlockTableRecord
2
*PAPER_SPACE
0
BLOCK_RECORD
5
408
100
AcDbSymbolTableRecord
100
AcDbBlockTableRecord
2
_JACCONVERT_
0
ENDTAB
0
TABLE
2
LAYER
5
409
100
AcDbSymbolTable
70
10
0
LAYER
5
40a
100
AcDbSymbolTableRecord
100
AcDbLayerTableRecord
2
0
70
0
62
7
6
CONTINUOUS
0
LAYER
5
40b
100
AcDbSymbolTableRecord
100
AcDbLayerTableRecord
2
0-0
70
0
62
7
6
CONTINUOUS
0
LAYER
5
40c
100
AcDbSymbolTableRecord
100
AcDbLayerTableRecord
2
F-F_J_ADD
70
0
62
-7
6
CONTINUOUS
0
ENDTAB
0
ENDSEC
0
SECTION
2
BLOCKS
0
BLOCK
5
40d
100
AcDbEntity
67
1
8
0
100
AcDbBlockBegin
2
*MODEL_SPACE
70
0
10
0.0
20
0.0
30
0.0
3
*MODEL_SPACE
1

0
ENDBLK
5
40e
100
AcDbEntity
8
0
100
AcDbBlockEnd
0
BLOCK
5
40f
100
AcDbEntity
67
1
8
0
100
AcDbBlockBegin
2
*PAPER_SPACE
70
0
10
0.0
20
0.0
30
0.0
3
*PAPER_SPACE
1

0
ENDBLK
5
410
100
AcDbEntity
67
1
8
0
100
AcDbBlockEnd
0
BLOCK
5
411
100
AcDbEntity
8
0
100
AcDbBlockBegin
2
_JACCONVERT_
70
2
10
0.0
20
0.0
30
0.0
3
_JACCONVERT_
1
_JACCONVERT_
0
ATTDEF
5
412
100
AcDbEntity
8
0
62
0
100
AcDbText
10
0.0
20
0.0
30
0.0
40
1.0
1
User:川口俊雄
100
AcDbAttributeDefinition
3

2
USER
70
8
0
ATTDEF
5
413
100
AcDbEntity
8
0
62
0
100
AcDbText
10
0.0
20
2.0
30
0.0
40
1.0
1
Date:04/11/26 11:30
100
AcDbAttributeDefinition
3

2
REVDATE
70
8
0
ATTDEF
5
414
100
AcDbEntity
8
0
62
0
100
AcDbText
10
0.0
20
4.0
30
0.0
40
1.0
1
File:Scale30$.dxf
100
AcDbAttributeDefinition
3

2
FNAME
70
8
0
ATTDEF
5
415
100
AcDbEntity
8
0
62
0
100
AcDbText
10
0.0
20
6.0
30
0.0
40
1.0
1
JacConvert Version2.53 Copyright (c) 2001-2004 K.Nakahara
100
AcDbAttributeDefinition
3

2
VER
70
8
0
ENDBLK
5
416
100
AcDbEntity
67
1
8
0
100
AcDbBlockEnd
0
ENDSEC
0
SECTION
2
ENTITIES
0
LINE
5
417
100
AcDbEntity
8
0-0
6
CONTINUOUS
62
4
100
AcDbLine
10
11299.440000000001
20
3846.150000000000
30
0.0
11
11299.440000000001
21
3858.040000000000
31
0.0
0
LINE
5
418
100
AcDbEntity
8
0-0
6
CONTINUOUS
62
4
100
AcDbLine
10
11279.440000000001
20
3846.150000000000
30
0.0
11
11279.440000000001
21
3866.150000000000
31
0.0
0
LINE
5
419
100
AcDbEntity
8
0-0
6
CONTINUOUS
62
4
100
AcDbLine
10
11879.450000000001
20
3846.150000000000
30
0.0
11
11879.450000000001
21
3866.150000000000
31
0.0
0
LINE
5
41a
100
AcDbEntity
8
0-0
6
CONTINUOUS
62
5
100
AcDbLine
10
11279.440000000001
20
3846.150000000000
30
0.0
11
12279.459999999999
21
3846.150000000000
31
0.0
0
LINE
5
41b
100
AcDbEntity
8
0-0
6
CONTINUOUS
62
4
100
AcDbLine
10
11479.440000000001
20
3846.150000000000
30
0.0
11
11479.440000000001
21
3866.150000000000
31
0.0
0
LINE
5
41c
100
AcDbEntity
8
0-0
6
CONTINUOUS
62
4
100
AcDbLine
10
11679.450000000001
20
3846.150000000000
30
0.0
11
11679.450000000001
21
3866.150000000000
31
0.0
0
LINE
5
41d
100
AcDbEntity
8
0-0
6
CONTINUOUS
62
4
100
AcDbLine
10
11879.450000000001
20
3846.150000000000
30
0.0
11
11879.450000000001
21
3866.150000000000
31
0.0
0
LINE
5
41e
100
AcDbEntity
8
0-0
6
CONTINUOUS
62
4
100
AcDbLine
10
11439.440000000001
20
3846.150000000000
30
0.0
11
11439.440000000001
21
3858.100000000000
31
0.0
0
LINE
5
41f
100
AcDbEntity
8
0-0
6
CONTINUOUS
62
4
100
AcDbLine
10
12279.459999999999
20
3846.150000000000
30
0.0
11
12279.459999999999
21
3866.150000000000
31
0.0
0
LINE
5
420
100
AcDbEntity
8
0-0
6
CONTINUOUS
62
4
100
AcDbLine
10
11979.450000000001
20
3846.150000000000
30
0.0
11
11979.450000000001
21
3862.290000000000
31
0.0
0
LINE
5
421
100
AcDbEntity
8
0-0
6
CONTINUOUS
62
4
100
AcDbLine
10
11379.440000000001
20
3846.150000000000
30
0.0
11
11379.440000000001
21
3862.290000000000
31
0.0
0
LINE
5
422
100
AcDbEntity
8
0-0
6
CONTINUOUS
62
4
100
AcDbLine
10
11419.440000000001
20
3846.150000000000
30
0.0
11
11419.440000000001
21
3858.100000000000
31
0.0
0
LINE
5
423
100
AcDbEntity
8
0-0
6
CONTINUOUS
62
4
100
AcDbLine
10
12079.450000000001
20
3846.150000000000
30
0.0
11
12079.450000000001
21
3866.150000000000
31
0.0
0
LINE
5
424
100
AcDbEntity
8
0-0
6
CONTINUOUS
62
4
100
AcDbLine
10
11279.440000000001
20
3858.150000000000
30
0.0
11
12279.459999999999
21
3858.150000000000
31
0.0
0
LINE
5
425
100
AcDbEntity
8
0-0
6
CONTINUOUS
62
4
100
AcDbLine
10
11279.440000000001
20
3846.150000000000
30
0.0
11
11279.440000000001
21
3866.150000000000
31
0.0
0
LINE
5
426
100
AcDbEntity
8
0-0
6
CONTINUOUS
62
4
100
AcDbLine
10
11339.440000000001
20
3846.150000000000
30
0.0
11
11339.440000000001
21
3858.100000000000
31
0.0
0
LINE
5
427
100
AcDbEntity
8
0-0
6
CONTINUOUS
62
4
100
AcDbLine
10
11779.450000000001
20
3846.150000000000
30
0.0
11
11779.450000000001
21
3862.290000000000
31
0.0
0
LINE
5
428
100
AcDbEntity
8
0-0
6
CONTINUOUS
62
4
100
AcDbLine
10
12179.459999999999
20
3846.150000000000
30
0.0
11
12179.459999999999
21
3862.290000000000
31
0.0
0
LINE
5
429
100
AcDbEntity
8
0-0
6
CONTINUOUS
62
4
100
AcDbLine
10
11319.440000000001
20
3846.150000000000
30
0.0
11
11319.440000000001
21
3858.060000000000
31
0.0
0
LINE
5
42a
100
AcDbEntity
8
0-0
6
CONTINUOUS
62
4
100
AcDbLine
10
11359.440000000001
20
3846.150000000000
30
0.0
11
11359.440000000001
21
3858.110000000000
31
0.0
0
LINE
5
42b
100
AcDbEntity
8
0-0
6
CONTINUOUS
62
4
100
AcDbLine
10
11459.440000000001
20
3846.150000000000
30
0.0
11
11459.440000000001
21
3858.090000000000
31
0.0
0
LINE
5
42c
100
AcDbEntity
8
0-0
6
CONTINUOUS
62
4
100
AcDbLine
10
11399.440000000001
20
3846.150000000000
30
0.0
11
11399.440000000001
21
3858.150000000000
31
0.0
0
LINE
5
42d
100
AcDbEntity
8
0-0
6
CONTINUOUS
62
4
100
AcDbLine
10
11579.440000000001
20
3846.150000000000
30
0.0
11
11579.440000000001
21
3862.290000000000
31
0.0
0
LINE
5
42e
100
AcDbEntity
8
0-0
6
CONTINUOUS
62
4
100
AcDbLine
10
11353.709999999999
20
5794.390000000000
30
0.0
11
11353.709999999999
21
5806.290000000000
31
0.0
0
LINE
5
42f
100
AcDbEntity
8
0-0
6
CONTINUOUS
62
4
100
AcDbLine
10
11333.709999999999
20
5794.390000000000
30
0.0
11
11333.709999999999
21
5814.390000000000
31
0.0
0
LINE
5
430
100
AcDbEntity
8
0-0
6
CONTINUOUS
62
4
100
AcDbLine
10
11933.719999999999
20
5794.390000000000
30
0.0
11
11933.719999999999
21
5814.390000000000
31
0.0
0
LINE
5
431
100
AcDbEntity
8
0-0
6
CONTINUOUS
62
5
100
AcDbLine
10
11333.709999999999
20
5794.390000000000
30
0.0
11
12333.730000000000
21
5794.390000000000
31
0.0
0
LINE
5
432
100
AcDbEntity
8
0-0
6
CONTINUOUS
62
4
100
AcDbLine
10
11533.709999999999
20
5794.390000000000
30
0.0
11
11533.709999999999
21
5814.390000000000
31
0.0
0
LINE
5
433
100
AcDbEntity
8
0-0
6
CONTINUOUS
62
4
100
AcDbLine
10
11733.709999999999
20
5794.390000000000
30
0.0
11
11733.709999999999
21
5814.390000000000
31
0.0
0
LINE
5
434
100
AcDbEntity
8
0-0
6
CONTINUOUS
62
4
100
AcDbLine
10
11933.719999999999
20
5794.390000000000
30
0.0
11
11933.719999999999
21
5814.390000000000
31
0.0
0
LINE
5
435
100
AcDbEntity
8
0-0
6
CONTINUOUS
62
4
100
AcDbLine
10
11493.709999999999
20
5794.390000000000
30
0.0
11
11493.709999999999
21
5806.340000000000
31
0.0
0
LINE
5
436
100
AcDbEntity
8
0-0
6
CONTINUOUS
62
4
100
AcDbLine
10
12333.730000000000
20
5794.390000000000
30
0.0
11
12333.730000000000
21
5814.390000000000
31
0.0
0
LINE
5
437
100
AcDbEntity
8
0-0
6
CONTINUOUS
62
4
100
AcDbLine
10
12033.719999999999
20
5794.390000000000
30
0.0
11
12033.719999999999
21
5810.540000000000
31
0.0
0
LINE
5
438
100
AcDbEntity
8
0-0
6
CONTINUOUS
62
4
100
AcDbLine
10
11433.709999999999
20
5794.390000000000
30
0.0
11
11433.709999999999
21
5810.540000000000
31
0.0
0
LINE
5
439
100
AcDbEntity
8
0-0
6
CONTINUOUS
62
4
100
AcDbLine
10
11473.709999999999
20
5794.390000000000
30
0.0
11
11473.709999999999
21
5806.350000000000
31
0.0
0
LINE
5
43a
100
AcDbEntity
8
0-0
6
CONTINUOUS
62
4
100
AcDbLine
10
12133.719999999999
20
5794.390000000000
30
0.0
11
12133.719999999999
21
5814.390000000000
31
0.0
0
LINE
5
43b
100
AcDbEntity
8
0-0
6
CONTINUOUS
62
4
100
AcDbLine
10
11333.709999999999
20
5806.390000000000
30
0.0
11
12333.730000000000
21
5806.390000000000
31
0.0
0
LINE
5
43c
100
AcDbEntity
8
0-0
6
CONTINUOUS
62
4
100
AcDbLine
10
11333.709999999999
20
5794.390000000000
30
0.0
11
11333.709999999999
21
5814.390000000000
31
0.0
0
LINE
5
43d
100
AcDbEntity
8
0-0
6
CONTINUOUS
62
4
100
AcDbLine
10
11393.709999999999
20
5794.390000000000
30
0.0
11
11393.709999999999
21
5806.340000000000
31
0.0
0
LINE
5
43e
100
AcDbEntity
8
0-0
6
CONTINUOUS
62
4
100
AcDbLine
10
11833.719999999999
20
5794.390000000000
30
0.0
11
11833.719999999999
21
5810.540000000000
31
0.0
0
LINE
5
43f
100
AcDbEntity
8
0-0
6
CONTINUOUS
62
4
100
AcDbLine
10
12233.719999999999
20
5794.390000000000
30
0.0
11
12233.719999999999
21
5810.540000000000
31
0.0
0
LINE
5
440
100
AcDbEntity
8
0-0
6
CONTINUOUS
62
4
100
AcDbLine
10
11373.709999999999
20
5794.390000000000
30
0.0
11
11373.709999999999
21
5806.310000000000
31
0.0
0
LINE
5
441
100
AcDbEntity
8
0-0
6
CONTINUOUS
62
4
100
AcDbLine
10
11413.709999999999
20
5794.390000000000
30
0.0
11
11413.709999999999
21
5806.350000000000
31
0.0
0
LINE
5
442
100
AcDbEntity
8
0-0
6
CONTINUOUS
62
4
100
AcDbLine
10
11513.709999999999
20
5794.390000000000
30
0.0
11
11513.709999999999
21
5806.330000000000
31
0.0
0
LINE
5
443
100
AcDbEntity
8
0-0
6
CONTINUOUS
62
4
100
AcDbLine
10
11453.709999999999
20
5794.390000000000
30
0.0
11
11453.709999999999
21
5806.400000000000
31
0.0
0
LINE
5
444
100
AcDbEntity
8
0-0
6
CONTINUOUS
62
4
100
AcDbLine
10
11633.709999999999
20
5794.390000000000
30
0.0
11
11633.709999999999
21
5810.540000000000
31
0.0
0
LINE
5
445
100
AcDbEntity
8
0-0
6
CONTINUOUS
62
4
100
AcDbLine
10
10681.799999999999
20
7278.520000000000
30
0.0
11
10681.799999999999
21
7308.250000000000
31
0.0
0
LINE
5
446
100
AcDbEntity
8
0-0
6
CONTINUOUS
62
4
100
AcDbLine
10
10631.799999999999
20
7278.520000000000
30
0.0
11
10631.799999999999
21
7328.520000000000
31
0.0
0
LINE
5
447
100
AcDbEntity
8
0-0
6
CONTINUOUS
62
4
100
AcDbLine
10
12131.799999999999
20
7278.520000000000
30
0.0
11
12131.799999999999
21
7328.520000000000
31
0.0
0
LINE
5
448
100
AcDbEntity
8
0-0
6
CONTINUOUS
62
5
100
AcDbLine
10
10631.799999999999
20
7278.520000000000
30
0.0
11
13131.799999999999
21
7278.520000000000
31
0.0
0
LINE
5
449
100
AcDbEntity
8
0-0
6
CONTINUOUS
62
4
100
AcDbLine
10
11131.799999999999
20
7278.520000000000
30
0.0
11
11131.799999999999
21
7328.520000000000
31
0.0
0
LINE
5
44a
100
AcDbEntity
8
0-0
6
CONTINUOUS
62
4
100
AcDbLine
10
11631.799999999999
20
7278.520000000000
30
0.0
11
11631.799999999999
21
7328.520000000000
31
0.0
0
LINE
5
44b
100
AcDbEntity
8
0-0
6
CONTINUOUS
62
4
100
AcDbLine
10
12131.799999999999
20
7278.520000000000
30
0.0
11
12131.799999999999
21
7328.520000000000
31
0.0
0
LINE
5
44c
100
AcDbEntity
8
0-0
6
CONTINUOUS
62
4
100
AcDbLine
10
11031.799999999999
20
7278.520000000000
30
0.0
11
11031.799999999999
21
7308.380000000000
31
0.0
0
LINE
5
44d
100
AcDbEntity
8
0-0
6
CONTINUOUS
62
4
100
AcDbLine
10
13131.799999999999
20
7278.520000000000
30
0.0
11
13131.799999999999
21
7328.520000000000
31
0.0
0
LINE
5
44e
100
AcDbEntity
8
0-0
6
CONTINUOUS
62
4
100
AcDbLine
10
12381.799999999999
20
7278.520000000000
30
0.0
11
12381.799999999999
21
7318.870000000000
31
0.0
0
LINE
5
44f
100
AcDbEntity
8
0-0
6
CONTINUOUS
62
4
100
AcDbLine
10
10881.799999999999
20
7278.520000000000
30
0.0
11
10881.799999999999
21
7318.870000000000
31
0.0
0
LINE
5
450
100
AcDbEntity
8
0-0
6
CONTINUOUS
62
4
100
AcDbLine
10
10981.799999999999
20
7278.520000000000
30
0.0
11
10981.799999999999
21
7308.400000000000
31
0.0
0
LINE
5
451
100
AcDbEntity
8
0-0
6
CONTINUOUS
62
4
100
AcDbLine
10
12631.799999999999
20
7278.520000000000
30
0.0
11
12631.799999999999
21
7328.520000000000
31
0.0
0
LINE
5
452
100
AcDbEntity
8
0-0
6
CONTINUOUS
62
4
100
AcDbLine
10
10631.799999999999
20
7308.520000000000
30
0.0
11
13131.799999999999
21
7308.520000000000
31
0.0
0
LINE
5
453
100
AcDbEntity
8
0-0
6
CONTINUOUS
62
4
100
AcDbLine
10
10631.799999999999
20
7278.520000000000
30
0.0
11
10631.799999999999
21
7328.520000000000
31
0.0
0
LINE
5
454
100
AcDbEntity
8
0-0
6
CONTINUOUS
62
4
100
AcDbLine
10
10781.799999999999
20
7278.520000000000
30
0.0
11
10781.799999999999
21
7308.380000000000
31
0.0
0
LINE
5
455
100
AcDbEntity
8
0-0
6
CONTINUOUS
62
4
100
AcDbLine
10
11881.799999999999
20
7278.520000000000
30
0.0
11
11881.799999999999
21
7318.870000000000
31
0.0
0
LINE
5
456
100
AcDbEntity
8
0-0
6
CONTINUOUS
62
4
100
AcDbLine
10
12881.799999999999
20
7278.520000000000
30
0.0
11
12881.799999999999
21
7318.870000000000
31
0.0
0
LINE
5
457
100
AcDbEntity
8
0-0
6
CONTINUOUS
62
4
100
AcDbLine
10
10731.799999999999
20
7278.520000000000
30
0.0
11
10731.799999999999
21
7308.300000000000
31
0.0
0
LINE
5
458
100
AcDbEntity
8
0-0
6
CONTINUOUS
62
4
100
AcDbLine
10
10831.799999999999
20
7278.520000000000
30
0.0
11
10831.799999999999
21
7308.410000000000
31
0.0
0
LINE
5
459
100
AcDbEntity
8
0-0
6
CONTINUOUS
62
4
100
AcDbLine
10
11081.799999999999
20
7278.520000000000
30
0.0
11
11081.799999999999
21
7308.360000000000
31
0.0
0
LINE
5
45a
100
AcDbEntity
8
0-0
6
CONTINUOUS
62
4
100
AcDbLine
10
10931.799999999999
20
7278.520000000000
30
0.0
11
10931.799999999999
21
7308.520000000000
31
0.0
0
LINE
5
45b
100
AcDbEntity
8
0-0
6
CONTINUOUS
62
4
100
AcDbLine
10
11381.799999999999
20
7278.520000000000
30
0.0
11
11381.799999999999
21
7318.870000000000
31
0.0
0
TEXT
5
45c
100
AcDbEntity
8
0-0
62
4
100
AcDbText
10
11237.267
20
3883.744
30
0.0
40
44.168
1
200
41
1.053
50
0.000
100
AcDbText
0
TEXT
5
45d
100
AcDbEntity
8
0-0
62
4
100
AcDbText
10
11466.216
20
3889.976
30
0.0
40
44.168
1
0
41
1.053
50
0.000
100
AcDbText
0
TEXT
5
45e
100
AcDbEntity
8
0-0
62
4
100
AcDbText
10
11637.587
20
3883.744
30
0.0
40
44.168
1
200
41
1.053
50
0.000
100
AcDbText
0
TEXT
5
45f
100
AcDbEntity
8
0-0
62
4
100
AcDbText
10
11837.747
20
3883.744
30
0.0
40
44.168
1
400
41
1.053
50
0.000
100
AcDbText
0
TEXT
5
460
100
AcDbEntity
8
0-0
62
4
100
AcDbText
10
12035.657
20
3883.744
30
0.0
40
44.168
1
600
41
1.053
50
0.000
100
AcDbText
0
TEXT
5
461
100
AcDbEntity
8
0-0
62
4
100
AcDbText
10
12231.320
20
3883.744
30
0.0
40
44.168
1
800 mm
41
1.053
50
0.000
100
AcDbText
0
TEXT
5
462
100
AcDbEntity
8
0-0
62
3
100
AcDbText
10
11498.625
20
4039.186
30
0.0
40
90.935
1
Scale　1/30
41
1.053
50
0.000
100
AcDbText
0
TEXT
5
463
100
AcDbEntity
8
0-0
62
6
100
AcDbText
10
3348.604
20
14097.534
30
0.0
40
155.888
1
Scale　1/30　参考データ
41
1.140
50
0.000
100
AcDbText
0
TEXT
5
464
100
AcDbEntity
8
0-0
62
4
100
AcDbText
10
11314.196
20
5838.220
30
0.0
40
44.168
1
20
41
1.053
50
0.000
100
AcDbText
0
TEXT
5
465
100
AcDbEntity
8
0-0
62
3
100
AcDbText
10
11571.329
20
7489.817
30
0.0
40
90.935
1
Scale　1/30
41
1.053
50
0.000
100
AcDbText
0
TEXT
5
466
100
AcDbEntity
8
0-0
62
4
100
AcDbText
10
10608.845
20
7356.020
30
0.0
40
44.168
1
50
41
1.053
50
0.000
100
AcDbText
0
TEXT
5
467
100
AcDbEntity
8
0-0
62
4
100
AcDbText
10
11117.712
20
7359.734
30
0.0
40
44.168
1
0
41
1.053
50
0.000
100
AcDbText
0
TEXT
5
468
100
AcDbEntity
8
0-0
62
4
100
AcDbText
10
11608.008
20
7356.020
30
0.0
40
44.168
1
50
41
1.053
50
0.000
100
AcDbText
0
TEXT
5
469
100
AcDbEntity
8
0-0
62
4
100
AcDbText
10
12102.016
20
7356.020
30
0.0
40
44.168
1
100
41
1.053
50
0.000
100
AcDbText
0
TEXT
5
46a
100
AcDbEntity
8
0-0
62
4
100
AcDbText
10
12603.454
20
7356.020
30
0.0
40
44.168
1
150
41
1.053
50
0.000
100
AcDbText
0
TEXT
5
46b
100
AcDbEntity
8
0-0
62
4
100
AcDbText
10
13090.035
20
7356.020
30
0.0
40
44.168
1
200 cm
41
1.053
50
0.000
100
AcDbText
0
TEXT
5
46c
100
AcDbEntity
8
0-0
62
4
100
AcDbText
10
11520.486
20
5838.220
30
0.0
40
44.168
1
0
41
1.053
50
0.000
100
AcDbText
0
TEXT
5
46d
100
AcDbEntity
8
0-0
62
4
100
AcDbText
10
11709.441
20
5836.487
30
0.0
40
44.168
1
20
41
1.053
50
0.000
100
AcDbText
0
TEXT
5
46e
100
AcDbEntity
8
0-0
62
4
100
AcDbText
10
11908.797
20
5838.220
30
0.0
40
44.168
1
40
41
1.053
50
0.000
100
AcDbText
0
TEXT
5
46f
100
AcDbEntity
8
0-0
62
4
100
AcDbText
10
12106.418
20
5838.220
30
0.0
40
44.168
1
60
41
1.053
50
0.000
100
AcDbText
0
TEXT
5
470
100
AcDbEntity
8
0-0
62
4
100
AcDbText
10
12300.574
20
5838.220
30
0.0
40
44.168
1
80 cm
41
1.053
50
0.000
100
AcDbText
0
TEXT
5
471
100
AcDbEntity
8
0-0
62
3
100
AcDbText
10
11552.895
20
5987.431
30
0.0
40
90.935
1
Scale　1/30
41
1.053
50
0.000
100
AcDbText
0
ENDSEC
 0
SECTION
  2
OBJECTS
 0
DICTIONARY
  5
C
100
AcDbDictionary
  3
ACAD_GROUP
350
D
  3
ACAD_MLINESTYLE
350
E
 0
DICTIONARY
  5
D
100
AcDbDictionary
 0
DICTIONARY
  5
E
100
AcDbDictionary
  3
STANDARD
350
13
0
MLINESTYLE
  5
13
100
AcDbMlineStyle
  2
STANDARD
 70
    0
3

62
256
51
90.0
52
90.0
71
0
0
ENDSEC
0
EOF
