0
SECTION
2
HEADER
9
$ACADVER
1
AC1009
9
$EXTMIN
10
0.000
20
0.000
30
0.0
9
$EXTMAX
10
4205.000
20
2970.000
30
0.0
9
$LIMMIN
10
0.000
20
0.000
9
$LIMMAX
10
4205.000
20
2970.000
9
$DIMSCALE
40
5.000000
9
$LTSCALE
40
5.000
9
$PDMODE
70
0
9
$PDSIZE
40
40.0
9
$HANDSEED
5
61ada
9
$UNITMODE
70
0
9
$VISRETAIN
70
0
9
$PLINEGEN
70
0
9
$PSLTSCALE
70
1
9
$TREEDEPTH
70
3020
9
$CMLSTYLE
2
STANDARD
9
$CMLJUST
70
0
9
$CMLSCALE
40
1.0
0
ENDSEC
0
SECTION
2
TABLES
0
TABLE
2
VPORT
5
190
100
AcDbSymbolTable
70
2
0
VPORT
5
191
100
AcDbSymbolTableRecord
100
AcDbViewportTableRecord
2
*ACTIVE
70
0
10
0.0
20
0.0
11
1.0
21
1.0
12
2102.500
22
1485.000
13
0.0
23
0.0
14
1.0
24
1.0
15
0.0
25
0.0
16
0.0
26
0.0
36
1.0
17
0.0
27
0.0
37
0.0
40
3047.101
41
2.0
42
50.0
43
0.0
44
0.0
50
0.0
51
0.0
71
0
72
100
73
1
74
1
75
0
76
0
77
0
78
0
0
ENDTAB
0
TABLE
2
LTYPE
70
9
0
LTYPE
5
1f4
2
CONTINUOUS
70
64
3
SolidLine
72
65
73
0
40
0.0
0
LTYPE
5
1f5
2
DOT
70
64
3
--  --  --  --  --  --  --  --     
72
65
73
2
40
3.000
49
1.000
49
-2.000
0
LTYPE
5
1f6
2
DASHED
70
64
3
----    ----    ----    ----    
72
65
73
2
40
5.000
49
2.000
49
-3.000
0
LTYPE
5
1f7
2
DASHED2
70
64
3
------  ------  ------  ------ 
72
65
73
2
40
10.000
49
4.000
49
-6.000
0
LTYPE
5
1f8
2
CENTER
70
64
3
----- - ----- - ----- - ----- - 
72
65
73
4
40
10.000
49
6.000
49
-3.000
49
1.000
49
-3.000
0
LTYPE
5
1f9
2
CENTER2
70
64
3
----------  --  ----------  -- 
72
65
73
4
40
17.000
49
12.000
49
-5.000
49
2.000
49
-5.000
0
LTYPE
5
1fa
2
PHANTOM
70
64
3
--- - - --- - - --- - - --- - -
72
65
73
6
40
13.000
49
5.000
49
-3.000
49
1.000
49
-3.000
49
1.000
49
-3.000
0
LTYPE
5
1fb
2
PHANTOM2
70
64
3
--------  -  -  --------  -  -
72
65
73
6
40
20.000
49
6.000
49
-5.000
49
2.000
49
-5.000
49
2.000
49
-5.000
0
LTYPE
5
1fc
2
HIDDEN
70
64
3
-   -   -   -   -   -   -   -   
72
65
73
2
40
3.000
49
0.500
49
-2.500
0
ENDTAB
0
TABLE
2
STYLE
70
1
0
STYLE
5
1fd
100
AcDbSymbolTableRecord
100
AcDbTextStyleTableRecord
2
STANDARD
70
0
40
0.0
41
1.0
50
0.0
71
0
42
0.0
3
txt.shx
4
extfont.shx
0
STYLE
5
1fe
100
AcDbSymbolTableRecord
100
AcDbTextStyleTableRecord
2
TATEGAKI
70
4
40
0.0
41
1.0
50
0.0
71
0
42
0.0
3
txt.shx
4
extfont.shx
0
STYLE
5
1ff
100
AcDbSymbolTableRecord
100
AcDbTextStyleTableRecord
2
DIM
70
0
40
0.0
41
0.75
50
0.0
71
0
42
0.0
3
txt.shx
4
extfont.shx
0
STYLE
5
200
100
AcDbSymbolTableRecord
100
AcDbTextStyleTableRecord
2
_Gothic_
70
0
40
0.0
41
1.0
50
0.0
71
0
42
0.0
3
MS Gothic
4

0
STYLE
5
201
100
AcDbSymbolTableRecord
100
AcDbTextStyleTableRecord
2
_TateGothic_
70
4
40
0.0
41
1.0
50
0.0
71
0
42
0.0
3
@MS Gothic
4

0
ENDTAB
0
TABLE
2
DIMSTYLE
5
403
100
AcDbSymbolTable
70
1
0
DIMSTYLE
105
404
330
402
100
AcDbSymbolTableRecord
100
AcDbDimStyleTableRecord
2
JAC_DIM
70
0
41
10.000
42
0.000
44
0.0
73
0
74
0
77
1
78
8
79
2
140
0.000
170
0
171
2
172
0
173
0
174
0
175
0
176
0
177
0
178
0
270
2
271
0
272
0
273
2
274
2
340
201
275
0
280
0
281
0
282
0
283
0
284
0
285
0
286
0
287
3
288
0
0
ENDTAB
0
TABLE
2
BLOCK_RECORD
5
405
100
AcDbSymbolTable
70
0
0
BLOCK_RECORD
5
406
100
AcDbSymbolTableRecord
100
AcDbBlockTableRecord
2
*MODEL_SPACE
0
BLOCK_RECORD
5
407
100
AcDbSymbolTableRecord
100
AcDbBlockTableRecord
2
*PAPER_SPACE
0
BLOCK_RECORD
5
408
100
AcDbSymbolTableRecord
100
AcDbBlockTableRecord
2
_JACCONVERT_
0
ENDTAB
0
TABLE
2
LAYER
5
409
100
AcDbSymbolTable
70
10
0
LAYER
5
40a
100
AcDbSymbolTableRecord
100
AcDbLayerTableRecord
2
0
70
0
62
7
6
CONTINUOUS
0
LAYER
5
40b
100
AcDbSymbolTableRecord
100
AcDbLayerTableRecord
2
0-0
70
0
62
7
6
CONTINUOUS
0
LAYER
5
40c
100
AcDbSymbolTableRecord
100
AcDbLayerTableRecord
2
F-F_J_ADD
70
0
62
-7
6
CONTINUOUS
0
ENDTAB
0
ENDSEC
0
SECTION
2
BLOCKS
0
BLOCK
5
40d
100
AcDbEntity
67
1
8
0
100
AcDbBlockBegin
2
*MODEL_SPACE
70
0
10
0.0
20
0.0
30
0.0
3
*MODEL_SPACE
1

0
ENDBLK
5
40e
100
AcDbEntity
8
0
100
AcDbBlockEnd
0
BLOCK
5
40f
100
AcDbEntity
67
1
8
0
100
AcDbBlockBegin
2
*PAPER_SPACE
70
0
10
0.0
20
0.0
30
0.0
3
*PAPER_SPACE
1

0
ENDBLK
5
410
100
AcDbEntity
67
1
8
0
100
AcDbBlockEnd
0
BLOCK
5
411
100
AcDbEntity
8
0
100
AcDbBlockBegin
2
_JACCONVERT_
70
2
10
0.0
20
0.0
30
0.0
3
_JACCONVERT_
1
_JACCONVERT_
0
ATTDEF
5
412
100
AcDbEntity
8
0
62
0
100
AcDbText
10
0.0
20
0.0
30
0.0
40
1.0
1
User:川口俊雄
100
AcDbAttributeDefinition
3

2
USER
70
8
0
ATTDEF
5
413
100
AcDbEntity
8
0
62
0
100
AcDbText
10
0.0
20
2.0
30
0.0
40
1.0
1
Date:04/11/26 11:27
100
AcDbAttributeDefinition
3

2
REVDATE
70
8
0
ATTDEF
5
414
100
AcDbEntity
8
0
62
0
100
AcDbText
10
0.0
20
4.0
30
0.0
40
1.0
1
File:Scale5$.dxf
100
AcDbAttributeDefinition
3

2
FNAME
70
8
0
ATTDEF
5
415
100
AcDbEntity
8
0
62
0
100
AcDbText
10
0.0
20
6.0
30
0.0
40
1.0
1
JacConvert Version2.53 Copyright (c) 2001-2004 K.Nakahara
100
AcDbAttributeDefinition
3

2
VER
70
8
0
ENDBLK
5
416
100
AcDbEntity
67
1
8
0
100
AcDbBlockEnd
0
ENDSEC
0
SECTION
2
ENTITIES
0
LINE
5
417
100
AcDbEntity
8
0-0
6
CONTINUOUS
62
4
100
AcDbLine
10
1813.450000000000
20
1110.070000000000
30
0.0
11
1813.450000000000
21
1120.070000000000
31
0.0
0
LINE
5
418
100
AcDbEntity
8
0-0
6
CONTINUOUS
62
4
100
AcDbLine
10
2263.450000000000
20
1110.070000000000
30
0.0
11
2263.450000000000
21
1118.140000000000
31
0.0
0
LINE
5
419
100
AcDbEntity
8
0-0
6
CONTINUOUS
62
4
100
AcDbLine
10
2113.450000000000
20
1110.070000000000
30
0.0
11
2113.450000000000
21
1120.070000000000
31
0.0
0
LINE
5
41a
100
AcDbEntity
8
0-0
6
CONTINUOUS
62
4
100
AcDbLine
10
2013.450000000000
20
1110.070000000000
30
0.0
11
2013.450000000000
21
1120.070000000000
31
0.0
0
LINE
5
41b
100
AcDbEntity
8
0-0
6
CONTINUOUS
62
4
100
AcDbLine
10
2163.450000000000
20
1110.070000000000
30
0.0
11
2163.450000000000
21
1118.140000000000
31
0.0
0
LINE
5
41c
100
AcDbEntity
8
0-0
6
CONTINUOUS
62
4
100
AcDbLine
10
2313.450000000000
20
1110.070000000000
30
0.0
11
2313.450000000000
21
1120.070000000000
31
0.0
0
LINE
5
41d
100
AcDbEntity
8
0-0
6
CONTINUOUS
62
4
100
AcDbLine
10
1883.450000000000
20
1110.070000000000
30
0.0
11
1883.450000000000
21
1116.070000000000
31
0.0
0
LINE
5
41e
100
AcDbEntity
8
0-0
6
CONTINUOUS
62
4
100
AcDbLine
10
1913.450000000000
20
1110.070000000000
30
0.0
11
1913.450000000000
21
1120.070000000000
31
0.0
0
LINE
5
41f
100
AcDbEntity
8
0-0
6
CONTINUOUS
62
4
100
AcDbLine
10
2213.450000000000
20
1110.070000000000
30
0.0
11
2213.450000000000
21
1120.070000000000
31
0.0
0
LINE
5
420
100
AcDbEntity
8
0-0
6
CONTINUOUS
62
4
100
AcDbLine
10
1853.450000000000
20
1110.070000000000
30
0.0
11
1853.450000000000
21
1116.070000000000
31
0.0
0
LINE
5
421
100
AcDbEntity
8
0-0
6
CONTINUOUS
62
4
100
AcDbLine
10
1873.450000000000
20
1110.070000000000
30
0.0
11
1873.450000000000
21
1116.070000000000
31
0.0
0
LINE
5
422
100
AcDbEntity
8
0-0
6
CONTINUOUS
62
4
100
AcDbLine
10
1903.450000000000
20
1110.070000000000
30
0.0
11
1903.450000000000
21
1116.070000000000
31
0.0
0
LINE
5
423
100
AcDbEntity
8
0-0
6
CONTINUOUS
62
4
100
AcDbLine
10
1833.450000000000
20
1110.070000000000
30
0.0
11
1833.450000000000
21
1116.070000000000
31
0.0
0
LINE
5
424
100
AcDbEntity
8
0-0
6
CONTINUOUS
62
4
100
AcDbLine
10
1843.450000000000
20
1110.070000000000
30
0.0
11
1843.450000000000
21
1116.070000000000
31
0.0
0
LINE
5
425
100
AcDbEntity
8
0-0
6
CONTINUOUS
62
4
100
AcDbLine
10
2113.450000000000
20
1110.070000000000
30
0.0
11
2113.450000000000
21
1120.070000000000
31
0.0
0
LINE
5
426
100
AcDbEntity
8
0-0
6
CONTINUOUS
62
5
100
AcDbLine
10
1813.450000000000
20
1110.070000000000
30
0.0
11
2313.450000000000
21
1110.070000000000
31
0.0
0
LINE
5
427
100
AcDbEntity
8
0-0
6
CONTINUOUS
62
4
100
AcDbLine
10
1863.450000000000
20
1110.070000000000
30
0.0
11
1863.450000000000
21
1118.140000000000
31
0.0
0
LINE
5
428
100
AcDbEntity
8
0-0
6
CONTINUOUS
62
4
100
AcDbLine
10
1893.450000000000
20
1110.070000000000
30
0.0
11
1893.450000000000
21
1116.070000000000
31
0.0
0
LINE
5
429
100
AcDbEntity
8
0-0
6
CONTINUOUS
62
4
100
AcDbLine
10
1813.450000000000
20
1110.070000000000
30
0.0
11
1813.450000000000
21
1120.070000000000
31
0.0
0
LINE
5
42a
100
AcDbEntity
8
0-0
6
CONTINUOUS
62
4
100
AcDbLine
10
2063.450000000000
20
1110.070000000000
30
0.0
11
2063.450000000000
21
1118.140000000000
31
0.0
0
LINE
5
42b
100
AcDbEntity
8
0-0
6
CONTINUOUS
62
4
100
AcDbLine
10
1813.450000000000
20
1116.070000000000
30
0.0
11
2313.450000000000
21
1116.070000000000
31
0.0
0
LINE
5
42c
100
AcDbEntity
8
0-0
6
CONTINUOUS
62
4
100
AcDbLine
10
1963.450000000000
20
1110.070000000000
30
0.0
11
1963.450000000000
21
1118.140000000000
31
0.0
0
LINE
5
42d
100
AcDbEntity
8
0-0
6
CONTINUOUS
62
4
100
AcDbLine
10
1823.450000000000
20
1110.070000000000
30
0.0
11
1823.450000000000
21
1116.070000000000
31
0.0
0
LINE
5
42e
100
AcDbEntity
8
0-0
6
CONTINUOUS
62
4
100
AcDbLine
10
1825.400000000000
20
834.820000000000
30
0.0
11
1825.400000000000
21
844.820000000000
31
0.0
0
LINE
5
42f
100
AcDbEntity
8
0-0
6
CONTINUOUS
62
4
100
AcDbLine
10
2275.400000000000
20
834.820000000000
30
0.0
11
2275.400000000000
21
842.890000000000
31
0.0
0
LINE
5
430
100
AcDbEntity
8
0-0
6
CONTINUOUS
62
4
100
AcDbLine
10
2125.400000000000
20
834.820000000000
30
0.0
11
2125.400000000000
21
844.820000000000
31
0.0
0
LINE
5
431
100
AcDbEntity
8
0-0
6
CONTINUOUS
62
4
100
AcDbLine
10
2025.400000000000
20
834.820000000000
30
0.0
11
2025.400000000000
21
844.820000000000
31
0.0
0
LINE
5
432
100
AcDbEntity
8
0-0
6
CONTINUOUS
62
4
100
AcDbLine
10
2175.400000000000
20
834.820000000000
30
0.0
11
2175.400000000000
21
842.890000000000
31
0.0
0
LINE
5
433
100
AcDbEntity
8
0-0
6
CONTINUOUS
62
4
100
AcDbLine
10
2325.400000000000
20
834.820000000000
30
0.0
11
2325.400000000000
21
844.820000000000
31
0.0
0
LINE
5
434
100
AcDbEntity
8
0-0
6
CONTINUOUS
62
4
100
AcDbLine
10
1895.400000000000
20
834.820000000000
30
0.0
11
1895.400000000000
21
840.820000000000
31
0.0
0
LINE
5
435
100
AcDbEntity
8
0-0
6
CONTINUOUS
62
4
100
AcDbLine
10
1925.400000000000
20
834.820000000000
30
0.0
11
1925.400000000000
21
844.820000000000
31
0.0
0
LINE
5
436
100
AcDbEntity
8
0-0
6
CONTINUOUS
62
4
100
AcDbLine
10
2225.400000000000
20
834.820000000000
30
0.0
11
2225.400000000000
21
844.820000000000
31
0.0
0
LINE
5
437
100
AcDbEntity
8
0-0
6
CONTINUOUS
62
4
100
AcDbLine
10
1865.400000000000
20
834.820000000000
30
0.0
11
1865.400000000000
21
840.820000000000
31
0.0
0
LINE
5
438
100
AcDbEntity
8
0-0
6
CONTINUOUS
62
4
100
AcDbLine
10
1885.400000000000
20
834.820000000000
30
0.0
11
1885.400000000000
21
840.820000000000
31
0.0
0
LINE
5
439
100
AcDbEntity
8
0-0
6
CONTINUOUS
62
4
100
AcDbLine
10
1915.400000000000
20
834.820000000000
30
0.0
11
1915.400000000000
21
840.820000000000
31
0.0
0
LINE
5
43a
100
AcDbEntity
8
0-0
6
CONTINUOUS
62
4
100
AcDbLine
10
1845.400000000000
20
834.820000000000
30
0.0
11
1845.400000000000
21
840.820000000000
31
0.0
0
LINE
5
43b
100
AcDbEntity
8
0-0
6
CONTINUOUS
62
4
100
AcDbLine
10
1855.400000000000
20
834.820000000000
30
0.0
11
1855.400000000000
21
840.820000000000
31
0.0
0
LINE
5
43c
100
AcDbEntity
8
0-0
6
CONTINUOUS
62
4
100
AcDbLine
10
2125.400000000000
20
834.820000000000
30
0.0
11
2125.400000000000
21
844.820000000000
31
0.0
0
LINE
5
43d
100
AcDbEntity
8
0-0
6
CONTINUOUS
62
5
100
AcDbLine
10
1825.400000000000
20
834.820000000000
30
0.0
11
2325.400000000000
21
834.820000000000
31
0.0
0
LINE
5
43e
100
AcDbEntity
8
0-0
6
CONTINUOUS
62
4
100
AcDbLine
10
1875.400000000000
20
834.820000000000
30
0.0
11
1875.400000000000
21
842.890000000000
31
0.0
0
LINE
5
43f
100
AcDbEntity
8
0-0
6
CONTINUOUS
62
4
100
AcDbLine
10
1905.400000000000
20
834.820000000000
30
0.0
11
1905.400000000000
21
840.820000000000
31
0.0
0
LINE
5
440
100
AcDbEntity
8
0-0
6
CONTINUOUS
62
4
100
AcDbLine
10
1825.400000000000
20
834.820000000000
30
0.0
11
1825.400000000000
21
844.820000000000
31
0.0
0
LINE
5
441
100
AcDbEntity
8
0-0
6
CONTINUOUS
62
4
100
AcDbLine
10
2075.400000000000
20
834.820000000000
30
0.0
11
2075.400000000000
21
842.890000000000
31
0.0
0
LINE
5
442
100
AcDbEntity
8
0-0
6
CONTINUOUS
62
4
100
AcDbLine
10
1825.400000000000
20
840.820000000000
30
0.0
11
2325.400000000000
21
840.820000000000
31
0.0
0
LINE
5
443
100
AcDbEntity
8
0-0
6
CONTINUOUS
62
4
100
AcDbLine
10
1975.400000000000
20
834.820000000000
30
0.0
11
1975.400000000000
21
842.890000000000
31
0.0
0
LINE
5
444
100
AcDbEntity
8
0-0
6
CONTINUOUS
62
4
100
AcDbLine
10
1835.400000000000
20
834.820000000000
30
0.0
11
1835.400000000000
21
840.820000000000
31
0.0
0
LINE
5
445
100
AcDbEntity
8
0-0
6
CONTINUOUS
62
4
100
AcDbLine
10
1971.080000000000
20
546.430000000000
30
0.0
11
1971.080000000000
21
549.430000000000
31
0.0
0
LINE
5
446
100
AcDbEntity
8
0-0
6
CONTINUOUS
62
4
100
AcDbLine
10
1991.080000000000
20
546.430000000000
30
0.0
11
1991.080000000000
21
551.430000000000
31
0.0
0
LINE
5
447
100
AcDbEntity
8
0-0
6
CONTINUOUS
62
4
100
AcDbLine
10
2141.080000000000
20
546.430000000000
30
0.0
11
2141.080000000000
21
551.430000000000
31
0.0
0
LINE
5
448
100
AcDbEntity
8
0-0
6
CONTINUOUS
62
4
100
AcDbLine
10
1956.080000000000
20
546.430000000000
30
0.0
11
1956.080000000000
21
549.430000000000
31
0.0
0
LINE
5
449
100
AcDbEntity
8
0-0
6
CONTINUOUS
62
4
100
AcDbLine
10
2091.080000000000
20
546.430000000000
30
0.0
11
2091.080000000000
21
551.430000000000
31
0.0
0
LINE
5
44a
100
AcDbEntity
8
0-0
6
CONTINUOUS
62
4
100
AcDbLine
10
1986.080000000000
20
546.430000000000
30
0.0
11
1986.080000000000
21
549.430000000000
31
0.0
0
LINE
5
44b
100
AcDbEntity
8
0-0
6
CONTINUOUS
62
4
100
AcDbLine
10
1951.080000000000
20
546.430000000000
30
0.0
11
1951.080000000000
21
549.430000000000
31
0.0
0
LINE
5
44c
100
AcDbEntity
8
0-0
6
CONTINUOUS
62
4
100
AcDbLine
10
1946.080000000000
20
546.430000000000
30
0.0
11
1946.080000000000
21
549.430000000000
31
0.0
0
LINE
5
44d
100
AcDbEntity
8
0-0
6
CONTINUOUS
62
4
100
AcDbLine
10
2066.080000000000
20
546.430000000000
30
0.0
11
2066.080000000000
21
550.470000000000
31
0.0
0
LINE
5
44e
100
AcDbEntity
8
0-0
6
CONTINUOUS
62
4
100
AcDbLine
10
1941.080000000000
20
546.430000000000
30
0.0
11
1941.080000000000
21
551.430000000000
31
0.0
0
LINE
5
44f
100
AcDbEntity
8
0-0
6
CONTINUOUS
62
4
100
AcDbLine
10
2016.080000000000
20
546.430000000000
30
0.0
11
2016.080000000000
21
550.470000000000
31
0.0
0
LINE
5
450
100
AcDbEntity
8
0-0
6
CONTINUOUS
62
4
100
AcDbLine
10
1961.080000000000
20
546.430000000000
30
0.0
11
1961.080000000000
21
549.430000000000
31
0.0
0
LINE
5
451
100
AcDbEntity
8
0-0
6
CONTINUOUS
62
4
100
AcDbLine
10
1981.080000000000
20
546.430000000000
30
0.0
11
1981.080000000000
21
549.430000000000
31
0.0
0
LINE
5
452
100
AcDbEntity
8
0-0
6
CONTINUOUS
62
4
100
AcDbLine
10
1941.080000000000
20
549.430000000000
30
0.0
11
2191.080000000000
21
549.430000000000
31
0.0
0
LINE
5
453
100
AcDbEntity
8
0-0
6
CONTINUOUS
62
4
100
AcDbLine
10
2091.080000000000
20
546.430000000000
30
0.0
11
2091.080000000000
21
551.430000000000
31
0.0
0
LINE
5
454
100
AcDbEntity
8
0-0
6
CONTINUOUS
62
5
100
AcDbLine
10
1941.080000000000
20
546.430000000000
30
0.0
11
2191.080000000000
21
546.430000000000
31
0.0
0
LINE
5
455
100
AcDbEntity
8
0-0
6
CONTINUOUS
62
4
100
AcDbLine
10
2041.080000000000
20
546.430000000000
30
0.0
11
2041.080000000000
21
551.430000000000
31
0.0
0
LINE
5
456
100
AcDbEntity
8
0-0
6
CONTINUOUS
62
4
100
AcDbLine
10
1941.080000000000
20
546.430000000000
30
0.0
11
1941.080000000000
21
551.430000000000
31
0.0
0
LINE
5
457
100
AcDbEntity
8
0-0
6
CONTINUOUS
62
4
100
AcDbLine
10
2166.080000000000
20
546.430000000000
30
0.0
11
2166.080000000000
21
550.470000000000
31
0.0
0
LINE
5
458
100
AcDbEntity
8
0-0
6
CONTINUOUS
62
4
100
AcDbLine
10
1976.080000000000
20
546.430000000000
30
0.0
11
1976.080000000000
21
549.430000000000
31
0.0
0
LINE
5
459
100
AcDbEntity
8
0-0
6
CONTINUOUS
62
4
100
AcDbLine
10
1966.080000000000
20
546.430000000000
30
0.0
11
1966.080000000000
21
550.470000000000
31
0.0
0
LINE
5
45a
100
AcDbEntity
8
0-0
6
CONTINUOUS
62
4
100
AcDbLine
10
2116.080000000000
20
546.430000000000
30
0.0
11
2116.080000000000
21
550.470000000000
31
0.0
0
LINE
5
45b
100
AcDbEntity
8
0-0
6
CONTINUOUS
62
4
100
AcDbLine
10
2191.080000000000
20
546.430000000000
30
0.0
11
2191.080000000000
21
551.430000000000
31
0.0
0
TEXT
5
45c
100
AcDbEntity
8
0-0
62
7
100
AcDbText
10
2108.684
20
1126.834
30
0.0
40
8.660
1
20
41
1.053
50
0.000
100
AcDbText
0
TEXT
5
45d
100
AcDbEntity
8
0-0
62
7
100
AcDbText
10
1809.089
20
1126.812
30
0.0
40
8.660
1
10
41
1.053
50
0.000
100
AcDbText
0
TEXT
5
45e
100
AcDbEntity
8
0-0
62
7
100
AcDbText
10
2307.626
20
1126.769
30
0.0
40
8.660
1
40 cm
41
1.053
50
0.000
100
AcDbText
0
TEXT
5
45f
100
AcDbEntity
8
0-0
62
7
100
AcDbText
10
2008.907
20
1126.843
30
0.0
40
8.660
1
10
41
1.053
50
0.000
100
AcDbText
0
TEXT
5
460
100
AcDbEntity
8
0-0
62
7
100
AcDbText
10
1911.116
20
1126.782
30
0.0
40
8.660
1
0
41
1.053
50
0.000
100
AcDbText
0
TEXT
5
461
100
AcDbEntity
8
0-0
62
7
100
AcDbText
10
2208.234
20
1127.022
30
0.0
40
8.660
1
30
41
1.053
50
0.000
100
AcDbText
0
TEXT
5
462
100
AcDbEntity
8
0-0
62
3
100
AcDbText
10
2020.561
20
1158.629
30
0.0
40
15.156
1
Scale　1/5
41
1.053
50
0.000
100
AcDbText
0
TEXT
5
463
100
AcDbEntity
8
0-0
62
6
100
AcDbText
10
745.738
20
2026.797
30
0.0
40
25.981
1
Scale　1/5　参考データ
41
1.140
50
0.000
100
AcDbText
0
TEXT
5
464
100
AcDbEntity
8
0-0
62
7
100
AcDbText
10
2118.581
20
851.584
30
0.0
40
8.660
1
200
41
1.053
50
0.000
100
AcDbText
0
TEXT
5
465
100
AcDbEntity
8
0-0
62
7
100
AcDbText
10
1818.760
20
851.584
30
0.0
40
8.660
1
100
41
1.053
50
0.000
100
AcDbText
0
TEXT
5
466
100
AcDbEntity
8
0-0
62
7
100
AcDbText
10
2315.492
20
851.584
30
0.0
40
8.660
1
400 mm
41
1.053
50
0.000
100
AcDbText
0
TEXT
5
467
100
AcDbEntity
8
0-0
62
7
100
AcDbText
10
2018.911
20
851.584
30
0.0
40
8.660
1
100
41
1.053
50
0.000
100
AcDbText
0
TEXT
5
468
100
AcDbEntity
8
0-0
62
7
100
AcDbText
10
1923.065
20
851.529
30
0.0
40
8.660
1
0
41
1.053
50
0.000
100
AcDbText
0
TEXT
5
469
100
AcDbEntity
8
0-0
62
7
100
AcDbText
10
2219.062
20
851.584
30
0.0
40
8.660
1
300
41
1.053
50
0.000
100
AcDbText
0
TEXT
5
46a
100
AcDbEntity
8
0-0
62
3
100
AcDbText
10
2031.279
20
882.887
30
0.0
40
15.156
1
Scale　1/5
41
1.053
50
0.000
100
AcDbText
0
TEXT
5
46b
100
AcDbEntity
8
0-0
62
7
100
AcDbText
10
2036.196
20
556.353
30
0.0
40
8.660
1
5
41
1.053
50
0.000
100
AcDbText
0
TEXT
5
46c
100
AcDbEntity
8
0-0
62
7
100
AcDbText
10
2083.456
20
556.353
30
0.0
40
8.660
1
10
41
1.053
50
0.000
100
AcDbText
0
TEXT
5
46d
100
AcDbEntity
8
0-0
62
7
100
AcDbText
10
2182.391
20
556.353
30
0.0
40
8.660
1
20 cm
41
1.053
50
0.000
100
AcDbText
0
TEXT
5
46e
100
AcDbEntity
8
0-0
62
7
100
AcDbText
10
2133.807
20
556.353
30
0.0
40
8.660
1
15
41
1.053
50
0.000
100
AcDbText
0
TEXT
5
46f
100
AcDbEntity
8
0-0
62
7
100
AcDbText
10
1936.819
20
556.353
30
0.0
40
8.660
1
5
41
1.053
50
0.000
100
AcDbText
0
TEXT
5
470
100
AcDbEntity
8
0-0
62
7
100
AcDbText
10
1989.045
20
556.606
30
0.0
40
8.660
1
0
41
1.053
50
0.000
100
AcDbText
0
ENDSEC
 0
SECTION
  2
OBJECTS
 0
DICTIONARY
  5
C
100
AcDbDictionary
  3
ACAD_GROUP
350
D
  3
ACAD_MLINESTYLE
350
E
 0
DICTIONARY
  5
D
100
AcDbDictionary
 0
DICTIONARY
  5
E
100
AcDbDictionary
  3
STANDARD
350
13
0
MLINESTYLE
  5
13
100
AcDbMlineStyle
  2
STANDARD
 70
    0
3

62
256
51
90.0
52
90.0
71
0
0
ENDSEC
0
EOF
