  0
SECTION
  2
HEADER
  9
$EXTMIN
 10
0
 20
0
  9
$EXTMAX
 10
148500
 20
105000
  0
ENDSEC
  0
SECTION
  2
TABLES
  0
TABLE
  2
LTYPE
 70
     6
  0
LTYPE
  2
CONTINUOUS
 70
    64
  3
CONTINUOUS
 72
    65
 73
     0
 40
0.0
  0
LTYPE
  2
DASHED1
 70
    64
  3
DASHED1
 72
    65
 73
     2
 40
2.5
 49
1.250
 49
-1.25
  0
LTYPE
  2
DASHED2
 70
    64
  3
DASHED2
 72
    65
 73
     2
 40
5.0
 49
3.750
 49
-1.25
  0
LTYPE
  2
DASHED2
 70
    64
  3
DASHED2
 72
    65
 73
     4
 40
10.0
 49
6.250
 49
-1.25
 49
1.25
 49
-1.25
  0
LTYPE
  2
CENTER
 70
    64
  3
CENTER
 72
    65
 73
     6
 40
10.0
 49
3.250
 49
-1.25
 49
1.25
 49
-1.25
 49
1.25
 49
-1.25
  0
LTYPE
  2
CENTER
 70
    64
  3
CENTER
 72
    65
 73
     2
 40
2.5
 49
0.625
 49
-1.875
  0
ENDTAB
  0
TABLE
  2
STYLE
 70
     1
  0
STYLE
  2
STANDARD
 70
    64
 40
0.0
 41
1.0
 42
0.0
 50
0.0
 71
     0
  3
TXT
  4
BIGFONT
  0
ENDTAB
  0
TABLE
  2
LAYER
 70
   256
  0
LAYER
  2
LAY0_0
 70
   64
 62
    7
  6
CONTINUOUS
  0
ENDTAB
  0
ENDSEC
  0
SECTION
  2
ENTITIES
  0
POINT
  8
LAY0_0
 62
2
 10
98711.1206054687
 20
64325.2563476563
  0
POINT
  8
LAY0_0
 62
2
 10
42829.8873901367
 20
38203.3233642578
  0
POINT
  8
LAY0_0
 62
2
 10
129170.486450195
 20
69269.6228027344
  0
POINT
  8
LAY0_0
 62
2
 10
119542.297363281
 20
70401.0772705078
  0
POINT
  8
LAY0_0
 62
2
 10
31490.7302856445
 20
29752.0599365234
  0
POINT
  8
LAY0_0
 62
2
 10
41385.9329223633
 20
28308.10546875
  0
POINT
  8
LAY0_0
 62
2
 10
44273.8342285156
 20
48098.4802246094
  0
POINT
  8
LAY0_0
 62
2
 10
32934.684753418
 20
39647.2778320313
  0
POINT
  8
LAY0_0
 62
2
 10
123380.523681641
 20
86876.0528564453
  0
POINT
  8
LAY0_0
 62
2
 10
100831.970214844
 20
45937.9425048828
  0
POINT
  8
LAY0_0
 62
2
 10
88698.7609863281
 20
31002.2125244141
  0
POINT
  8
LAY0_0
 62
2
 10
43598.4497070313
 20
12437.2253417969
  0
POINT
  8
LAY0_0
 62
2
 10
90703.7506103516
 20
68991.2872314453
  0
POINT
  8
LAY0_0
 62
2
 10
111635.940551758
 20
64982.0709228516
  0
POINT
  8
LAY0_0
 62
2
 10
105425.750732422
 20
56855.6823730469
  0
POINT
  8
LAY0_0
 62
2
 10
81118.8201904297
 20
71828.9337158203
  0
POINT
  8
LAY0_0
 62
2
 10
75880.7678222656
 20
41945.4345703125
  0
POINT
  8
LAY0_0
 62
2
 10
68277.3132324219
 20
48440.6127929687
  0
POINT
  8
LAY0_0
 62
2
 10
83484.2224121094
 20
35450.2258300781
  0
POINT
  8
LAY0_0
 62
2
 10
79522.4456787109
 20
62339.4165039063
  0
POINT
  8
LAY0_0
 62
2
 10
71698.8830566406
 20
45775.0854492188
  0
POINT
  8
LAY0_0
 62
2
 10
95369.8272705078
 20
50138.5498046875
  0
POINT
  8
LAY0_0
 62
2
 10
87446.1364746094
 20
56238.9831542969
  0
POINT
  8
LAY0_0
 62
2
 10
65365.6005859375
 20
38036.2548828125
  0
POINT
  8
LAY0_0
 62
2
 10
79522.4456787109
 20
62339.4165039063
  0
POINT
  8
LAY0_0
 62
2
 10
84366.0583496094
 20
61252.2583007812
  0
POINT
  8
LAY0_0
 62
2
 10
30046.7758178711
 20
19856.8572998047
  0
POINT
  8
LAY0_0
 62
2
 10
86320.9381103516
 20
48612.1826171875
  0
POINT
  8
LAY0_0
 62
2
 10
92507.4615478516
 20
56468.8415527344
  0
POINT
  8
LAY0_0
 62
2
 10
73947.8759765625
 20
32898.8952636719
  0
POINT
  8
LAY0_0
 62
2
 10
80134.3994140625
 20
40755.5541992188
  0
POINT
  8
LAY0_0
 62
2
 10
78032.1502685547
 20
53513.916015625
  0
POINT
  8
LAY0_0
 62
2
 10
124659.332275391
 20
29445.7702636719
  0
POINT
  8
LAY0_0
 62
2
 10
119067.520141602
 20
58920.0286865234
  0
POINT
  8
LAY0_0
 62
2
 10
126523.26965332
 20
19621.0174560547
  0
POINT
  8
LAY0_0
 62
2
 10
122795.394897461
 20
39270.5230712891
  0
POINT
  8
LAY0_0
 62
2
 10
138311.218261719
 20
65594.0399169922
  0
POINT
  8
LAY0_0
 62
2
 10
54739.2044067383
 20
61267.3797607422
  0
POINT
  8
LAY0_0
 62
2
 10
50049.6520996094
 20
87679.3212890625
  0
POINT
  8
LAY0_0
 62
2
 10
128974.334716797
 20
95691.8487548828
  0
POINT
  8
LAY0_0
 62
2
 10
95600.1434326172
 20
27080.8258056641
  0
POINT
  8
LAY0_0
 62
2
 10
35822.5860595703
 20
59437.6525878906
  0
POINT
  8
LAY0_0
 62
2
 10
69184.9365234375
 20
16045.2117919922
  0
POINT
  8
LAY0_0
 62
2
 10
97463.5925292969
 20
17255.9814453125
  0
POINT
  8
LAY0_0
 62
2
 10
95115.5090332031
 20
37805.1147460937
  0
POINT
  8
LAY0_0
 62
2
 10
60960.3500366211
 20
55050.3387451172
  0
POINT
  8
LAY0_0
 62
2
 10
122739.379882812
 20
76884.4604492188
  0
POINT
  8
LAY0_0
 62
2
 10
120931.457519531
 20
49095.2758789063
  0
POINT
  8
LAY0_0
 62
2
 10
45717.7886962891
 20
57993.6981201172
  0
POINT
  8
LAY0_0
 62
2
 10
78769.8822021484
 20
27366.6687011719
  0
POINT
  8
LAY0_0
 62
2
 10
37266.5405273438
 20
69332.8704833984
  0
POINT
  8
LAY0_0
 62
2
 10
47161.7431640625
 20
67888.916015625
  0
POINT
  8
LAY0_0
 62
2
 10
34378.6315917969
 20
49542.4346923828
  0
POINT
  8
LAY0_0
 62
2
 10
60212.1429443359
 20
22686.0656738281
  0
POINT
  8
LAY0_0
 62
2
 10
51834.2437744141
 20
17845.5810546875
  0
POINT
  8
LAY0_0
 62
2
 10
39941.9784545898
 20
18412.9028320313
  0
POINT
  8
LAY0_0
 62
2
 10
61866.828918457
 20
42609.6954345703
  0
POINT
  8
LAY0_0
 62
2
 10
63519.2565917969
 20
65698.3337402344
  0
POINT
  8
LAY0_0
 62
2
 10
69033.0505371094
 20
26674.3774414062
  0
POINT
  8
LAY0_0
 62
2
 10
61023.8876342773
 20
32759.1705322266
  0
POINT
  8
LAY0_0
 62
2
 10
38710.4949951172
 20
79228.0731201172
  0
POINT
  8
LAY0_0
 62
2
 10
48605.6976318359
 20
77784.1186523437
  0
POINT
  8
LAY0_0
 62
2
 10
71612.9608154297
 20
68444.580078125
  0
POINT
  8
LAY0_0
 62
2
 10
56858.1695556641
 20
51705.9478759766
  0
LINE
  8
LAY0_0
  6
CONTINUOUS
 62
5
 10
81550.9643554687
 20
30287.9638671875
 11
85995.9716796875
 21
31938.9953613281
  0
LINE
  8
LAY0_0
  6
CONTINUOUS
 62
3
 10
96282.9742431641
 20
44257.9650878906
 11
99076.9805908203
 21
49591.9799804687
  0
LINE
  8
LAY0_0
  6
CONTINUOUS
 62
3
 10
107017.395019531
 20
68144.0124511719
 11
103832.35168457
 21
72247.2534179688
  0
LINE
  8
LAY0_0
  6
DASHED2
 62
3
 10
57028.1219482422
 20
61794.7387695313
 11
57222.0001220703
 21
68284.9731445313
  0
LINE
  8
LAY0_0
  6
CONTINUOUS
 62
3
 10
124222.97668457
 20
77532.0129394531
 11
125746.963500977
 21
74102.9968261719
  0
LINE
  8
LAY0_0
  6
CONTINUOUS
 62
3
 10
94377.9754638672
 20
35748.9929199219
 11
90948.974609375
 21
32192.9626464844
  0
LINE
  8
LAY0_0
  6
CONTINUOUS
 62
3
 10
99076.9805908203
 20
49591.9799804687
 11
101031.753540039
 21
53681.15234375
  0
LINE
  8
LAY0_0
  6
CONTINUOUS
 62
3
 10
115332.962036133
 20
66228.9733886719
 11
119523.971557617
 21
68387.9699707031
  0
LINE
  8
LAY0_0
  6
CONTINUOUS
 62
3
 10
101235.977172852
 20
45781.982421875
 11
102505.966186523
 21
49210.9680175781
  0
LINE
  8
LAY0_0
  6
CONTINUOUS
 62
1
 10
127265.151977539
 20
71817.2302246094
 11
127370.071411133
 21
71759.0026855469
  0
LINE
  8
LAY0_0
  6
CONTINUOUS
 62
3
 10
127905.960083008
 20
68895.99609375
 11
128386.413574219
 21
71057.9528808594
  0
LINE
  8
LAY0_0
  6
CONTINUOUS
 62
5
 10
57657.3486328125
 20
62626.3122558594
 11
57655.8990478516
 21
62624.3286132813
  0
LINE
  8
LAY0_0
  6
CONTINUOUS
 62
1
 10
123112.503051758
 20
79513.2446289063
 11
123110.015869141
 21
78553.2531738281
  0
LINE
  8
LAY0_0
  6
CONTINUOUS
 62
1
 10
126063.186645508
 20
69136.962890625
 11
125223.175048828
 21
69136.962890625
  0
LINE
  8
LAY0_0
  6
CONTINUOUS
 62
1
 10
124859.786987305
 20
73175.5981445313
 11
125594.192504883
 21
72767.8527832031
  0
LINE
  8
LAY0_0
  6
CONTINUOUS
 62
1
 10
62270.3857421875
 20
22501.46484375
 11
62387.939453125
 21
22292.236328125
  0
LINE
  8
LAY0_0
  6
CONTINUOUS
 62
1
 10
127316.757202148
 20
68939.0258789063
 11
126962.219238281
 21
69001.6174316406
  0
LINE
  8
LAY0_0
  6
CONTINUOUS
 62
5
 10
55385.0555419922
 20
53882.6599121094
 11
62755.5084228516
 21
51641.2048339844
  0
LINE
  8
LAY0_0
  6
CONTINUOUS
 62
1
 10
136983.551025391
 20
71682.9681396484
 11
137441.116333008
 21
72071.0906982422
  0
LINE
  8
LAY0_0
  6
CONTINUOUS
 62
1
 10
136506.02722168
 20
71474.6246337891
 11
136360.473632812
 21
71646.2097167969
  0
LINE
  8
LAY0_0
  6
CONTINUOUS
 62
1
 10
134548.095703125
 20
70627.8991699219
 11
134622.695922852
 21
70635.6658935547
  0
LINE
  8
LAY0_0
  6
CONTINUOUS
 62
1
 10
134481.246948242
 20
70545.5474853516
 11
134705.047607422
 21
70568.8171386719
  0
LINE
  8
LAY0_0
  6
CONTINUOUS
 62
1
 10
134585.403442383
 20
70631.7901611328
 11
134562.133789062
 21
70855.5755615234
  0
LINE
  8
LAY0_0
  6
CONTINUOUS
 62
1
 10
135856.750488281
 20
70923.8891601562
 11
135913.955688477
 21
70972.412109375
  0
LINE
  8
LAY0_0
  6
CONTINUOUS
 62
1
 10
134302.505493164
 20
70451.5686035156
 11
134899.291992188
 21
70513.5955810547
  0
LINE
  8
LAY0_0
  6
CONTINUOUS
 62
1
 10
135848.068237305
 20
70818.1762695313
 11
136019.668579102
 21
70963.7298583984
  0
LINE
  8
LAY0_0
  6
CONTINUOUS
 62
3
 10
133038.360595703
 20
94681.5795898438
 11
128974.365234375
 21
93030.5786132813
  0
LINE
  8
LAY0_0
  6
CONTINUOUS
 62
3
 10
107839.950561523
 20
59625
 11
109744.979858398
 21
62545.9899902344
  0
LINE
  8
LAY0_0
  6
CONTINUOUS
 62
3
 10
115078.964233398
 20
67371.9787597656
 11
119142.959594727
 21
69276.9775390625
  0
LINE
  8
LAY0_0
  6
CONTINUOUS
 62
3
 10
94663.3911132813
 20
41234.5275878906
 11
96282.9742431641
 21
44257.9650878906
  0
LINE
  8
LAY0_0
  6
CONTINUOUS
 62
3
 10
60344.6884155273
 20
21557.2509765625
 11
64869.7357177734
 21
24099.4262695313
  0
LINE
  8
LAY0_0
  6
DASHED2
 62
3
 10
101031.753540039
 20
53681.15234375
 11
103216.445922852
 21
52195.2209472656
  0
LINE
  8
LAY0_0
  6
CONTINUOUS
 62
5
 10
78131.7749023437
 20
29411.4685058594
 11
81550.9643554687
 21
30287.9638671875
  0
LINE
  8
LAY0_0
  6
CONTINUOUS
 62
3
 10
131875.65612793
 20
70281.5399169922
 11
128388.01574707
 21
71056.5490722656
  0
LINE
  8
LAY0_0
  6
CONTINUOUS
 62
3
 10
88662.9638671875
 20
34097.9919433594
 11
92599.9603271484
 21
38669.9829101562
  0
LINE
  8
LAY0_0
  6
CONTINUOUS
 62
5
 10
70351.3793945313
 20
29120.8801269531
 11
70318.7561035156
 21
27600.341796875
  0
LINE
  8
LAY0_0
  6
CONTINUOUS
 62
1
 10
49892.0440673828
 20
15420.5932617188
 11
50015.9378051758
 21
15215.0573730469
  0
LINE
  8
LAY0_0
  6
CONTINUOUS
 62
1
 10
48222.9461669922
 20
14414.55078125
 11
48120.1705932617
 21
14352.6000976563
  0
LINE
  8
LAY0_0
  6
CONTINUOUS
 62
3
 10
85995.9716796875
 20
31938.9953613281
 11
88662.9638671875
 21
34097.9919433594
  0
LINE
  8
LAY0_0
  6
CONTINUOUS
 62
5
 10
70318.7561035156
 20
27600.341796875
 11
68788.1774902344
 21
27633.1787109375
  0
LINE
  8
LAY0_0
  6
CONTINUOUS
 62
1
 10
124055.557250977
 20
75845.9167480469
 11
124656.097412109
 21
76067.1691894531
  0
LINE
  8
LAY0_0
  6
CONTINUOUS
 62
1
 10
44308.6700439453
 20
11605.2856445313
 11
44217.5598144531
 21
11527.1911621094
  0
LINE
  8
LAY0_0
  6
CONTINUOUS
 62
5
 10
59994.3771362305
 20
62675.78125
 11
60046.9055175781
 21
60388.0920410156
  0
LINE
  8
LAY0_0
  6
CONTINUOUS
 62
5
 10
60006.0577392578
 20
63234.8327636719
 11
59994.3771362305
 21
62675.78125
  0
LINE
  8
LAY0_0
  6
CONTINUOUS
 62
3
 10
102540.740966797
 20
64669.1284179688
 11
99355.6976318359
 21
68772.3999023437
  0
LINE
  8
LAY0_0
  6
CONTINUOUS
 62
1
 10
46733.9630126953
 20
13587.158203125
 11
46425.6362915039
 21
13401.3061523437
  0
LINE
  8
LAY0_0
  6
CONTINUOUS
 62
1
 10
127129.043579102
 20
68911.2243652344
 11
127087.356567383
 21
68674.8962402344
  0
LINE
  8
LAY0_0
  6
CONTINUOUS
 62
1
 10
125930.191040039
 20
72558.4411621094
 11
126559.661865234
 21
72208.9233398438
  0
LINE
  8
LAY0_0
  6
CONTINUOUS
 62
3
 10
119142.959594727
 20
69276.9775390625
 11
125746.963500977
 21
69276.9775390625
  0
LINE
  8
LAY0_0
  6
CONTINUOUS
 62
3
 10
103832.35168457
 20
72247.2534179688
 11
99355.6976318359
 21
68772.3999023437
  0
LINE
  8
LAY0_0
  6
CONTINUOUS
 62
1
 10
64470.1843261719
 20
23806.1218261719
 11
64156.3262939453
 21
23629.8217773438
  0
LINE
  8
LAY0_0
  6
CONTINUOUS
 62
5
 10
72250.8697509766
 20
27660.5224609375
 11
72279.1442871094
 21
28978.1188964844
  0
LINE
  8
LAY0_0
  6
CONTINUOUS
 62
1
 10
124359.664916992
 20
74557.6477050781
 11
124691.543579102
 21
73656.8298339844
  0
LINE
  8
LAY0_0
  6
CONTINUOUS
 62
1
 10
127131.118774414
 20
71823.0285644531
 11
127445.846557617
 21
71648.2849121094
  0
LINE
  8
LAY0_0
  6
CONTINUOUS
 62
3
 10
113554.977416992
 20
65847.9919433594
 11
115078.964233398
 21
67371.9787597656
  0
LINE
  8
LAY0_0
  6
CONTINUOUS
 62
1
 10
48171.5545654297
 20
14383.5754394531
 11
48295.4483032227
 21
14178.0395507813
  0
LINE
  8
LAY0_0
  6
CONTINUOUS
 62
1
 10
45418.6553955078
 20
12635.7421875
 11
45145.3247070313
 21
12401.4587402344
  0
LINE
  8
LAY0_0
  6
CONTINUOUS
 62
1
 10
125294.937133789
 20
73094.1467285156
 11
125566.772460938
 21
73583.740234375
  0
LINE
  8
LAY0_0
  6
CONTINUOUS
 62
1
 10
126303.176879883
 20
72488.5864257812
 11
126536.178588867
 21
72908.2641601562
  0
LINE
  8
LAY0_0
  6
CONTINUOUS
 62
1
 10
54008.9797973633
 20
17748.0773925781
 11
54132.453918457
 21
17542.2973632813
  0
LINE
  8
LAY0_0
  6
CONTINUOUS
 62
1
 10
108314.041137695
 20
59985.7788085938
 11
108649.09362793
 21
59767.2729492188
  0
LINE
  8
LAY0_0
  6
CONTINUOUS
 62
5
 10
57657.3486328125
 20
62626.3122558594
 11
60006.0577392578
 21
63234.8327636719
  0
LINE
  8
LAY0_0
  6
CONTINUOUS
 62
1
 10
125783.187866211
 20
68996.9787597656
 11
125503.173828125
 21
68996.9787597656
  0
LINE
  8
LAY0_0
  6
CONTINUOUS
 62
1
 10
54060.432434082
 20
17778.9611816406
 11
53957.5271606445
 21
17717.2241210938
  0
LINE
  8
LAY0_0
  6
CONTINUOUS
 62
1
 10
105592.880249023
 20
55979.8889160156
 11
105527.084350586
 21
55879.5471191406
  0
LINE
  8
LAY0_0
  6
CONTINUOUS
 62
1
 10
124016.43371582
 20
68996.9787597656
 11
123736.434936523
 21
68996.9787597656
  0
LINE
  8
LAY0_0
  6
CONTINUOUS
 62
1
 10
125172.53112793
 20
73162.0788574219
 11
125417.343139648
 21
73026.1840820312
  0
LINE
  8
LAY0_0
  6
CONTINUOUS
 62
1
 10
43298.4390258789
 20
10739.3798828125
 11
43454.6279907227
 21
10557.1594238281
  0
LINE
  8
LAY0_0
  6
CONTINUOUS
 62
3
 10
104685.241699219
 20
54396.484375
 11
103195.724487305
 21
52206.4819335937
  0
LINE
  8
LAY0_0
  6
CONTINUOUS
 62
1
 10
110835.9375
 20
63120.9716796875
 11
111202.697753906
 21
62697.7844238281
  0
LINE
  8
LAY0_0
  6
CONTINUOUS
 62
5
 10
102514.282226562
 20
55866.8212890625
 11
102682.479858398
 21
55865.72265625
  0
LINE
  8
LAY0_0
  6
CONTINUOUS
 62
3
 10
26300.6362915039
 20
45071.533203125
 11
26176.8417358398
 21
45841.8579101562
  0
LINE
  8
LAY0_0
  6
CONTINUOUS
 62
3
 10
27313.4307861328
 20
86290.1458740234
 11
27194.9615478516
 21
85342.8344726563
  0
LINE
  8
LAY0_0
  6
CONTINUOUS
 62
3
 10
26948.9669799805
 20
77688.6901855469
 11
27046.6079711914
 21
79500.2136230469
  0
LINE
  8
LAY0_0
  6
CONTINUOUS
 62
3
 10
26967.7124023438
 20
84093.8262939453
 11
26978.02734375
 21
83503.2958984375
  0
LINE
  8
LAY0_0
  6
CONTINUOUS
 62
3
 10
27194.9615478516
 20
85342.8344726563
 11
26967.7124023438
 21
84093.8262939453
  0
LINE
  8
LAY0_0
  6
CONTINUOUS
 62
3
 10
26733.024597168
 20
75536.8804931641
 11
26836.6012573242
 21
76794.0216064453
  0
LINE
  8
LAY0_0
  6
CONTINUOUS
 62
3
 10
26948.9669799805
 20
77688.6901855469
 11
26834.4192504883
 21
76773.0255126953
  0
LINE
  8
LAY0_0
  6
CONTINUOUS
 62
3
 10
26733.024597168
 20
75536.8804931641
 11
26764.2211914062
 21
73749.267578125
  0
LINE
  8
LAY0_0
  6
CONTINUOUS
 62
1
 10
135040.344238281
 20
65971.7102050781
 11
134516.92199707
 21
66264.9993896484
  0
LINE
  8
LAY0_0
  6
CONTINUOUS
 62
3
 10
26978.02734375
 20
83503.2958984375
 11
27047.2564697266
 21
79535.8581542969
  0
LINE
  8
LAY0_0
  6
CONTINUOUS
 62
1
 10
134840.118408203
 20
65997.9248046875
 11
134643.829345703
 21
66107.91015625
  0
LINE
  8
LAY0_0
  6
CONTINUOUS
 62
1
 10
133699.203491211
 20
66550.0793457031
 11
133634.017944336
 21
66587.1887207031
  0
LINE
  8
LAY0_0
  6
CONTINUOUS
 62
1
 10
133801.483154297
 20
66578.1402587891
 11
133605.941772461
 21
66689.4683837891
  0
LINE
  8
LAY0_0
  6
CONTINUOUS
 62
1
 10
137086.700439453
 20
71967.1630859375
 11
137143.905639648
 21
72015.6860351562
  0
LINE
  8
LAY0_0
  6
CONTINUOUS
 62
1
 10
136760.528564453
 20
64878.5552978516
 11
136534.50012207
 21
64489.4409179688
  0
LINE
  8
LAY0_0
  6
CONTINUOUS
 62
1
 10
137078.018188477
 20
71861.4501953125
 11
137249.618530273
 21
72007.0037841797
  0
LINE
  8
LAY0_0
  6
CONTINUOUS
 62
1
 10
134705.307006836
 20
65987.4877929688
 11
134595.321655273
 21
65791.1987304687
  0
LINE
  8
LAY0_0
  6
CONTINUOUS
 62
1
 10
134001.525878906
 20
66550.5523681641
 11
133480.102539062
 21
66847.412109375
  0
LINE
  8
LAY0_0
  6
CONTINUOUS
 62
1
 10
135045.135498047
 20
70528.7628173828
 11
135641.92199707
 21
70590.7897949219
  0
LINE
  8
LAY0_0
  6
CONTINUOUS
 62
1
 10
135985.168457031
 20
65442.3217773437
 11
135461.74621582
 21
65735.6109619141
  0
LINE
  8
LAY0_0
  6
CONTINUOUS
 62
1
 10
140490.173339844
 20
62884.0942382813
 11
140295.852661133
 21
62997.5280761719
  0
LINE
  8
LAY0_0
  6
CONTINUOUS
 62
1
 10
139246.673583984
 20
63607.91015625
 11
139052.108764648
 21
63720.9167480469
  0
LINE
  8
LAY0_0
  6
CONTINUOUS
 62
1
 10
139484.161376953
 20
63643.4478759766
 11
138965.33203125
 21
63944.8089599609
  0
LINE
  8
LAY0_0
  6
CONTINUOUS
 62
1
 10
139074.05090332
 20
63534.7137451172
 11
138848.022460938
 21
63145.5993652344
  0
LINE
  8
LAY0_0
  6
CONTINUOUS
 62
3
 10
37952.6290893555
 20
49884.9792480469
 11
38086.4105224609
 21
50801.7730712891
  0
LINE
  8
LAY0_0
  6
CONTINUOUS
 62
1
 10
140317.398071289
 20
62811.2640380859
 11
140090.545654297
 21
62422.6379394531
  0
LINE
  8
LAY0_0
  6
CONTINUOUS
 62
1
 10
140727.722167969
 20
62919.1284179688
 11
140209.548950195
 21
63221.6033935547
  0
LINE
  8
LAY0_0
  6
CONTINUOUS
 62
1
 10
138094.757080078
 20
64277.0233154297
 11
137900.192260742
 21
64390.0299072266
  0
LINE
  8
LAY0_0
  6
CONTINUOUS
 62
1
 10
135650.131225586
 20
65458.0993652344
 11
135540.145874023
 21
65261.8103027344
  0
LINE
  8
LAY0_0
  6
CONTINUOUS
 62
1
 10
137170.639038086
 20
64987.2894287109
 11
136651.809692383
 21
65288.6505126953
  0
LINE
  8
LAY0_0
  6
CONTINUOUS
 62
1
 10
139106.491088867
 20
63515.869140625
 11
139041.625976562
 21
63553.5430908203
  0
LINE
  8
LAY0_0
  6
CONTINUOUS
 62
1
 10
134738.037109375
 20
65969.1619873047
 11
134672.592163086
 21
66005.8288574219
  0
LINE
  8
LAY0_0
  6
CONTINUOUS
 62
1
 10
133666.610717773
 20
66568.6340332031
 11
133555.282592773
 21
66373.0926513672
  0
LINE
  8
LAY0_0
  6
CONTINUOUS
 62
1
 10
140349.792480469
 20
62792.3583984375
 11
140285.003662109
 21
62830.1849365234
  0
LINE
  8
LAY0_0
  6
CONTINUOUS
 62
1
 10
135784.942626953
 20
65468.5363769531
 11
135588.653564453
 21
65578.5217285156
  0
LINE
  8
LAY0_0
  6
CONTINUOUS
 62
1
 10
136792.96875
 20
64859.7106933594
 11
136728.103637695
 21
64897.3846435547
  0
LINE
  8
LAY0_0
  6
CONTINUOUS
 62
3
 10
27313.4307861328
 20
86290.1458740234
 11
27283.7600708008
 21
87989.2883300781
  0
LINE
  8
LAY0_0
  6
CONTINUOUS
 62
3
 10
26812.8890991211
 20
86316.8029785156
 11
26783.8363647461
 21
87980.5603027344
  0
LINE
  8
LAY0_0
  6
CONTINUOUS
 62
3
 10
128466.369628906
 20
94427.5817871094
 11
132843.536376953
 21
96154.7546386719
  0
LINE
  8
LAY0_0
  6
CONTINUOUS
 62
3
 10
122952.95715332
 20
79690.9790039063
 11
123386.367797852
 21
84648.5900878906
  0
LINE
  8
LAY0_0
  6
CONTINUOUS
 62
3
 10
124783.37097168
 20
87823.5473632813
 11
125291.366577148
 21
89220.5505371094
  0
LINE
  8
LAY0_0
  6
CONTINUOUS
 62
3
 10
134619.247436523
 20
96424.2248535156
 11
136904.083251953
 21
96571.1975097656
  0
LINE
  8
LAY0_0
  6
CONTINUOUS
 62
3
 10
26300.6362915039
 20
45071.533203125
 11
26383.3999633789
 21
40330.6884765625
  0
LINE
  8
LAY0_0
  6
CONTINUOUS
 62
3
 10
25152.2827148438
 20
54787.8112792969
 11
25410.0952148438
 21
52786.3616943359
  0
LINE
  8
LAY0_0
  6
CONTINUOUS
 62
3
 10
132843.536376953
 20
96154.7546386719
 11
134619.247436523
 21
96424.2248535156
  0
LINE
  8
LAY0_0
  6
CONTINUOUS
 62
3
 10
123386.367797852
 20
84648.5900878906
 11
123767.364501953
 21
86172.5769042969
  0
LINE
  8
LAY0_0
  6
CONTINUOUS
 62
3
 10
135197.372436523
 20
94808.5632324219
 11
133038.360595703
 21
94681.5795898438
  0
LINE
  8
LAY0_0
  6
CONTINUOUS
 62
1
 10
136374.267578125
 20
71166.1682128906
 11
136831.832885742
 21
71554.2907714844
  0
LINE
  8
LAY0_0
  6
CONTINUOUS
 62
1
 10
135885.360717773
 20
70948.1506347656
 11
135739.807128906
 21
71119.7357177734
  0
LINE
  8
LAY0_0
  6
CONTINUOUS
 62
3
 10
137864.364624023
 20
95062.5915527344
 11
135197.372436523
 21
94808.5632324219
  0
LINE
  8
LAY0_0
  6
CONTINUOUS
 62
1
 10
136477.416992188
 20
71450.3631591797
 11
136534.622192383
 21
71498.8861083984
  0
LINE
  8
LAY0_0
  6
CONTINUOUS
 62
1
 10
136468.734741211
 20
71344.6502685547
 11
136640.335083008
 21
71490.2038574219
  0
LINE
  8
LAY0_0
  6
CONTINUOUS
 62
1
 10
135753.601074219
 20
70639.6942138672
 11
136211.166381836
 21
71027.8167724609
  0
LINE
  8
LAY0_0
  6
CONTINUOUS
 62
3
 10
126688.354492187
 20
92395.5688476563
 11
128466.369628906
 21
94427.5817871094
  0
LINE
  8
LAY0_0
  6
CONTINUOUS
 62
1
 10
135328.033447266
 20
70708.984375
 11
135304.763793945
 21
70932.7697753906
  0
LINE
  8
LAY0_0
  6
CONTINUOUS
 62
1
 10
135290.725708008
 20
70705.0933837891
 11
135365.325927734
 21
70712.8601074219
  0
LINE
  8
LAY0_0
  6
CONTINUOUS
 62
1
 10
135223.876953125
 20
70622.7416992188
 11
135447.677612305
 21
70646.0113525391
  0
LINE
  8
LAY0_0
  6
CONTINUOUS
 62
1
 10
137954.574584961
 20
64184.9822998047
 11
137889.709472656
 21
64222.65625
  0
LINE
  8
LAY0_0
  6
CONTINUOUS
 62
1
 10
135682.861328125
 20
65439.7735595703
 11
135617.416381836
 21
65476.4404296875
  0
LINE
  8
LAY0_0
  6
CONTINUOUS
 62
1
 10
136933.151245117
 20
64951.7517089844
 11
136738.586425781
 21
65064.7583007812
  0
LINE
  8
LAY0_0
  6
CONTINUOUS
 62
1
 10
137922.134399414
 20
64203.8269042969
 11
137696.105957031
 21
63814.7125244141
  0
LINE
  8
LAY0_0
  6
CONTINUOUS
 62
1
 10
138332.244873047
 20
64312.5610351562
 11
137813.415527344
 21
64613.9221191406
  0
LINE
  8
LAY0_0
  6
CONTINUOUS
 62
1
 10
137115.310668945
 20
71991.4245605469
 11
136969.757080078
 21
72163.0096435547
  0
LINE
  8
LAY0_0
  6
CONTINUOUS
 62
3
 10
128974.365234375
 20
93030.5786132813
 11
127831.359863281
 21
92141.5710449219
  0
LINE
  8
LAY0_0
  6
CONTINUOUS
 62
3
 10
124529.357910156
 20
84394.5617675781
 11
124222.97668457
 21
80072.021484375
  0
LINE
  8
LAY0_0
  6
CONTINUOUS
 62
3
 10
127831.359863281
 20
92141.5710449219
 11
124529.357910156
 21
84394.5617675781
  0
LINE
  8
LAY0_0
  6
CONTINUOUS
 62
3
 10
125291.366577148
 20
89220.5505371094
 11
126688.354492187
 21
92395.5688476563
  0
LINE
  8
LAY0_0
  6
CONTINUOUS
 62
1
 10
133374.755859375
 20
70445.9381103516
 11
133599.746704102
 21
70448.0895996094
  0
LINE
  8
LAY0_0
  6
CONTINUOUS
 62
1
 10
133449.035644531
 20
70521.6522216797
 11
133524.032592773
 21
70522.3693847656
  0
LINE
  8
LAY0_0
  6
CONTINUOUS
 62
1
 10
133486.526489258
 20
70522.0184326172
 11
133484.375
 21
70747.0092773437
  0
LINE
  8
LAY0_0
  6
CONTINUOUS
 62
1
 10
133187.98828125
 20
70369.140625
 11
133787.963867188
 21
70374.8931884766
  0
LINE
  8
LAY0_0
  6
DASHED2
 62
3
 10
57911.3998413086
 20
62692.138671875
 11
58076.9119262695
 21
68232.5744628906
  0
LINE
  8
LAY0_0
  6
CONTINUOUS
 62
3
 10
92599.9603271484
 20
38669.9829101562
 11
94663.3911132813
 21
41234.5275878906
  0
LINE
  8
LAY0_0
  6
CONTINUOUS
 62
1
 10
43396.0571289063
 20
10902.0690917969
 11
43122.7264404297
 21
10667.7856445312
  0
LINE
  8
LAY0_0
  6
CONTINUOUS
 62
3
 10
89297.9736328125
 20
30795.9899902344
 11
88535.9802246094
 21
30287.9638671875
  0
LINE
  8
LAY0_0
  6
CONTINUOUS
 62
3
 10
42803.7796020508
 20
10473.4497070312
 11
46006.9046020508
 21
13218.9636230469
  0
LINE
  8
LAY0_0
  6
CONTINUOUS
 62
1
 10
118704.711914062
 20
68762.3291015625
 11
118451.187133789
 21
68643.4631347656
  0
LINE
  8
LAY0_0
  6
CONTINUOUS
 62
1
 10
60297.4319458008
 20
21393.06640625
 11
60414.9856567383
 21
21183.837890625
  0
LINE
  8
LAY0_0
  6
CONTINUOUS
 62
1
 10
56365.8218383789
 20
19162.2009277344
 11
56262.9241943359
 21
19100.4638671875
  0
LINE
  8
LAY0_0
  6
CONTINUOUS
 62
1
 10
115909.622192383
 20
67452.1179199219
 11
115656.08215332
 21
67333.2824707031
  0
LINE
  8
LAY0_0
  6
CONTINUOUS
 62
3
 10
46006.9046020508
 20
13218.9636230469
 11
49718.4524536133
 21
15456.0852050781
  0
LINE
  8
LAY0_0
  6
CONTINUOUS
 62
5
 10
70301.5289306641
 20
29329.6203613281
 11
70351.3793945313
 21
29120.8801269531
  0
LINE
  8
LAY0_0
  6
CONTINUOUS
 62
1
 10
62397.9263305664
 20
22641.9372558594
 11
62084.0682983398
 21
22465.6066894531
  0
LINE
  8
LAY0_0
  6
CONTINUOUS
 62
1
 10
106821.868896484
 20
57853.8208007812
 11
106756.057739258
 21
57753.4790039063
  0
LINE
  8
LAY0_0
  6
CONTINUOUS
 62
3
 10
119523.971557617
 20
68387.9699707031
 11
126889.96887207
 21
68514.9841308594
  0
LINE
  8
LAY0_0
  6
CONTINUOUS
 62
1
 10
58278.6483764648
 20
20255.5541992187
 11
58174.0951538086
 21
20196.6552734375
  0
LINE
  8
LAY0_0
  6
CONTINUOUS
 62
3
 10
96536.9720458984
 20
38289.0014648438
 11
99965.9576416016
 21
43368.9575195313
  0
LINE
  8
LAY0_0
  6
CONTINUOUS
 62
1
 10
48294.7463989258
 20
14527.8930664062
 11
47986.4196777344
 21
14342.041015625
  0
LINE
  8
LAY0_0
  6
CONTINUOUS
 62
1
 10
106245.361328125
 20
56974.7619628906
 11
106446.060180664
 21
56843.1396484375
  0
LINE
  8
LAY0_0
  6
CONTINUOUS
 62
1
 10
125643.173217773
 20
68996.9787597656
 11
125643.173217773
 21
68436.9812011719
  0
LINE
  8
LAY0_0
  6
CONTINUOUS
 62
3
 10
122952.95715332
 20
79690.9790039063
 11
122948.287963867
 21
77883.4228515625
  0
LINE
  8
LAY0_0
  6
CONTINUOUS
 62
3
 10
125746.963500977
 20
69276.9775390625
 11
127905.960083008
 21
68895.99609375
  0
LINE
  8
LAY0_0
  6
CONTINUOUS
 62
3
 10
126889.96887207
 20
68514.9841308594
 11
127905.960083008
 21
68895.99609375
  0
LINE
  8
LAY0_0
  6
CONTINUOUS
 62
1
 10
106278.274536133
 20
57024.9328613281
 11
106212.463378906
 21
56924.5910644531
  0
LINE
  8
LAY0_0
  6
CONTINUOUS
 62
1
 10
117521.65222168
 20
68362.3657226563
 11
116761.06262207
 21
68005.8288574219
  0
LINE
  8
LAY0_0
  6
CONTINUOUS
 62
1
 10
107518.72253418
 20
58839.5385742188
 11
107786.758422852
 21
58664.7338867187
  0
LINE
  8
LAY0_0
  6
CONTINUOUS
 62
1
 10
106837.493896484
 20
57987.060546875
 11
106640.075683594
 21
57686.03515625
  0
LINE
  8
LAY0_0
  6
CONTINUOUS
 62
1
 10
109820.037841797
 20
62404.8156738281
 11
109361.175537109
 21
61701.2023925781
  0
LINE
  8
LAY0_0
  6
CONTINUOUS
 62
5
 10
55667.1142578125
 20
59923.1567382813
 11
57657.3486328125
 21
62626.3122558594
  0
LINE
  8
LAY0_0
  6
CONTINUOUS
 62
1
 10
124620.43762207
 20
74312.6831054687
 11
124731.063842773
 21
74012.4206542969
  0
LINE
  8
LAY0_0
  6
CONTINUOUS
 62
1
 10
112396.774291992
 20
64658.9660644531
 11
111762.008666992
 21
64108.8256835938
  0
LINE
  8
LAY0_0
  6
CONTINUOUS
 62
1
 10
49943.4356689453
 20
15451.5686035156
 11
49840.6600952148
 21
15389.6179199219
  0
LINE
  8
LAY0_0
  6
CONTINUOUS
 62
1
 10
124296.432495117
 20
69136.962890625
 11
123456.436157227
 21
69136.962890625
  0
LINE
  8
LAY0_0
  6
CONTINUOUS
 62
1
 10
106293.899536133
 20
57158.203125
 11
106096.481323242
 21
56857.1472167969
  0
LINE
  8
LAY0_0
  6
CONTINUOUS
 62
3
 10
109998.977661133
 20
61275.9704589844
 11
114570.96862793
 21
65466.9799804687
  0
LINE
  8
LAY0_0
  6
CONTINUOUS
 62
1
 10
54132.453918457
 20
17892.1508789062
 11
53823.7609863281
 21
17706.9091796875
  0
LINE
  8
LAY0_0
  6
CONTINUOUS
 62
1
 10
60424.9725341797
 20
21533.5388183594
 11
60111.1145019531
 21
21357.2082519531
  0
LINE
  8
LAY0_0
  6
CONTINUOUS
 62
3
 10
86503.9520263672
 20
28763.9770507813
 11
84598.9685058594
 21
28128.9672851562
  0
LINE
  8
LAY0_0
  6
CONTINUOUS
 62
1
 10
122021.377563477
 20
68996.9787597656
 11
122021.377563477
 21
68436.9812011719
  0
LINE
  8
LAY0_0
  6
CONTINUOUS
 62
3
 10
88535.9802246094
 20
30287.9638671875
 11
86503.9520263672
 21
28763.9770507813
  0
LINE
  8
LAY0_0
  6
CONTINUOUS
 62
3
 10
124730.972290039
 20
73087.0056152344
 11
128388.01574707
 21
71056.5490722656
  0
LINE
  8
LAY0_0
  6
CONTINUOUS
 62
3
 10
107017.395019531
 20
68144.0124511719
 11
102540.740966797
 21
64669.1284179688
  0
LINE
  8
LAY0_0
  6
CONTINUOUS
 62
3
 10
108347.97668457
 20
59116.9738769531
 11
109998.977661133
 21
61275.9704589844
  0
LINE
  8
LAY0_0
  6
CONTINUOUS
 62
3
 10
107839.950561523
 20
59625
 11
104491.363525391
 21
54519.1345214844
  0
LINE
  8
LAY0_0
  6
CONTINUOUS
 62
3
 10
103394.973754883
 20
51369.9951171875
 11
102505.966186523
 21
49210.9680175781
  0
LINE
  8
LAY0_0
  6
CONTINUOUS
 62
1
 10
112276.870727539
 20
64369.7814941406
 11
112065.277099609
 21
64186.4013671875
  0
LINE
  8
LAY0_0
  6
CONTINUOUS
 62
1
 10
111061.630249023
 20
63501.8310546875
 11
110426.864624023
 21
62951.6906738281
  0
LINE
  8
LAY0_0
  6
CONTINUOUS
 62
3
 10
90948.974609375
 20
32192.9626464844
 11
89297.9736328125
 21
30795.9899902344
  0
LINE
  8
LAY0_0
  6
CONTINUOUS
 62
1
 10
44263.1149291992
 20
11566.2536621094
 11
44419.303894043
 21
11384.033203125
  0
LINE
  8
LAY0_0
  6
CONTINUOUS
 62
3
 10
140114.212036133
 20
63450.927734375
 11
141023.895263672
 21
62919.9180603027
  0
LINE
  8
LAY0_0
  6
CONTINUOUS
 62
1
 10
114872.695922852
 20
66967.7124023437
 11
114278.717041016
 21
66373.7487792969
  0
LINE
  8
LAY0_0
  6
CONTINUOUS
 62
1
 10
109707.870483398
 20
61976.5319824219
 11
110176.92565918
 21
61670.6237792969
  0
LINE
  8
LAY0_0
  6
CONTINUOUS
 62
1
 10
113797.500610352
 20
65872.9248046875
 11
113162.719726562
 21
65322.7844238281
  0
LINE
  8
LAY0_0
  6
CONTINUOUS
 62
1
 10
118577.95715332
 20
68702.880859375
 11
118815.628051758
 21
68195.8312988281
  0
LINE
  8
LAY0_0
  6
CONTINUOUS
 62
3
 10
84598.9685058594
 20
28128.9672851562
 11
81931.9763183594
 21
27493.9880371094
  0
LINE
  8
LAY0_0
  6
CONTINUOUS
 62
1
 10
123876.449584961
 20
68996.9787597656
 11
123876.449584961
 21
68436.9812011719
  0
LINE
  8
LAY0_0
  6
CONTINUOUS
 62
1
 10
113677.597045898
 20
65583.740234375
 11
113465.98815918
 21
65400.3601074219
  0
LINE
  8
LAY0_0
  6
CONTINUOUS
 62
1
 10
51865.6845092773
 20
16529.541015625
 11
51983.6044311523
 21
16320.5261230469
  0
LINE
  8
LAY0_0
  6
CONTINUOUS
 62
1
 10
108394.165039062
 20
60291.6870117187
 11
108066.40625
 21
59789.1235351562
  0
LINE
  8
LAY0_0
  6
CONTINUOUS
 62
3
 10
49718.4524536133
 20
15456.0852050781
 11
53684.2269897461
 21
17693.1762695313
  0
LINE
  8
LAY0_0
  6
CONTINUOUS
 62
1
 10
113571.792602539
 20
65492.0654296875
 11
113938.552856445
 21
65068.8781738281
  0
LINE
  8
LAY0_0
  6
CONTINUOUS
 62
1
 10
114674.697875977
 20
66571.7468261719
 11
115070.678710938
 21
66175.7507324219
  0
LINE
  8
LAY0_0
  6
CONTINUOUS
 62
1
 10
109135.208129883
 20
61391.357421875
 11
108741.897583008
 21
60788.2995605469
  0
LINE
  8
LAY0_0
  6
CONTINUOUS
 62
1
 10
109039.077758789
 20
61024.2614746094
 11
109441.116333008
 21
60762.0544433594
  0
LINE
  8
LAY0_0
  6
CONTINUOUS
 62
6
 10
84365.4327392578
 20
61252.7770996094
 11
84366.0583496094
 21
61252.2583007812
  0
LINE
  8
LAY0_0
  6
CONTINUOUS
 62
1
 10
127317.611694336
 20
71788.1164550781
 11
127434.112548828
 21
71997.9248046875
  0
LINE
  8
LAY0_0
  6
CONTINUOUS
 62
3
 10
102511.688232422
 20
55860.3210449219
 11
101042.221069336
 21
53699.8291015625
  0
LINE
  8
LAY0_0
  6
CONTINUOUS
 62
1
 10
64342.6361083984
 20
23665.6494140625
 11
64460.1898193359
 21
23456.4208984375
  0
LINE
  8
LAY0_0
  6
CONTINUOUS
 62
5
 10
65134.3841552734
 20
23804.931640625
 11
65258.5906982422
 21
23844.3298339844
  0
LINE
  8
LAY0_0
  6
CONTINUOUS
 62
1
 10
120542.129516602
 20
69136.962890625
 11
119702.133178711
 21
69136.962890625
  0
LINE
  8
LAY0_0
  6
CONTINUOUS
 62
1
 10
112171.06628418
 20
64278.1066894531
 11
112537.826538086
 21
63854.9194335938
  0
LINE
  8
LAY0_0
  6
CONTINUOUS
 62
1
 10
107582.809448242
 20
59084.2590332031
 11
107320.602416992
 21
58682.1899414062
  0
LINE
  8
LAY0_0
  6
CONTINUOUS
 62
3
 10
53965.5227661133
 20
17310.5773925781
 11
60638.2904052734
 21
21235.7482910156
  0
LINE
  8
LAY0_0
  6
CONTINUOUS
 62
1
 10
51992.9809570313
 20
16670.2575683594
 11
51679.4281005859
 21
16493.3776855469
  0
LINE
  8
LAY0_0
  6
CONTINUOUS
 62
1
 10
45321.0372924805
 20
12473.0529785156
 11
45477.2262573242
 21
12290.8020019531
  0
LINE
  8
LAY0_0
  6
CONTINUOUS
 62
1
 10
43343.994140625
 20
10778.4423828125
 11
43252.8839111328
 21
10700.3479003906
  0
LINE
  8
LAY0_0
  6
CONTINUOUS
 62
3
 10
131875.65612793
 20
70281.5399169922
 11
131395.446777344
 21
68120.5444335938
  0
LINE
  8
LAY0_0
  6
CONTINUOUS
 62
3
 10
131395.446777344
 20
68120.5444335938
 11
133682.144165039
 21
66818.6950683594
  0
LINE
  8
LAY0_0
  6
CONTINUOUS
 62
1
 10
122441.360473633
 20
69136.962890625
 11
121601.364135742
 21
69136.962890625
  0
LINE
  8
LAY0_0
  6
CONTINUOUS
 62
1
 10
105559.982299805
 20
55929.7180175781
 11
105760.665893555
 21
55798.095703125
  0
LINE
  8
LAY0_0
  6
CONTINUOUS
 62
3
 10
125746.963500977
 20
74102.9968261719
 11
128388.01574707
 21
71056.5490722656
  0
LINE
  8
LAY0_0
  6
CONTINUOUS
 62
5
 10
68829.2541503906
 20
29153.7475585937
 11
68796.6918945313
 21
27634.2468261719
  0
LINE
  8
LAY0_0
  6
CONTINUOUS
 62
1
 10
62322.7005004883
 20
22530.8532714844
 11
62218.0786132813
 21
22472.0764160156
  0
LINE
  8
LAY0_0
  6
CONTINUOUS
 62
1
 10
123176.92565918
 20
77767.9443359375
 11
123508.804321289
 21
76867.1264648438
  0
LINE
  8
LAY0_0
  6
CONTINUOUS
 62
3
 10
109744.979858398
 20
62545.9899902344
 11
113554.977416992
 21
65847.9919433594
  0
LINE
  8
LAY0_0
  6
CONTINUOUS
 62
5
 10
77867.5842285156
 20
26571.7468261719
 11
81931.9763183594
 21
27493.9880371094
  0
LINE
  8
LAY0_0
  6
CONTINUOUS
 62
1
 10
118898.818969727
 20
69007.9040527344
 11
118138.229370117
 21
68651.3977050781
  0
LINE
  8
LAY0_0
  6
CONTINUOUS
 62
1
 10
120262.130737305
 20
68996.9787597656
 11
119982.131958008
 21
68996.9787597656
  0
LINE
  8
LAY0_0
  6
CONTINUOUS
 62
3
 10
124222.97668457
 20
80072.021484375
 11
124222.97668457
 21
77532.0129394531
  0
LINE
  8
LAY0_0
  6
CONTINUOUS
 62
1
 10
44360.7330322266
 20
11728.9428710938
 11
44087.40234375
 21
11494.6594238281
  0
LINE
  8
LAY0_0
  6
CONTINUOUS
 62
3
 10
43096.6262817383
 20
10182.9833984375
 11
46234.9395751953
 21
12862.0300292969
  0
LINE
  8
LAY0_0
  6
CONTINUOUS
 62
1
 10
110941.72668457
 20
63212.6770019531
 11
110730.14831543
 21
63029.2663574219
  0
LINE
  8
LAY0_0
  6
CONTINUOUS
 62
1
 10
122161.361694336
 20
68996.9787597656
 11
121881.362915039
 21
68996.9787597656
  0
LINE
  8
LAY0_0
  6
CONTINUOUS
 62
3
 10
104685.241699219
 20
54396.484375
 11
108347.97668457
 21
59116.9738769531
  0
LINE
  8
LAY0_0
  6
CONTINUOUS
 62
1
 10
127188.140869141
 20
68900.8178710937
 11
127069.976806641
 21
68921.6613769531
  0
LINE
  8
LAY0_0
  6
CONTINUOUS
 62
1
 10
123492.99621582
 20
77372.8637695313
 11
124093.536376953
 21
77594.1162109375
  0
LINE
  8
LAY0_0
  6
CONTINUOUS
 62
5
 10
70349.1973876953
 20
29019.5007324219
 11
72279.5104980469
 21
28978.1188964844
  0
LINE
  8
LAY0_0
  6
CONTINUOUS
 62
1
 10
109784.34753418
 20
62093.8110351562
 11
109631.393432617
 21
61859.2529296875
  0
LINE
  8
LAY0_0
  6
CONTINUOUS
 62
1
 10
126198.257446289
 20
72546.8444824219
 11
126408.096313477
 21
72430.3588867187
  0
LINE
  8
LAY0_0
  6
CONTINUOUS
 62
1
 10
46662.1627807617
 20
13473.8159179688
 11
46559.3872070313
 21
13411.865234375
  0
LINE
  8
LAY0_0
  6
CONTINUOUS
 62
1
 10
120122.116088867
 20
68996.9787597656
 11
120122.116088867
 21
68436.9812011719
  0
LINE
  8
LAY0_0
  6
CONTINUOUS
 62
3
 10
114570.96862793
 20
65466.9799804687
 11
115332.962036133
 21
66228.9733886719
  0
LINE
  8
LAY0_0
  6
CONTINUOUS
 62
1
 10
123271.682739258
 20
79192.8405761719
 11
123270.858764648
 21
78872.8332519531
  0
LINE
  8
LAY0_0
  6
CONTINUOUS
 62
5
 10
70322.2961425781
 20
27698.974609375
 11
72251.6937255859
 21
27657.5622558594
  0
LINE
  8
LAY0_0
  6
CONTINUOUS
 62
1
 10
109104.629516602
 20
61124.7863769531
 11
108973.526000977
 21
60923.7670898438
  0
LINE
  8
LAY0_0
  6
CONTINUOUS
 62
1
 10
123271.255493164
 20
79032.8369140625
 11
124118.133544922
 21
79030.6549072266
  0
LINE
  8
LAY0_0
  6
CONTINUOUS
 62
1
 10
46610.7711791992
 20
13442.8405761719
 11
46734.6649169922
 21
13237.2741699219
  0
LINE
  8
LAY0_0
  6
CONTINUOUS
 62
1
 10
45366.5924072266
 20
12512.0849609375
 11
45275.4821777344
 21
12433.9904785156
  0
LINE
  8
LAY0_0
  6
CONTINUOUS
 62
1
 10
116103.713989258
 20
67697.7233886719
 11
115343.124389648
 21
67341.1865234375
  0
LINE
  8
LAY0_0
  6
CONTINUOUS
 62
1
 10
51917.9458618164
 20
16559.0209960938
 11
51813.4231567383
 21
16500.0915527344
  0
LINE
  8
LAY0_0
  6
CONTINUOUS
 62
1
 10
117327.529907227
 20
68116.7602539063
 11
117073.989868164
 21
67997.9248046875
  0
LINE
  8
LAY0_0
  6
CONTINUOUS
 62
3
 10
60638.2904052734
 20
21235.7482910156
 11
65134.3841552734
 21
23804.931640625
  0
LINE
  8
LAY0_0
  6
CONTINUOUS
 62
3
 10
101235.977172852
 20
45781.982421875
 11
99965.9576416016
 21
43368.9575195313
  0
LINE
  8
LAY0_0
  6
CONTINUOUS
 62
1
 10
117200.759887695
 20
68057.3425292969
 11
117438.461303711
 21
67550.29296875
  0
LINE
  8
LAY0_0
  6
CONTINUOUS
 62
1
 10
123739.486694336
 20
76240.9973144531
 11
124071.365356445
 21
75340.1794433594
  0
LINE
  8
LAY0_0
  6
CONTINUOUS
 62
1
 10
107562.408447266
 20
58906.5246582031
 11
107475.021362305
 21
58772.5219726563
  0
LINE
  8
LAY0_0
  6
CONTINUOUS
 62
1
 10
58226.3717651367
 20
20226.1047363281
 11
58344.1696166992
 21
20016.9982910156
  0
LINE
  8
LAY0_0
  6
CONTINUOUS
 62
1
 10
58353.7445068359
 20
20366.7297363281
 11
58040.0924682617
 21
20190.0329589844
  0
LINE
  8
LAY0_0
  6
CONTINUOUS
 62
1
 10
105608.505249023
 20
56113.1591796875
 11
105411.087036133
 21
55812.1032714844
  0
LINE
  8
LAY0_0
  6
CONTINUOUS
 62
1
 10
56314.3692016602
 20
19131.3171386719
 11
56437.8509521484
 21
18925.5065917969
  0
LINE
  8
LAY0_0
  6
CONTINUOUS
 62
3
 10
131395.446777344
 20
68120.5444335938
 11
133747.985839844
 21
66101.9897460937
  0
LINE
  8
LAY0_0
  6
CONTINUOUS
 62
1
 10
64394.9432373047
 20
23695.0378417969
 11
64290.3289794922
 21
23636.2609863281
  0
LINE
  8
LAY0_0
  6
DASHED2
 62
3
 10
102514.282226562
 20
55866.8212890625
 11
104680.17578125
 21
54393.6767578125
  0
LINE
  8
LAY0_0
  6
CONTINUOUS
 62
1
 10
108368.667602539
 20
60069.5495605469
 11
108259.414672852
 21
59902.0385742188
  0
LINE
  8
LAY0_0
  6
CONTINUOUS
 62
1
 10
60349.7467041016
 20
21422.4548339844
 11
60245.1171875
 21
21363.6779785156
  0
LINE
  8
LAY0_0
  6
CONTINUOUS
 62
3
 10
49821.5789794922
 20
15038.0859375
 11
53965.5227661133
 21
17310.5773925781
  0
LINE
  8
LAY0_0
  6
CONTINUOUS
 62
1
 10
50015.2359008789
 20
15564.9108886719
 11
49706.9091796875
 21
15379.0588378906
  0
LINE
  8
LAY0_0
  6
CONTINUOUS
 62
5
 10
78131.7749023437
 20
29411.4685058594
 11
72592.5750732422
 21
29377.9296875
  0
LINE
  8
LAY0_0
  6
CONTINUOUS
 62
1
 10
123437.698364258
 20
77522.9797363281
 11
123548.324584961
 21
77222.7172851562
  0
LINE
  8
LAY0_0
  6
CONTINUOUS
 62
5
 10
55385.0555419922
 20
53882.6599121094
 11
55667.1142578125
 21
59923.1567382813
  0
LINE
  8
LAY0_0
  6
CONTINUOUS
 62
3
 10
96536.9720458984
 20
38289.0014648438
 11
94377.9754638672
 21
35748.9929199219
  0
LINE
  8
LAY0_0
  6
CONTINUOUS
 62
1
 10
56437.8509521484
 20
19275.390625
 11
56129.1580200195
 21
19090.1489257813
  0
LINE
  8
LAY0_0
  6
CONTINUOUS
 62
1
 10
115782.852172852
 20
67392.7001953125
 11
116020.538330078
 21
66885.6506347656
  0
LINE
  8
LAY0_0
  6
CONTINUOUS
 62
3
 10
53684.2269897461
 20
17693.1762695313
 11
56734.8175048828
 21
19523.5290527344
  0
LINE
  8
LAY0_0
  6
CONTINUOUS
 62
3
 10
65134.3841552734
 20
23804.931640625
 11
64869.7357177734
 21
24099.4262695313
  0
LINE
  8
LAY0_0
  6
CONTINUOUS
 62
3
 10
56734.8175048828
 20
19523.5290527344
 11
60344.6884155273
 21
21557.2509765625
  0
LINE
  8
LAY0_0
  6
CONTINUOUS
 62
3
 10
122952.95715332
 20
77912.9943847656
 11
124730.972290039
 21
73087.0056152344
  0
LINE
  8
LAY0_0
  6
CONTINUOUS
 62
1
 10
124675.735473633
 20
74162.5366210937
 11
125276.290893555
 21
74383.7890625
  0
LINE
  8
LAY0_0
  6
CONTINUOUS
 62
1
 10
124000.244140625
 20
75996.0327148438
 11
124110.870361328
 21
75695.7702636719
  0
LINE
  8
LAY0_0
  6
CONTINUOUS
 62
1
 10
114773.696899414
 20
66670.7458496094
 11
114575.698852539
 21
66472.7478027344
  0
LINE
  8
LAY0_0
  6
CONTINUOUS
 62
1
 10
106788.955688477
 20
57803.6499023437
 11
106989.639282227
 21
57672.0275878906
  0
LINE
  8
LAY0_0
  6
CONTINUOUS
 62
5
 10
70351.3793945313
 20
29120.8801269531
 11
68837.1429443359
 21
29153.3508300781
  0
LINE
  8
LAY0_0
  6
CONTINUOUS
 62
3
 10
103216.445922852
 20
52195.2209472656
 11
103394.973754883
 21
51369.9951171875
  0
LINE
  8
LAY0_0
  6
CONTINUOUS
 62
3
 10
46234.9395751953
 20
12862.0300292969
 11
49821.5789794922
 21
15038.0859375
  0
LINE
  8
LAY0_0
  6
CONTINUOUS
 62
3
 10
51085.4949951172
 20
39546.0510253906
 11
48609.7183227539
 21
39907.3181152344
  0
LINE
  8
LAY0_0
  6
CONTINUOUS
 62
3
 10
27393.7072753906
 20
53041.8701171875
 11
27097.541809082
 21
55341.064453125
  0
LINE
  8
LAY0_0
  6
CONTINUOUS
 62
3
 10
26949.4476318359
 20
56490.6616210937
 11
26752.2125244141
 21
60455.810546875
  0
LINE
  8
LAY0_0
  6
CONTINUOUS
 62
3
 10
42803.7796020508
 20
10473.4497070312
 11
40455.3604125977
 21
7051.57470703125
  0
LINE
  8
LAY0_0
  6
CONTINUOUS
 62
3
 10
27424.5147705078
 20
11748.5198974609
 11
26933.8607788086
 21
8418.45703125
  0
LINE
  8
LAY0_0
  6
CONTINUOUS
 62
3
 10
28005.2947998047
 20
24743.4539794922
 11
28380.4473876953
 21
30120.5902099609
  0
LINE
  8
LAY0_0
  6
CONTINUOUS
 62
3
 10
27692.1081542969
 20
50614.7155761719
 11
27541.7861938477
 21
51892.2729492188
  0
LINE
  8
LAY0_0
  6
CONTINUOUS
 62
3
 10
24955.8181762695
 20
56312.8814697266
 11
24758.0337524414
 21
60289.1082763672
  0
LINE
  8
LAY0_0
  6
CONTINUOUS
 62
3
 10
30412.3458862305
 20
11446.1517333984
 11
29901.8173217773
 21
7981.17065429688
  0
LINE
  8
LAY0_0
  6
CONTINUOUS
 62
3
 10
26020.9655761719
 20
46933.59375
 11
25861.7172241211
 21
48723.0224609375
  0
LINE
  8
LAY0_0
  6
CONTINUOUS
 62
3
 10
24262.7868652344
 20
73809.6771240234
 11
24178.3294677734
 21
72525.8026123047
  0
LINE
  8
LAY0_0
  6
CONTINUOUS
 62
3
 10
28517.3721313477
 20
36769.5617675781
 11
28390.3579711914
 21
34737.5793457031
  0
LINE
  8
LAY0_0
  6
CONTINUOUS
 62
3
 10
25863.7084960938
 20
67353.3630371094
 11
25973.8159179687
 21
68379.4555664062
  0
LINE
  8
LAY0_0
  6
CONTINUOUS
 62
3
 10
26450.6378173828
 20
77733.1848144531
 11
26547.3327636719
 21
79527.1301269531
  0
LINE
  8
LAY0_0
  6
CONTINUOUS
 62
3
 10
24180.9616088867
 20
64539.8406982422
 11
24032.7453613281
 21
65578.0181884766
  0
LINE
  8
LAY0_0
  6
CONTINUOUS
 62
3
 10
28030.3192138672
 20
13639.3890380859
 11
27922.4853515625
 21
11698.1353759766
  0
LINE
  8
LAY0_0
  6
CONTINUOUS
 62
3
 10
27882.3699951172
 20
30165.5883789063
 11
27501.3656616211
 21
24704.5593261719
  0
LINE
  8
LAY0_0
  6
CONTINUOUS
 62
3
 10
24180.9616088867
 20
64539.8406982422
 11
24333.3053588867
 21
63245.0103759766
  0
LINE
  8
LAY0_0
  6
CONTINUOUS
 62
3
 10
25163.5818481445
 20
54700.1037597656
 11
25113.9297485352
 21
55085.5560302734
  0
LINE
  8
LAY0_0
  6
CONTINUOUS
 62
3
 10
27541.7861938477
 20
51892.2729492188
 11
27393.7072753906
 21
53041.8701171875
  0
LINE
  8
LAY0_0
  6
CONTINUOUS
 62
3
 10
26338.2873535156
 20
76835.0830078125
 11
26450.6378173828
 21
77733.1848144531
  0
LINE
  8
LAY0_0
  6
CONTINUOUS
 62
3
 10
26314.6667480469
 20
63520.6604003906
 11
26164.3524169922
 21
64798.2482910156
  0
LINE
  8
LAY0_0
  6
CONTINUOUS
 62
3
 10
23852.9052734375
 20
67359.6649169922
 11
23977.8900146484
 21
68524.4445800781
  0
LINE
  8
LAY0_0
  6
CONTINUOUS
 62
3
 10
23852.9052734375
 20
67359.6649169922
 11
24032.7453613281
 21
65578.0181884766
  0
LINE
  8
LAY0_0
  6
CONTINUOUS
 62
3
 10
28154.2510986328
 20
46142.1203613281
 11
28008.3923339844
 21
47163.6962890625
  0
LINE
  8
LAY0_0
  6
CONTINUOUS
 62
3
 10
27703.2852172852
 20
49974.8229980469
 11
27692.1081542969
 21
50614.7155761719
  0
LINE
  8
LAY0_0
  6
CONTINUOUS
 62
3
 10
27097.541809082
 20
55341.064453125
 11
26949.4476318359
 21
56490.6616210937
  0
LINE
  8
LAY0_0
  6
CONTINUOUS
 62
3
 10
26162.7578735352
 20
72223.3276367187
 11
26263.9312744141
 21
73761.3220214844
  0
LINE
  8
LAY0_0
  6
CONTINUOUS
 62
3
 10
28297.8515625
 20
45248.4741210937
 11
28154.2510986328
 21
46142.1203613281
  0
LINE
  8
LAY0_0
  6
CONTINUOUS
 62
3
 10
25705.7647705078
 20
49815.3839111328
 11
25694.1528320313
 21
50480.1940917969
  0
LINE
  8
LAY0_0
  6
CONTINUOUS
 62
1
 10
69820.1370239258
 20
7918.62869262695
 11
69820.1370239258
 21
8725.75759887695
  0
LINE
  8
LAY0_0
  6
CONTINUOUS
 62
3
 10
26601.8981933594
 20
61733.3679199219
 11
26314.6667480469
 21
63520.6604003906
  0
LINE
  8
LAY0_0
  6
CONTINUOUS
 62
3
 10
133682.144165039
 20
66818.6950683594
 11
136086.364746094
 21
65471.5881347656
  0
LINE
  8
LAY0_0
  6
CONTINUOUS
 62
3
 10
24758.0337524414
 20
60289.1082763672
 11
24620.5368041992
 21
61457.7178955078
  0
LINE
  8
LAY0_0
  6
CONTINUOUS
 62
3
 10
26232.666015625
 20
75553.0700683594
 11
26338.2873535156
 21
76835.0830078125
  0
LINE
  8
LAY0_0
  6
CONTINUOUS
 62
3
 10
25890.0756835938
 20
30345.6726074219
 11
26021.6217041016
 21
31529.4494628906
  0
LINE
  8
LAY0_0
  6
CONTINUOUS
 62
3
 10
26164.3524169922
 20
64798.2482910156
 11
26018.5012817383
 21
65819.8547363281
  0
LINE
  8
LAY0_0
  6
CONTINUOUS
 62
3
 10
26752.2125244141
 20
60455.810546875
 11
26601.8981933594
 21
61733.3679199219
  0
LINE
  8
LAY0_0
  6
CONTINUOUS
 62
3
 10
26466.926574707
 20
84134.4604492188
 11
26700.5615234375
 21
85418.7316894531
  0
LINE
  8
LAY0_0
  6
CONTINUOUS
 62
3
 10
26018.5012817383
 20
65819.8547363281
 11
25863.7084960938
 21
67353.3630371094
  0
LINE
  8
LAY0_0
  6
CONTINUOUS
 62
3
 10
136086.364746094
 20
65471.5881347656
 11
136667.602539062
 21
65452.9418945313
  0
LINE
  8
LAY0_0
  6
CONTINUOUS
 62
3
 10
141420.364379883
 20
83251.5869140625
 11
141166.366577148
 21
82997.5891113281
  0
LINE
  8
LAY0_0
  6
CONTINUOUS
 62
3
 10
135734.313964844
 20
70524.9938964844
 11
133546.371459961
 21
70297.5769042969
  0
LINE
  8
LAY0_0
  6
CONTINUOUS
 62
3
 10
136667.602539062
 20
65452.9418945313
 11
140114.212036133
 21
63450.927734375
  0
LINE
  8
LAY0_0
  6
CONTINUOUS
 62
3
 10
25973.8159179687
 20
68379.4555664062
 11
26061.5997314453
 21
70685.3332519531
  0
LINE
  8
LAY0_0
  6
CONTINUOUS
 62
3
 10
24348.518371582
 20
77041.5191650391
 11
24457.3440551758
 21
77911.4379882813
  0
LINE
  8
LAY0_0
  6
CONTINUOUS
 62
3
 10
25694.1528320313
 20
50480.1940917969
 11
25556.770324707
 21
51647.6593017578
  0
LINE
  8
LAY0_0
  6
CONTINUOUS
 62
3
 10
25152.2827148438
 20
54787.8112792969
 11
24955.8181762695
 21
56312.8814697266
  0
LINE
  8
LAY0_0
  6
CONTINUOUS
 62
3
 10
25705.7647705078
 20
49815.3839111328
 11
25861.7172241211
 21
48723.0224609375
  0
LINE
  8
LAY0_0
  6
CONTINUOUS
 62
3
 10
24262.7868652344
 20
73809.6771240234
 11
24231.2240600586
 21
75617.9962158203
  0
LINE
  8
LAY0_0
  6
CONTINUOUS
 62
3
 10
23977.8900146484
 20
68524.4445800781
 11
24064.1021728516
 21
70789.0625
  0
LINE
  8
LAY0_0
  6
CONTINUOUS
 62
3
 10
24178.3294677734
 20
72525.8026123047
 11
24064.1021728516
 21
70789.0625
  0
LINE
  8
LAY0_0
  6
CONTINUOUS
 62
3
 10
24457.3440551758
 20
77911.4379882813
 11
24546.4172363281
 21
79564.0106201172
  0
LINE
  8
LAY0_0
  6
CONTINUOUS
 62
3
 10
24231.2240600586
 20
75617.9962158203
 11
24348.518371582
 21
77041.5191650391
  0
LINE
  8
LAY0_0
  6
CONTINUOUS
 62
3
 10
26700.5615234375
 20
85418.7316894531
 11
26812.8890991211
 21
86316.8029785156
  0
LINE
  8
LAY0_0
  6
CONTINUOUS
 62
3
 10
28542.5567626953
 20
20129.5928955078
 11
29431.5643310547
 21
16827.5909423828
  0
LINE
  8
LAY0_0
  6
CONTINUOUS
 62
3
 10
29918.6019897461
 20
16941.8792724609
 11
30544.1131591797
 21
13818.2983398438
  0
LINE
  8
LAY0_0
  6
CONTINUOUS
 62
3
 10
29914.3753051758
 20
11496.5515136719
 11
30041.3589477539
 21
13782.5622558594
  0
LINE
  8
LAY0_0
  6
CONTINUOUS
 62
3
 10
26020.9655761719
 20
46933.59375
 11
26176.8417358398
 21
45841.8579101562
  0
LINE
  8
LAY0_0
  6
CONTINUOUS
 62
3
 10
45008.9111328125
 20
33451.6754150391
 11
46631.7367553711
 21
33451.6754150391
  0
LINE
  8
LAY0_0
  6
CONTINUOUS
 62
3
 10
29914.3753051758
 20
11496.5515136719
 11
29407.1578979492
 21
8054.04663085938
  0
LINE
  8
LAY0_0
  6
CONTINUOUS
 62
3
 10
28030.3192138672
 20
13639.3890380859
 11
27470.4971313477
 21
16434.8754882813
  0
LINE
  8
LAY0_0
  6
CONTINUOUS
 62
3
 10
27922.4853515625
 20
11698.1353759766
 11
27428.5202026367
 21
8345.5810546875
  0
LINE
  8
LAY0_0
  6
CONTINUOUS
 62
3
 10
26115.7684326172
 20
19527.0080566406
 11
27017.5247192383
 21
16177.6580810547
  0
LINE
  8
LAY0_0
  6
CONTINUOUS
 62
3
 10
26601.1123657227
 20
19647.5982666016
 11
27500.3356933594
 21
16307.6477050781
  0
LINE
  8
LAY0_0
  6
CONTINUOUS
 62
3
 10
29431.5643310547
 20
16827.5909423828
 11
30041.3589477539
 21
13782.5622558594
  0
LINE
  8
LAY0_0
  6
CONTINUOUS
 62
3
 10
27501.3656616211
 20
24704.5593261719
 11
28542.5567626953
 21
20129.5928955078
  0
LINE
  8
LAY0_0
  6
CONTINUOUS
 62
3
 10
140531.372070312
 20
75885.5895996094
 11
139896.362304688
 21
73980.5603027344
  0
LINE
  8
LAY0_0
  6
CONTINUOUS
 62
3
 10
26601.1123657227
 20
19647.5982666016
 11
25485.6491088867
 21
24548.9044189453
  0
LINE
  8
LAY0_0
  6
CONTINUOUS
 62
3
 10
25890.0756835938
 20
30345.6726074219
 11
25485.6491088867
 21
24548.9044189453
  0
LINE
  8
LAY0_0
  6
CONTINUOUS
 62
3
 10
26397.2702026367
 20
34910.5529785156
 11
26515.0527954102
 21
36794.8608398438
  0
LINE
  8
LAY0_0
  6
CONTINUOUS
 62
3
 10
29017.951965332
 20
36763.3666992188
 11
28882.4081420898
 21
40403.8238525391
  0
LINE
  8
LAY0_0
  6
CONTINUOUS
 62
3
 10
30544.1131591797
 20
13818.2983398438
 11
30412.3458862305
 21
11446.1517333984
  0
LINE
  8
LAY0_0
  6
CONTINUOUS
 62
3
 10
43096.6262817383
 20
10182.9833984375
 11
40455.3604125977
 21
7051.57470703125
  0
LINE
  8
LAY0_0
  6
CONTINUOUS
 62
3
 10
26547.3327636719
 20
79527.1301269531
 11
26478.1036376953
 21
83494.5678710937
  0
LINE
  8
LAY0_0
  6
CONTINUOUS
 62
3
 10
28005.2947998047
 20
24743.4539794922
 11
29030.0903320313
 21
20240.5548095703
  0
LINE
  8
LAY0_0
  6
CONTINUOUS
 62
3
 10
16715.9214019775
 20
91515.8767700195
 11
17432.7278137207
 21
90440.673828125
  0
LINE
  8
LAY0_0
  6
CONTINUOUS
 62
3
 10
16060.7662200928
 20
77835.0296020508
 11
16831.6841125488
 21
77372.3220825195
  0
LINE
  8
LAY0_0
  6
CONTINUOUS
 62
1
 10
16895.1187133789
 20
87573.4786987305
 11
17253.5247802734
 21
86856.6741943359
  0
LINE
  8
LAY0_0
  6
CONTINUOUS
 62
1
 10
17074.3217468262
 20
89365.478515625
 11
16895.1187133789
 21
87573.4786987305
  0
LINE
  8
LAY0_0
  6
CONTINUOUS
 62
1
 10
16060.7662200928
 20
75807.9223632813
 11
16843.1606292725
 21
76277.0690917969
  0
LINE
  8
LAY0_0
  6
CONTINUOUS
 62
3
 10
18087.8829956055
 20
75807.9223632813
 11
17305.4885864258
 21
76277.0690917969
  0
LINE
  8
LAY0_0
  6
CONTINUOUS
 62
3
 10
18087.8829956055
 20
77835.0296020508
 11
17614.0727996826
 21
77045.1202392578
  0
LINE
  8
LAY0_0
  6
CONTINUOUS
 62
3
 10
19762.3252868652
 20
76821.4797973633
 11
17327.7168273926
 21
76568.0770874023
  0
LINE
  8
LAY0_0
  6
CONTINUOUS
 62
1
 10
18341.6347503662
 20
78088.7756347656
 11
15807.0192337036
 21
75554.1763305664
  0
LINE
  8
LAY0_0
  6
CONTINUOUS
 62
1
 10
132106.658935547
 20
12599.4358062744
 11
132106.658935547
 21
11219.2249298096
  0
LINE
  8
LAY0_0
  6
CONTINUOUS
 62
1
 10
123330.635070801
 20
7000.47540664673
 11
141533.752441406
 21
7000.47540664673
  0
LINE
  8
LAY0_0
  6
CONTINUOUS
 62
1
 10
55820.1370239258
 20
7918.62869262695
 11
55820.1370239258
 21
8499.83596801758
  0
LINE
  8
LAY0_0
  6
CONTINUOUS
 62
1
 10
123330.635070801
 20
15411.9396209717
 11
123330.635070801
 21
7000.47540664673
  0
LINE
  8
LAY0_0
  6
CONTINUOUS
 62
1
 10
123330.635070801
 20
15411.9396209717
 11
141533.752441406
 21
15411.9396209717
  0
LINE
  8
LAY0_0
  6
CONTINUOUS
 62
1
 10
14386.323928833
 20
76821.4797973633
 11
16820.9381103516
 21
76568.0770874023
  0
LINE
  8
LAY0_0
  6
CONTINUOUS
 62
3
 10
17432.7278137207
 20
90440.673828125
 11
17432.7278137207
 21
91515.8767700195
  0
LINE
  8
LAY0_0
  6
CONTINUOUS
 62
1
 10
123330.635070801
 20
8406.72874450684
 11
141533.752441406
 21
8406.72874450684
  0
LINE
  8
LAY0_0
  6
CONTINUOUS
 62
1
 10
123330.635070801
 20
9812.9825592041
 11
141533.752441406
 21
9812.9825592041
  0
LINE
  8
LAY0_0
  6
CONTINUOUS
 62
1
 10
18087.8829956055
 20
77835.0296020508
 11
17316.9593811035
 21
77372.3220825195
  0
LINE
  8
LAY0_0
  6
CONTINUOUS
 62
3
 10
17074.3217468262
 20
89365.478515625
 11
17253.5247802734
 21
87573.4786987305
  0
LINE
  8
LAY0_0
  6
CONTINUOUS
 62
3
 10
17253.5247802734
 20
87573.4786987305
 11
16895.1187133789
 21
86856.6741943359
  0
LINE
  8
LAY0_0
  6
CONTINUOUS
 62
1
 10
16060.7662200928
 20
77835.0296020508
 11
16534.5649719238
 21
77045.1202392578
  0
LINE
  8
LAY0_0
  6
CONTINUOUS
 62
1
 10
13490.3249740601
 20
76821.4797973633
 11
20658.3232879639
 21
76821.4797973633
  0
LINE
  8
LAY0_0
  6
CONTINUOUS
 62
3
 10
14386.323928833
 20
76821.4797973633
 11
16820.9381103516
 21
77074.8748779297
  0
LINE
  8
LAY0_0
  6
CONTINUOUS
 62
3
 10
17074.3217468262
 20
83989.4714355469
 11
17327.7168273926
 21
77074.8748779297
  0
LINE
  8
LAY0_0
  6
CONTINUOUS
 62
1
 10
19762.3252868652
 20
76821.4797973633
 11
17327.7168273926
 21
77074.8748779297
  0
LINE
  8
LAY0_0
  6
CONTINUOUS
 62
1
 10
17074.3217468262
 20
83989.4714355469
 11
16820.9381103516
 21
77074.8748779297
  0
LINE
  8
LAY0_0
  6
CONTINUOUS
 62
3
 10
16715.9214019775
 20
90440.673828125
 11
16715.9214019775
 21
91515.8767700195
  0
LINE
  8
LAY0_0
  6
CONTINUOUS
 62
1
 10
17253.5247802734
 20
86856.6741943359
 11
17074.3217468262
 21
86139.8773193359
  0
LINE
  8
LAY0_0
  6
CONTINUOUS
 62
3
 10
16060.7662200928
 20
75807.9223632813
 11
16534.5649719238
 21
76597.8317260742
  0
LINE
  8
LAY0_0
  6
CONTINUOUS
 62
3
 10
16895.1187133789
 20
86856.6741943359
 11
17074.3217468262
 21
86139.8773193359
  0
LINE
  8
LAY0_0
  6
CONTINUOUS
 62
1
 10
17074.3217468262
 20
89365.478515625
 11
17074.3217468262
 21
71445.4803466797
  0
LINE
  8
LAY0_0
  6
CONTINUOUS
 62
1
 10
15807.0192337036
 20
78088.7756347656
 11
18341.6347503662
 21
75554.1763305664
  0
LINE
  8
LAY0_0
  6
CONTINUOUS
 62
1
 10
17074.3217468262
 20
73237.4801635742
 11
17327.7168273926
 21
76568.0770874023
  0
LINE
  8
LAY0_0
  6
CONTINUOUS
 62
3
 10
17074.3217468262
 20
73237.4801635742
 11
16820.9381103516
 21
76568.0770874023
  0
LINE
  8
LAY0_0
  6
CONTINUOUS
 62
1
 10
18087.8829956055
 20
75807.9223632813
 11
17614.0727996826
 21
76597.8317260742
  0
LINE
  8
LAY0_0
  6
CONTINUOUS
 62
3
 10
28008.3923339844
 20
47163.6962890625
 11
27849.1363525391
 21
48953.2165527344
  0
LINE
  8
LAY0_0
  6
CONTINUOUS
 62
1
 10
54820.1446533203
 20
8518.63479614258
 11
104820.106506348
 21
8518.63479614258
  0
LINE
  8
LAY0_0
  6
CONTINUOUS
 62
1
 10
54820.1446533203
 20
7918.62869262695
 11
54820.1446533203
 21
8918.62869262695
  0
LINE
  8
LAY0_0
  6
CONTINUOUS
 62
3
 10
28382.7514648438
 20
40385.2233886719
 11
28297.8515625
 21
45248.4741210937
  0
LINE
  8
LAY0_0
  6
CONTINUOUS
 62
3
 10
24620.5368041992
 20
61457.7178955078
 11
24333.3053588867
 21
63245.0103759766
  0
LINE
  8
LAY0_0
  6
CONTINUOUS
 62
1
 10
59820.1370239258
 20
7918.62869262695
 11
59820.1370239258
 21
8725.75759887695
  0
LINE
  8
LAY0_0
  6
CONTINUOUS
 62
1
 10
89820.1370239258
 20
7918.62869262695
 11
89820.1370239258
 21
8725.75759887695
  0
LINE
  8
LAY0_0
  6
CONTINUOUS
 62
1
 10
94820.1370239258
 20
7918.62869262695
 11
94820.1370239258
 21
8918.62869262695
  0
LINE
  8
LAY0_0
  6
CONTINUOUS
 62
1
 10
61820.1370239258
 20
7918.62869262695
 11
61820.1370239258
 21
8499.83596801758
  0
LINE
  8
LAY0_0
  6
CONTINUOUS
 62
1
 10
60820.1370239258
 20
7918.62869262695
 11
60820.1370239258
 21
8483.70742797852
  0
LINE
  8
LAY0_0
  6
CONTINUOUS
 62
1
 10
63820.1370239258
 20
7918.62869262695
 11
63820.1370239258
 21
8532.10830688477
  0
LINE
  8
LAY0_0
  6
CONTINUOUS
 62
3
 10
26061.5997314453
 20
70685.3332519531
 11
26162.7578735352
 21
72223.3276367187
  0
LINE
  8
LAY0_0
  6
CONTINUOUS
 62
3
 10
26263.9312744141
 20
73761.3220214844
 11
26232.666015625
 21
75553.0700683594
  0
LINE
  8
LAY0_0
  6
CONTINUOUS
 62
1
 10
58820.1370239258
 20
7918.62869262695
 11
58820.1370239258
 21
8499.83596801758
  0
LINE
  8
LAY0_0
  6
CONTINUOUS
 62
1
 10
79820.1370239258
 20
7918.62869262695
 11
79820.1370239258
 21
8725.75759887695
  0
LINE
  8
LAY0_0
  6
CONTINUOUS
 62
1
 10
57820.1370239258
 20
7918.62869262695
 11
57820.1370239258
 21
8515.9797668457
  0
LINE
  8
LAY0_0
  6
CONTINUOUS
 62
1
 10
56820.1370239258
 20
7918.62869262695
 11
56820.1370239258
 21
8499.83596801758
  0
LINE
  8
LAY0_0
  6
CONTINUOUS
 62
1
 10
99820.1065063477
 20
7918.62869262695
 11
99820.1065063477
 21
8725.75759887695
  0
LINE
  8
LAY0_0
  6
CONTINUOUS
 62
1
 10
123330.635070801
 20
14005.6896209717
 11
141533.752441406
 21
14005.6896209717
  0
LINE
  8
LAY0_0
  6
CONTINUOUS
 62
1
 10
123330.635070801
 20
11219.2249298096
 11
141533.752441406
 21
11219.2249298096
  0
LINE
  8
LAY0_0
  6
CONTINUOUS
 62
6
 10
54820.1446533203
 20
7918.62869262695
 11
104820.106506348
 21
7918.62869262695
  0
LINE
  8
LAY0_0
  6
CONTINUOUS
 62
1
 10
127210.815429688
 20
15411.9396209717
 11
127210.815429688
 21
7000.47540664673
  0
LINE
  8
LAY0_0
  6
CONTINUOUS
 62
1
 10
123330.635070801
 20
12599.4358062744
 11
141533.752441406
 21
12599.4358062744
  0
LINE
  8
LAY0_0
  6
CONTINUOUS
 62
1
 10
84820.1370239258
 20
7918.62869262695
 11
84820.1370239258
 21
8918.62869262695
  0
LINE
  8
LAY0_0
  6
CONTINUOUS
 62
1
 10
54820.1446533203
 20
7918.62869262695
 11
54820.1446533203
 21
8918.62869262695
  0
LINE
  8
LAY0_0
  6
CONTINUOUS
 62
1
 10
136820.220947266
 20
12599.4358062744
 11
136820.220947266
 21
11219.2249298096
  0
LINE
  8
LAY0_0
  6
CONTINUOUS
 62
1
 10
141533.752441406
 20
15411.9396209717
 11
141533.752441406
 21
7000.47540664673
  0
LINE
  8
LAY0_0
  6
CONTINUOUS
 62
3
 10
26115.7684326172
 20
19527.0080566406
 11
24981.7199707031
 21
24509.9792480469
  0
LINE
  8
LAY0_0
  6
CONTINUOUS
 62
3
 10
24722.9232788086
 20
85722.0916748047
 11
24810.7147216797
 21
86423.9959716797
  0
LINE
  8
LAY0_0
  6
CONTINUOUS
 62
1
 10
104820.106506348
 20
7918.62869262695
 11
104820.106506348
 21
8918.62869262695
  0
LINE
  8
LAY0_0
  6
CONTINUOUS
 62
5
 10
55385.0555419922
 20
53882.6599121094
 11
55667.1142578125
 21
59923.1567382813
  0
LINE
  8
LAY0_0
  6
CONTINUOUS
 62
3
 10
51085.4949951172
 20
39546.0510253906
 11
51381.233215332
 21
41572.7233886719
  0
LINE
  8
LAY0_0
  6
CONTINUOUS
 62
1
 10
74820.1370239258
 20
7918.62869262695
 11
74820.1370239258
 21
8918.62869262695
  0
LINE
  8
LAY0_0
  6
CONTINUOUS
 62
1
 10
64820.1370239258
 20
7918.62869262695
 11
64820.1370239258
 21
8918.62869262695
  0
LINE
  8
LAY0_0
  6
CONTINUOUS
 62
1
 10
62820.1370239258
 20
7918.62869262695
 11
62820.1370239258
 21
8515.9797668457
  0
LINE
  8
LAY0_0
  6
CONTINUOUS
 62
1
 10
84820.1370239258
 20
7918.62869262695
 11
84820.1370239258
 21
8918.62869262695
  0
LINE
  8
LAY0_0
  6
CONTINUOUS
 62
3
 10
40573.8296508789
 20
52559.5855712891
 11
39089.5462036133
 21
52776.1688232422
  0
LINE
  8
LAY0_0
  6
CONTINUOUS
 62
3
 10
36993.5913085937
 20
44237.3657226562
 11
36560.4095458984
 21
41268.8293457031
  0
LINE
  8
LAY0_0
  6
CONTINUOUS
 62
3
 10
40258.9263916016
 20
40094.5129394531
 11
40873.4664916992
 21
44305.8624267578
  0
LINE
  8
LAY0_0
  6
CONTINUOUS
 62
3
 10
35945.9457397461
 20
40723.876953125
 11
40258.9263916016
 21
40094.5129394531
  0
LINE
  8
LAY0_0
  6
CONTINUOUS
 62
3
 10
40873.4664916992
 20
44305.8624267578
 11
36560.4858398438
 21
44935.2264404297
  0
LINE
  8
LAY0_0
  6
CONTINUOUS
 62
3
 10
46631.7367553711
 20
33451.6754150391
 11
46631.7367553711
 21
31998.3978271484
  0
LINE
  8
LAY0_0
  6
CONTINUOUS
 62
3
 10
27140.380859375
 20
32542.9840087891
 11
26906.3339233398
 21
30436.4013671875
  0
LINE
  8
LAY0_0
  6
CONTINUOUS
 62
5
 10
55667.1142578125
 20
59923.1567382813
 11
57657.3486328125
 21
62626.3122558594
  0
LINE
  8
LAY0_0
  6
CONTINUOUS
 62
3
 10
35945.9457397461
 20
40723.876953125
 11
36560.4858398438
 21
44935.2264404297
  0
LINE
  8
LAY0_0
  6
CONTINUOUS
 62
5
 10
59994.3695068359
 20
62675.78125
 11
60046.9055175781
 21
60388.1225585938
  0
LINE
  8
LAY0_0
  6
CONTINUOUS
 62
3
 10
131875.65612793
 20
70281.5399169922
 11
133546.371459961
 21
70805.5725097656
  0
LINE
  8
LAY0_0
  6
CONTINUOUS
 62
5
 10
57657.3486328125
 20
62626.3122558594
 11
57655.8990478516
 21
62624.3286132813
  0
LINE
  8
LAY0_0
  6
CONTINUOUS
 62
3
 10
139896.362304688
 20
73980.5603027344
 11
138003.601074219
 21
72449.8596191406
  0
LINE
  8
LAY0_0
  6
CONTINUOUS
 62
3
 10
46631.7367553711
 20
31998.3978271484
 11
45008.9111328125
 21
31998.3978271484
  0
LINE
  8
LAY0_0
  6
CONTINUOUS
 62
5
 10
57657.3486328125
 20
62626.3122558594
 11
60006.0577392578
 21
63234.8327636719
  0
LINE
  8
LAY0_0
  6
CONTINUOUS
 62
3
 10
25206.3827514648
 20
49775.5584716797
 11
25364.860534668
 21
48665.4968261719
  0
LINE
  8
LAY0_0
  6
CONTINUOUS
 62
3
 10
24914.192199707
 20
52722.4884033203
 11
25060.4934692383
 21
51586.6851806641
  0
LINE
  8
LAY0_0
  6
CONTINUOUS
 62
3
 10
25364.860534668
 20
48665.4968261719
 11
25524.1088867187
 21
46876.0528564453
  0
LINE
  8
LAY0_0
  6
CONTINUOUS
 62
3
 10
25194.6640014648
 20
50446.5637207031
 11
25206.3827514648
 21
49775.5584716797
  0
LINE
  8
LAY0_0
  6
CONTINUOUS
 62
3
 10
28038.0401611328
 20
51953.4149169922
 11
28191.5969848633
 21
50648.3306884766
  0
LINE
  8
LAY0_0
  6
CONTINUOUS
 62
3
 10
26660.2096557617
 20
64862.7624511719
 11
26810.0051879883
 21
63589.599609375
  0
LINE
  8
LAY0_0
  6
CONTINUOUS
 62
3
 10
25682.487487793
 20
45766.7999267578
 11
25801.3305664062
 21
45027.4047851562
  0
LINE
  8
LAY0_0
  6
CONTINUOUS
 62
3
 10
27568.0084228516
 20
55602.4017333984
 11
27445.3506469727
 21
56554.5501708984
  0
LINE
  8
LAY0_0
  6
CONTINUOUS
 62
3
 10
24667.6788330078
 20
54636.23046875
 11
24618.0267333984
 21
55021.6827392578
  0
LINE
  8
LAY0_0
  6
CONTINUOUS
 62
3
 10
26764.2211914062
 20
73749.267578125
 11
26661.6821289062
 21
72190.5059814453
  0
LINE
  8
LAY0_0
  6
CONTINUOUS
 62
3
 10
24457.4127197266
 20
56268.4173583984
 11
24680.7556152344
 21
54534.6984863281
  0
LINE
  8
LAY0_0
  6
CONTINUOUS
 62
3
 10
41911.7584228516
 20
53071.4263916016
 11
42200.5462646484
 21
55050.4608154297
  0
LINE
  8
LAY0_0
  6
CONTINUOUS
 62
3
 10
28797.1572875977
 20
45292.6025390625
 11
28882.6751708984
 21
40393.9514160156
  0
LINE
  8
LAY0_0
  6
CONTINUOUS
 62
3
 10
25060.4934692383
 20
51586.6851806641
 11
25194.6640014648
 21
50446.5637207031
  0
LINE
  8
LAY0_0
  6
CONTINUOUS
 62
3
 10
24680.7556152344
 20
54534.6984863281
 11
24914.192199707
 21
52722.4884033203
  0
LINE
  8
LAY0_0
  6
CONTINUOUS
 62
3
 10
25524.1088867187
 20
46876.0528564453
 11
25682.487487793
 21
45766.7999267578
  0
LINE
  8
LAY0_0
  6
CONTINUOUS
 62
3
 10
25801.3305664062
 20
45027.4047851562
 11
25883.5678100586
 21
40316.7877197266
  0
LINE
  8
LAY0_0
  6
CONTINUOUS
 62
3
 10
40259.0026855469
 20
43760.8795166016
 11
39825.8209228516
 21
40792.3278808594
  0
LINE
  8
LAY0_0
  6
CONTINUOUS
 62
3
 10
45008.9111328125
 20
31998.3978271484
 11
45008.9111328125
 21
33451.6754150391
  0
LINE
  8
LAY0_0
  6
CONTINUOUS
 62
3
 10
40674.8580932617
 20
53251.9226074219
 11
41911.7584228516
 21
53071.4263916016
  0
LINE
  8
LAY0_0
  6
CONTINUOUS
 62
3
 10
39190.5746459961
 20
53468.505859375
 11
37953.6743164063
 21
53649.0020751953
  0
LINE
  8
LAY0_0
  6
CONTINUOUS
 62
3
 10
51381.233215332
 20
41572.7233886719
 11
48905.4565429687
 21
41933.9904785156
  0
LINE
  8
LAY0_0
  6
CONTINUOUS
 62
3
 10
35876.7623901367
 20
50187.8967285156
 11
36908.4701538086
 21
57258.0413818359
  0
LINE
  8
LAY0_0
  6
CONTINUOUS
 62
3
 10
36993.5913085937
 20
44237.3657226562
 11
40259.0026855469
 21
43760.8795166016
  0
LINE
  8
LAY0_0
  6
CONTINUOUS
 62
3
 10
40996.5438842773
 20
49439.6209716797
 11
41133.9263916016
 21
50381.0882568359
  0
LINE
  8
LAY0_0
  6
CONTINUOUS
 62
3
 10
39825.8209228516
 20
40792.3278808594
 11
36560.4095458984
 21
41268.8293457031
  0
LINE
  8
LAY0_0
  6
CONTINUOUS
 62
3
 10
48609.7183227539
 20
39907.3181152344
 11
48905.4565429687
 21
41933.9904785156
  0
LINE
  8
LAY0_0
  6
CONTINUOUS
 62
3
 10
36908.4701538086
 20
57258.0413818359
 11
43944.7174072266
 21
56231.2774658203
  0
LINE
  8
LAY0_0
  6
CONTINUOUS
 62
3
 10
37953.6743164063
 20
53649.0020751953
 11
38242.4621582031
 21
55628.0364990234
  0
LINE
  8
LAY0_0
  6
CONTINUOUS
 62
3
 10
40573.8296508789
 20
52559.5855712891
 11
40674.8580932617
 21
53251.9226074219
  0
LINE
  8
LAY0_0
  6
CONTINUOUS
 62
3
 10
39089.5462036133
 20
52776.1688232422
 11
39190.5746459961
 21
53468.505859375
  0
LINE
  8
LAY0_0
  6
CONTINUOUS
 62
3
 10
40996.711730957
 20
49440.7653808594
 11
42913.0096435547
 21
49161.1328125
  0
LINE
  8
LAY0_0
  6
CONTINUOUS
 62
3
 10
37952.6290893555
 20
49884.9792480469
 11
35876.7623901367
 21
50187.8967285156
  0
LINE
  8
LAY0_0
  6
CONTINUOUS
 62
3
 10
28517.3721313477
 20
36769.5617675781
 11
28382.7514648438
 21
40385.2233886719
  0
LINE
  8
LAY0_0
  6
CONTINUOUS
 62
3
 10
29918.6019897461
 20
16941.8792724609
 11
29025.3677368164
 21
20259.5825195313
  0
LINE
  8
LAY0_0
  6
CONTINUOUS
 62
3
 10
131875.65612793
 20
70281.5399169922
 11
133546.371459961
 21
70297.5769042969
  0
LINE
  8
LAY0_0
  6
CONTINUOUS
 62
3
 10
42200.5462646484
 20
55050.4608154297
 11
38242.4621582031
 21
55628.0364990234
  0
LINE
  8
LAY0_0
  6
CONTINUOUS
 62
3
 10
25391.9982910156
 20
30390.6707763672
 11
25524.6810913086
 21
31584.6710205078
  0
LINE
  8
LAY0_0
  6
CONTINUOUS
 62
3
 10
28009.3841552734
 20
31308.5632324219
 11
27882.3699951172
 21
30165.5883789063
  0
LINE
  8
LAY0_0
  6
CONTINUOUS
 62
3
 10
25900.3295898438
 20
34965.7592773438
 11
25524.6734619141
 21
31584.6099853516
  0
LINE
  8
LAY0_0
  6
CONTINUOUS
 62
3
 10
28888.6260986328
 20
34694.3054199219
 11
28506.3247680664
 21
31253.3569335937
  0
LINE
  8
LAY0_0
  6
CONTINUOUS
 62
5
 10
60006.0577392578
 20
63234.8327636719
 11
59994.3695068359
 21
62675.78125
  0
LINE
  8
LAY0_0
  6
CONTINUOUS
 62
3
 10
26906.3339233398
 20
30436.4013671875
 11
26853.9047241211
 21
30910.1104736328
  0
LINE
  8
LAY0_0
  6
CONTINUOUS
 62
3
 10
28888.6260986328
 20
34694.3054199219
 11
29017.951965332
 21
36763.3666992188
  0
LINE
  8
LAY0_0
  6
CONTINUOUS
 62
3
 10
26014.4729614258
 20
36801.1474609375
 11
25898.2467651367
 21
34941.7419433594
  0
LINE
  8
LAY0_0
  6
CONTINUOUS
 62
3
 10
27527.5573730469
 20
13603.6224365234
 11
26980.2322387695
 21
16336.7004394531
  0
LINE
  8
LAY0_0
  6
CONTINUOUS
 62
3
 10
26383.3999633789
 20
40330.6884765625
 11
26515.0527954102
 21
36794.8608398438
  0
LINE
  8
LAY0_0
  6
CONTINUOUS
 62
3
 10
27527.5573730469
 20
13603.6224365234
 11
27424.5147705078
 21
11748.5198974609
  0
LINE
  8
LAY0_0
  6
CONTINUOUS
 62
3
 10
28390.3579711914
 20
34737.5793457031
 11
28009.3841552734
 21
31308.5632324219
  0
LINE
  8
LAY0_0
  6
CONTINUOUS
 62
3
 10
26397.2702026367
 20
34910.5529785156
 11
26021.614074707
 21
31529.4036865234
  0
LINE
  8
LAY0_0
  6
CONTINUOUS
 62
3
 10
28380.4473876953
 20
30120.5902099609
 11
28506.3247680664
 21
31253.3416748047
  0
LINE
  8
LAY0_0
  6
CONTINUOUS
 62
3
 10
25391.9982910156
 20
30390.6707763672
 11
24981.7199707031
 21
24509.9792480469
  0
LINE
  8
LAY0_0
  6
CONTINUOUS
 62
3
 10
25883.5678100586
 20
40316.7877197266
 11
26014.4729614258
 21
36801.1474609375
  0
LINE
  8
LAY0_0
  6
CONTINUOUS
 62
3
 10
27889.6102905273
 20
53105.7434082031
 11
28038.0401611328
 21
51953.4149169922
  0
LINE
  8
LAY0_0
  6
CONTINUOUS
 62
1
 10
129449.935913086
 20
94170.6695556641
 11
129263.885498047
 21
94097.2442626953
  0
LINE
  8
LAY0_0
  6
CONTINUOUS
 62
1
 10
126944.274902344
 20
91984.0087890625
 11
126702.63671875
 21
91434.814453125
  0
LINE
  8
LAY0_0
  6
CONTINUOUS
 62
1
 10
127046.798706055
 20
91720.3979492188
 11
126966.247558594
 21
91537.3229980469
  0
LINE
  8
LAY0_0
  6
CONTINUOUS
 62
1
 10
127006.530761719
 20
91628.8604736328
 11
127510.589599609
 21
91407.0739746094
  0
LINE
  8
LAY0_0
  6
CONTINUOUS
 62
1
 10
132408.85925293
 20
95338.2110595703
 11
132673.736572266
 21
94666.9311523437
  0
LINE
  8
LAY0_0
  6
CONTINUOUS
 62
1
 10
132501.876831055
 20
95374.9237060547
 11
132315.826416016
 21
95301.4984130859
  0
LINE
  8
LAY0_0
  6
CONTINUOUS
 62
1
 10
126962.585449219
 20
92522.2015380859
 11
126318.206787109
 21
91057.6934814453
  0
LINE
  8
LAY0_0
  6
CONTINUOUS
 62
1
 10
135981.719970703
 20
96311.4624023437
 11
134385.025024414
 21
96208.7554931641
  0
LINE
  8
LAY0_0
  6
CONTINUOUS
 62
1
 10
129954.254150391
 20
94799.6826171875
 11
128465.927124023
 21
94212.40234375
  0
LINE
  8
LAY0_0
  6
CONTINUOUS
 62
1
 10
125390.991210938
 20
88909.2864990234
 11
124844.207763672
 21
87405.6091308594
  0
LINE
  8
LAY0_0
  6
CONTINUOUS
 62
1
 10
123972.671508789
 20
85344.5434570312
 11
123827.1484375
 21
84762.451171875
  0
LINE
  8
LAY0_0
  6
CONTINUOUS
 62
1
 10
125408.081054687
 20
88371.0479736328
 11
125203.033447266
 21
87807.1594238281
  0
LINE
  8
LAY0_0
  6
CONTINUOUS
 62
1
 10
123391.479492187
 20
82410.7055664062
 11
123252.136230469
 21
80816.7877197266
  0
LINE
  8
LAY0_0
  6
CONTINUOUS
 62
1
 10
125527.694702148
 20
88114.74609375
 11
125459.335327148
 21
87926.7730712891
  0
LINE
  8
LAY0_0
  6
CONTINUOUS
 62
1
 10
125493.515014648
 20
88020.751953125
 11
126020.797729492
 21
87829.0100097656
  0
LINE
  8
LAY0_0
  6
CONTINUOUS
 62
1
 10
129562.576293945
 20
94430.1147460937
 11
129004.440307617
 21
94209.8846435547
  0
LINE
  8
LAY0_0
  6
CONTINUOUS
 62
1
 10
124093.948364258
 20
85004.9896240234
 11
124676.025390625
 21
84859.4665527344
  0
LINE
  8
LAY0_0
  6
CONTINUOUS
 62
1
 10
135495.590209961
 20
96079.7729492188
 11
134896.820068359
 21
96041.259765625
  0
LINE
  8
LAY0_0
  6
CONTINUOUS
 62
3
 10
24463.7680053711
 20
84297.3327636719
 11
24722.9232788086
 21
85722.0916748047
  0
LINE
  8
LAY0_0
  6
CONTINUOUS
 62
3
 10
42913.0096435547
 20
49161.1328125
 11
43944.7174072266
 21
56231.2774658203
  0
LINE
  8
LAY0_0
  6
CONTINUOUS
 62
3
 10
140338.928222656
 20
81360.5651855469
 11
140531.372070312
 21
75885.5895996094
  0
LINE
  8
LAY0_0
  6
CONTINUOUS
 62
3
 10
25556.770324707
 20
51647.6593017578
 11
25410.0952148438
 21
52786.3616943359
  0
LINE
  8
LAY0_0
  6
CONTINUOUS
 62
3
 10
27849.1363525391
 20
48953.2165527344
 11
27703.2852172852
 21
49974.8229980469
  0
LINE
  8
LAY0_0
  6
CONTINUOUS
 62
3
 10
26478.1036376953
 20
83494.5678710937
 11
26466.926574707
 21
84134.4604492188
  0
LINE
  8
LAY0_0
  6
CONTINUOUS
 62
3
 10
24546.4172363281
 20
79564.0106201172
 11
24463.7680053711
 21
84297.3327636719
  0
LINE
  8
LAY0_0
  6
CONTINUOUS
 62
3
 10
24810.7147216797
 20
86423.9959716797
 11
24784.1415405273
 21
87945.6481933594
  0
LINE
  8
LAY0_0
  6
CONTINUOUS
 62
3
 10
141166.366577148
 20
82997.5891113281
 11
140338.928222656
 21
81360.5651855469
  0
LINE
  8
LAY0_0
  6
CONTINUOUS
 62
1
 10
133006.195068359
 20
96003.9367675781
 11
131517.868041992
 21
95416.6564941406
  0
LINE
  8
LAY0_0
  6
CONTINUOUS
 62
1
 10
132614.517211914
 20
95634.3688964844
 11
132056.381225586
 21
95414.1387939453
  0
LINE
  8
LAY0_0
  6
CONTINUOUS
 62
1
 10
135209.045410156
 20
95860.9313964844
 11
135269.088745117
 21
94927.4597167969
  0
LINE
  8
LAY0_0
  6
CONTINUOUS
 62
1
 10
135308.853149414
 20
95867.3400878906
 11
135109.252929688
 21
95854.5074462891
  0
LINE
  8
LAY0_0
  6
CONTINUOUS
 62
3
 10
137991.363525391
 20
72710.6018066406
 11
138301.849365234
 21
72691.0552978516
  0
LINE
  8
LAY0_0
  6
CONTINUOUS
 62
3
 10
138003.601074219
 20
72449.8596191406
 11
135734.313964844
 21
70524.9938964844
  0
LINE
  8
LAY0_0
  6
CONTINUOUS
 62
1
 10
129356.918334961
 20
94133.9569091797
 11
129634.353637695
 21
93430.8471679688
  0
LINE
  8
LAY0_0
  6
CONTINUOUS
 62
1
 10
123547.180175781
 20
81895.1873779297
 11
123494.918823242
 21
81297.4700927734
  0
LINE
  8
LAY0_0
  6
CONTINUOUS
 62
1
 10
124118.194580078
 20
85102.0050048828
 11
124069.686889648
 21
84907.9742431641
  0
LINE
  8
LAY0_0
  6
CONTINUOUS
 62
3
 10
28797.1572875977
 20
45292.6025390625
 11
28647.9187011719
 21
46221.4508056641
  0
LINE
  8
LAY0_0
  6
CONTINUOUS
 62
3
 10
26810.0051879883
 20
63589.599609375
 11
27095.5657958984
 21
61812.6983642578
  0
LINE
  8
LAY0_0
  6
CONTINUOUS
 62
3
 10
24259.4909667969
 20
60247.3907470703
 11
24457.4127197266
 21
56268.4173583984
  0
LINE
  8
LAY0_0
  6
CONTINUOUS
 62
3
 10
27250.7553100586
 20
60497.5280761719
 11
27447.8454589844
 21
56535.2935791016
  0
LINE
  8
LAY0_0
  6
CONTINUOUS
 62
3
 10
23536.2930297852
 20
65517.6696777344
 11
23685.1043701172
 21
64475.3265380859
  0
LINE
  8
LAY0_0
  6
CONTINUOUS
 62
3
 10
23679.4052124023
 20
72558.6242675781
 11
23564.7201538086
 21
70814.9108886719
  0
LINE
  8
LAY0_0
  6
CONTINUOUS
 62
3
 10
27250.7553100586
 20
60497.5280761719
 11
27098.4725952148
 21
61791.7938232422
  0
LINE
  8
LAY0_0
  6
CONTINUOUS
 62
3
 10
23564.7201538086
 20
70814.9108886719
 11
23478.9047241211
 21
68560.6536865234
  0
LINE
  8
LAY0_0
  6
CONTINUOUS
 62
3
 10
26366.4093017578
 20
67351.806640625
 11
26470.9625244141
 21
68326.1108398438
  0
LINE
  8
LAY0_0
  6
CONTINUOUS
 62
3
 10
28202.6672363281
 20
50014.6484375
 11
28345.9930419922
 21
49010.7421875
  0
LINE
  8
LAY0_0
  6
CONTINUOUS
 62
3
 10
28345.9930419922
 20
49010.7421875
 11
28505.2490234375
 21
47221.2371826172
  0
LINE
  8
LAY0_0
  6
CONTINUOUS
 62
3
 10
27447.8454589844
 20
56535.2935791016
 11
27889.6102905273
 21
53105.7434082031
  0
LINE
  8
LAY0_0
  6
CONTINUOUS
 62
3
 10
28505.2490234375
 20
47221.2371826172
 11
28649.2309570313
 21
46212.7990722656
  0
LINE
  8
LAY0_0
  6
CONTINUOUS
 62
3
 10
26366.4093017578
 20
67351.806640625
 11
26515.9759521484
 21
65870.0714111328
  0
LINE
  8
LAY0_0
  6
CONTINUOUS
 62
3
 10
26661.6821289062
 20
72190.5059814453
 11
26560.9817504883
 21
70659.4848632813
  0
LINE
  8
LAY0_0
  6
CONTINUOUS
 62
3
 10
28191.5969848633
 20
50648.3306884766
 11
28202.6672363281
 21
50014.6484375
  0
LINE
  8
LAY0_0
  6
CONTINUOUS
 62
3
 10
26560.9817504883
 20
70659.4848632813
 11
26473.4573364258
 21
68360.4278564453
  0
LINE
  8
LAY0_0
  6
CONTINUOUS
 62
3
 10
23478.9047241211
 20
68560.6536865234
 11
23350.2044677734
 21
67361.2213134766
  0
LINE
  8
LAY0_0
  6
CONTINUOUS
 62
3
 10
24046.1807250977
 20
79573.0895996094
 11
23959.0148925781
 21
77955.9478759766
  0
LINE
  8
LAY0_0
  6
CONTINUOUS
 62
3
 10
23959.0148925781
 20
77955.9478759766
 11
23851.0665893555
 21
77093.0480957031
  0
LINE
  8
LAY0_0
  6
CONTINUOUS
 62
3
 10
23730.8654785156
 20
75634.1857910156
 11
23762.4969482422
 21
73821.7315673828
  0
LINE
  8
LAY0_0
  6
CONTINUOUS
 62
3
 10
23851.0665893555
 20
77093.0480957031
 11
23730.8654785156
 21
75634.1857910156
  0
LINE
  8
LAY0_0
  6
CONTINUOUS
 62
1
 10
123720.291137695
 20
81578.9031982422
 11
124318.008422852
 21
81526.6571044922
  0
LINE
  8
LAY0_0
  6
CONTINUOUS
 62
1
 10
123729.00390625
 20
81678.5278320312
 11
123711.578369141
 21
81479.2785644531
  0
LINE
  8
LAY0_0
  6
CONTINUOUS
 62
3
 10
23762.4969482422
 20
73821.7315673828
 11
23679.4052124023
 21
72558.6242675781
  0
LINE
  8
LAY0_0
  6
CONTINUOUS
 62
1
 10
123899.90234375
 20
85878.1280517578
 11
123511.856079102
 21
84325.8972167969
  0
LINE
  8
LAY0_0
  6
CONTINUOUS
 62
3
 10
24310.173034668
 20
86450.7904052734
 11
24228.515625
 21
85797.9431152344
  0
LINE
  8
LAY0_0
  6
CONTINUOUS
 62
3
 10
23837.9669189453
 20
63176.0711669922
 11
24125.1983642578
 21
61388.7939453125
  0
LINE
  8
LAY0_0
  6
CONTINUOUS
 62
3
 10
23350.2044677734
 20
67361.2213134766
 11
23536.2930297852
 21
65517.6696777344
  0
LINE
  8
LAY0_0
  6
CONTINUOUS
 62
3
 10
24125.1983642578
 20
61388.7939453125
 11
24259.4909667969
 21
60247.3907470703
  0
LINE
  8
LAY0_0
  6
CONTINUOUS
 62
3
 10
23685.1043701172
 20
64475.3265380859
 11
23837.9669189453
 21
63176.0711669922
  0
LINE
  8
LAY0_0
  6
CONTINUOUS
 62
3
 10
26660.2096557617
 20
64862.7624511719
 11
26513.4811401367
 21
65890.5181884766
  0
LINE
  8
LAY0_0
  6
CONTINUOUS
 62
3
 10
24228.515625
 20
85797.9431152344
 11
23962.9821777344
 21
84337.9821777344
  0
LINE
  8
LAY0_0
  6
CONTINUOUS
 62
3
 10
24310.173034668
 20
86450.7904052734
 11
24284.2178344727
 21
87936.9201660156
  0
LINE
  8
LAY0_0
  6
CONTINUOUS
 62
3
 10
23962.9821777344
 20
84337.9821777344
 11
24046.1807250977
 21
79573.0895996094
  0
LINE
  8
LAY0_0
  6
CONTINUOUS
 62
3
 10
127905.960083008
 20
68895.99609375
 11
131395.446777344
 21
68120.5444335938
  0
LINE
  8
LAY0_0
  6
CONTINUOUS
 62
3
 10
123767.364501953
 20
86172.5769042969
 11
124783.37097168
 21
87823.5473632813
  0
LINE
  8
LAY0_0
  6
CONTINUOUS
 62
5
 10
101709.426879883
 20
19256.5307617187
 11
98930.5038452148
 21
17171.7987060547
  0
LINE
  8
LAY0_0
  6
CONTINUOUS
 62
5
 10
98167.7398681641
 20
16599.5750427246
 11
97532.0434570312
 21
16122.6806640625
  0
POLYLINE
  8
LAY0_0
  6
CONTINUOUS
 62
5
 66
  1
 10
0
 20
0
 30
0
  0
VERTEX
  8
LAY0_0
 10
65258.5906982422
 20
23844.3298339844
 30
0
  0
VERTEX
  8
LAY0_0
 10
65278.3050537109
 20
23847.5646972656
 30
0
  0
VERTEX
  8
LAY0_0
 10
65297.9888916016
 20
23850.8605957031
 30
0
  0
VERTEX
  8
LAY0_0
 10
65317.7032470703
 20
23854.1259765625
 30
0
  0
VERTEX
  8
LAY0_0
 10
65337.40234375
 20
23857.4523925781
 30
0
  0
VERTEX
  8
LAY0_0
 10
65357.1014404297
 20
23860.8093261719
 30
0
  0
VERTEX
  8
LAY0_0
 10
65376.8005371094
 20
23864.1967773438
 30
0
  0
VERTEX
  8
LAY0_0
 10
65396.4996337891
 20
23867.6452636719
 30
0
  0
VERTEX
  8
LAY0_0
 10
65416.1834716797
 20
23871.1547851562
 30
0
  0
VERTEX
  8
LAY0_0
 10
65435.8673095703
 20
23874.7253417969
 30
0
  0
VERTEX
  8
LAY0_0
 10
65455.5511474609
 20
23878.3569335938
 30
0
  0
VERTEX
  8
LAY0_0
 10
65475.2349853516
 20
23882.1105957031
 30
0
  0
VERTEX
  8
LAY0_0
 10
65494.9035644531
 20
23885.9252929687
 30
0
  0
VERTEX
  8
LAY0_0
 10
65514.5721435547
 20
23889.8620605469
 30
0
  0
VERTEX
  8
LAY0_0
 10
65534.2407226563
 20
23893.9208984375
 30
0
  0
VERTEX
  8
LAY0_0
 10
65553.8940429688
 20
23898.0712890625
 30
0
  0
VERTEX
  8
LAY0_0
 10
65573.5473632813
 20
23902.34375
 30
0
  0
VERTEX
  8
LAY0_0
 10
65593.1854248047
 20
23906.7077636719
 30
0
  0
VERTEX
  8
LAY0_0
 10
65612.8082275391
 20
23911.1938476562
 30
0
  0
VERTEX
  8
LAY0_0
 10
65632.4310302734
 20
23915.8020019531
 30
0
  0
VERTEX
  8
LAY0_0
 10
65652.0385742188
 20
23920.5017089844
 30
0
  0
VERTEX
  8
LAY0_0
 10
65671.630859375
 20
23925.3234863281
 30
0
  0
VERTEX
  8
LAY0_0
 10
65691.2078857422
 20
23930.2368164062
 30
0
  0
VERTEX
  8
LAY0_0
 10
65710.7696533203
 20
23935.302734375
 30
0
  0
VERTEX
  8
LAY0_0
 10
65730.3161621094
 20
23940.4296875
 30
0
  0
VERTEX
  8
LAY0_0
 10
65749.8474121094
 20
23945.7092285156
 30
0
  0
VERTEX
  8
LAY0_0
 10
65769.3634033203
 20
23951.0803222656
 30
0
  0
VERTEX
  8
LAY0_0
 10
65788.8488769531
 20
23956.5734863281
 30
0
  0
VERTEX
  8
LAY0_0
 10
65808.3190917969
 20
23962.158203125
 30
0
  0
VERTEX
  8
LAY0_0
 10
65827.7740478516
 20
23967.8649902344
 30
0
  0
VERTEX
  8
LAY0_0
 10
65847.1984863281
 20
23973.6633300781
 30
0
  0
VERTEX
  8
LAY0_0
 10
65866.5924072266
 20
23979.5837402344
 30
0
  0
VERTEX
  8
LAY0_0
 10
65885.9710693359
 20
23985.6262207031
 30
0
  0
VERTEX
  8
LAY0_0
 10
65905.3192138672
 20
23991.7602539062
 30
0
  0
VERTEX
  8
LAY0_0
 10
65924.6520996094
 20
23998.0163574219
 30
0
  0
VERTEX
  8
LAY0_0
 10
65943.9544677734
 20
24004.39453125
 30
0
  0
VERTEX
  8
LAY0_0
 10
65963.2110595703
 20
24010.8642578125
 30
0
  0
VERTEX
  8
LAY0_0
 10
65982.4371337891
 20
24017.4560546875
 30
0
  0
VERTEX
  8
LAY0_0
 10
66001.6479492188
 20
24024.1394042969
 30
0
  0
VERTEX
  8
LAY0_0
 10
66020.8282470703
 20
24030.9448242187
 30
0
  0
VERTEX
  8
LAY0_0
 10
66039.9627685547
 20
24037.8723144531
 30
0
  0
VERTEX
  8
LAY0_0
 10
66059.0667724609
 20
24044.8913574219
 30
0
  0
VERTEX
  8
LAY0_0
 10
66078.125
 20
24052.001953125
 30
0
  0
VERTEX
  8
LAY0_0
 10
66097.1527099609
 20
24059.2651367187
 30
0
  0
VERTEX
  8
LAY0_0
 10
66116.1499023437
 20
24066.6198730469
 30
0
  0
VERTEX
  8
LAY0_0
 10
66135.1013183594
 20
24074.0661621094
 30
0
  0
VERTEX
  8
LAY0_0
 10
66154.0069580078
 20
24081.6345214844
 30
0
  0
VERTEX
  8
LAY0_0
 10
66172.8820800781
 20
24089.3249511719
 30
0
  0
VERTEX
  8
LAY0_0
 10
66191.7114257812
 20
24097.1069335938
 30
0
  0
VERTEX
  8
LAY0_0
 10
66210.4949951172
 20
24105.0109863281
 30
0
  0
VERTEX
  8
LAY0_0
 10
66229.2327880859
 20
24113.0065917969
 30
0
  0
VERTEX
  8
LAY0_0
 10
66247.9248046875
 20
24121.1242675781
 30
0
  0
VERTEX
  8
LAY0_0
 10
66266.5863037109
 20
24129.3334960938
 30
0
  0
VERTEX
  8
LAY0_0
 10
66285.1715087891
 20
24137.6647949219
 30
0
  0
VERTEX
  8
LAY0_0
 10
66303.7261962891
 20
24146.1181640625
 30
0
  0
VERTEX
  8
LAY0_0
 10
66322.2351074219
 20
24154.6630859375
 30
0
  0
VERTEX
  8
LAY0_0
 10
66340.6829833984
 20
24163.330078125
 30
0
  0
VERTEX
  8
LAY0_0
 10
66359.0850830078
 20
24172.0886230469
 30
0
  0
VERTEX
  8
LAY0_0
 10
66377.4261474609
 20
24180.9692382813
 30
0
  0
VERTEX
  8
LAY0_0
 10
66395.7214355469
 20
24189.94140625
 30
0
  0
VERTEX
  8
LAY0_0
 10
66413.9556884766
 20
24199.0356445313
 30
0
  0
VERTEX
  8
LAY0_0
 10
66432.12890625
 20
24208.251953125
 30
0
  0
VERTEX
  8
LAY0_0
 10
66450.2563476563
 20
24217.5598144531
 30
0
  0
VERTEX
  8
LAY0_0
 10
66468.3074951172
 20
24226.9592285156
 30
0
  0
VERTEX
  8
LAY0_0
 10
66486.328125
 20
24236.4807128906
 30
0
  0
VERTEX
  8
LAY0_0
 10
66504.2724609375
 20
24246.1242675781
 30
0
  0
VERTEX
  8
LAY0_0
 10
66522.1405029297
 20
24255.859375
 30
0
  0
VERTEX
  8
LAY0_0
 10
66539.9627685547
 20
24265.7165527344
 30
0
  0
VERTEX
  8
LAY0_0
 10
66557.7239990234
 20
24275.6652832031
 30
0
  0
VERTEX
  8
LAY0_0
 10
66575.4089355469
 20
24285.7360839844
 30
0
  0
VERTEX
  8
LAY0_0
 10
66593.0328369141
 20
24295.8984375
 30
0
  0
VERTEX
  8
LAY0_0
 10
66610.595703125
 20
24306.1828613281
 30
0
  0
VERTEX
  8
LAY0_0
 10
66628.0822753906
 20
24316.5588378906
 30
0
  0
VERTEX
  8
LAY0_0
 10
66645.4925537109
 20
24327.0568847656
 30
0
  0
VERTEX
  8
LAY0_0
 10
66662.8570556641
 20
24337.6770019531
 30
0
  0
VERTEX
  8
LAY0_0
 10
66680.1300048828
 20
24348.388671875
 30
0
  0
VERTEX
  8
LAY0_0
 10
66697.3419189453
 20
24359.1918945313
 30
0
  0
VERTEX
  8
LAY0_0
 10
66714.4622802734
 20
24370.1171875
 30
0
  0
VERTEX
  8
LAY0_0
 10
66731.5216064453
 20
24381.1645507813
 30
0
  0
VERTEX
  8
LAY0_0
 10
66748.5046386719
 20
24392.3034667969
 30
0
  0
VERTEX
  8
LAY0_0
 10
66765.4113769531
 20
24403.5339355469
 30
0
  0
VERTEX
  8
LAY0_0
 10
66782.2418212891
 20
24414.8864746094
 30
0
  0
VERTEX
  8
LAY0_0
 10
66798.9807128906
 20
24426.3610839844
 30
0
  0
VERTEX
  8
LAY0_0
 10
66815.6585693359
 20
24437.9272460938
 30
0
  0
VERTEX
  8
LAY0_0
 10
66832.2296142578
 20
24449.6154785156
 30
0
  0
VERTEX
  8
LAY0_0
 10
66848.7396240234
 20
24461.3952636719
 30
0
  0
VERTEX
  8
LAY0_0
 10
66865.1580810547
 20
24473.2666015625
 30
0
  0
VERTEX
  8
LAY0_0
 10
66881.4849853516
 20
24485.2600097656
 30
0
  0
VERTEX
  8
LAY0_0
 10
66897.7508544922
 20
24497.3754882813
 30
0
  0
VERTEX
  8
LAY0_0
 10
66913.9099121094
 20
24509.5825195313
 30
0
  0
VERTEX
  8
LAY0_0
 10
66929.9774169922
 20
24521.8811035156
 30
0
  0
VERTEX
  8
LAY0_0
 10
66945.9686279297
 20
24534.3017578125
 30
0
  0
VERTEX
  8
LAY0_0
 10
66961.8682861328
 20
24546.8444824219
 30
0
  0
VERTEX
  8
LAY0_0
 10
66977.6763916016
 20
24559.4787597656
 30
0
  0
VERTEX
  8
LAY0_0
 10
66993.3929443359
 20
24572.2045898438
 30
0
  0
VERTEX
  8
LAY0_0
 10
67009.0179443359
 20
24585.0524902344
 30
0
  0
VERTEX
  8
LAY0_0
 10
67024.5513916016
 20
24598.0224609375
 30
0
  0
VERTEX
  8
LAY0_0
 10
67039.9780273437
 20
24611.083984375
 30
0
  0
VERTEX
  8
LAY0_0
 10
67055.3131103516
 20
24624.2370605469
 30
0
  0
VERTEX
  8
LAY0_0
 10
67070.556640625
 20
24637.5122070313
 30
0
  0
VERTEX
  8
LAY0_0
 10
67085.693359375
 20
24650.9094238281
 30
0
  0
VERTEX
  8
LAY0_0
 10
67100.7385253906
 20
24664.3676757813
 30
0
  0
VERTEX
  8
LAY0_0
 10
67115.6768798828
 20
24677.978515625
 30
0
  0
VERTEX
  8
LAY0_0
 10
67130.5084228516
 20
24691.650390625
 30
0
  0
VERTEX
  8
LAY0_0
 10
67145.2484130859
 20
24705.4748535156
 30
0
  0
VERTEX
  8
LAY0_0
 10
67159.8815917969
 20
24719.3603515625
 30
0
  0
VERTEX
  8
LAY0_0
 10
67174.4079589844
 20
24733.3679199219
 30
0
  0
VERTEX
  8
LAY0_0
 10
67188.8275146484
 20
24747.4975585938
 30
0
  0
VERTEX
  8
LAY0_0
 10
67203.1402587891
 20
24761.71875
 30
0
  0
VERTEX
  8
LAY0_0
 10
67217.3614501953
 20
24776.0620117187
 30
0
  0
VERTEX
  8
LAY0_0
 10
67231.4605712891
 20
24790.4663085938
 30
0
  0
VERTEX
  8
LAY0_0
 10
67245.4986572266
 20
24804.9621582031
 30
0
  0
VERTEX
  8
LAY0_0
 10
67259.4604492188
 20
24819.5190429687
 30
0
  0
VERTEX
  8
LAY0_0
 10
67273.3917236328
 20
24834.0759277344
 30
0
  0
VERTEX
  8
LAY0_0
 10
67287.2772216797
 20
24848.6633300781
 30
0
  0
VERTEX
  8
LAY0_0
 10
67301.1627197266
 20
24863.2507324219
 30
0
  0
VERTEX
  8
LAY0_0
 10
67315.0787353516
 20
24877.7770996094
 30
0
  0
VERTEX
  8
LAY0_0
 10
67328.9947509766
 20
24892.2729492187
 30
0
  0
VERTEX
  8
LAY0_0
 10
67342.9718017578
 20
24906.6772460938
 30
0
  0
VERTEX
  8
LAY0_0
 10
67357.0098876953
 20
24921.0205078125
 30
0
  0
VERTEX
  8
LAY0_0
 10
67371.1242675781
 20
24935.2111816406
 30
0
  0
VERTEX
  8
LAY0_0
 10
67385.3302001953
 20
24949.2797851562
 30
0
  0
VERTEX
  8
LAY0_0
 10
67399.6734619141
 20
24963.1958007813
 30
0
  0
VERTEX
  8
LAY0_0
 10
67414.1540527344
 20
24976.9287109375
 30
0
  0
VERTEX
  8
LAY0_0
 10
67428.7719726563
 20
24990.4479980469
 30
0
  0
VERTEX
  8
LAY0_0
 10
67443.5729980469
 20
25003.7841796875
 30
0
  0
VERTEX
  8
LAY0_0
 10
67458.5723876953
 20
25016.845703125
 30
0
  0
VERTEX
  8
LAY0_0
 10
67473.7701416016
 20
25029.6630859375
 30
0
  0
VERTEX
  8
LAY0_0
 10
67489.1815185547
 20
25042.1752929687
 30
0
  0
VERTEX
  8
LAY0_0
 10
67504.8522949219
 20
25054.4128417969
 30
0
  0
VERTEX
  8
LAY0_0
 10
67520.7824707031
 20
25066.3146972656
 30
0
  0
VERTEX
  8
LAY0_0
 10
67536.9873046875
 20
25077.880859375
 30
0
  0
VERTEX
  8
LAY0_0
 10
67553.4210205078
 20
25089.1418457031
 30
0
  0
VERTEX
  8
LAY0_0
 10
67570.0836181641
 20
25100.1281738281
 30
0
  0
VERTEX
  8
LAY0_0
 10
67586.9293212891
 20
25110.9008789062
 30
0
  0
VERTEX
  8
LAY0_0
 10
67603.9123535156
 20
25121.4904785156
 30
0
  0
VERTEX
  8
LAY0_0
 10
67621.0174560547
 20
25131.9580078125
 30
0
  0
VERTEX
  8
LAY0_0
 10
67638.18359375
 20
25142.333984375
 30
0
  0
VERTEX
  8
LAY0_0
 10
67655.4107666016
 20
25152.6489257813
 30
0
  0
VERTEX
  8
LAY0_0
 10
67672.6379394531
 20
25162.9333496094
 30
0
  0
VERTEX
  8
LAY0_0
 10
67689.8345947266
 20
25173.2788085938
 30
0
  0
VERTEX
  8
LAY0_0
 10
67707.03125
 20
25183.6242675781
 30
0
  0
VERTEX
  8
LAY0_0
 10
67724.1821289063
 20
25194.0002441406
 30
0
  0
VERTEX
  8
LAY0_0
 10
67741.3177490234
 20
25204.4372558594
 30
0
  0
VERTEX
  8
LAY0_0
 10
67758.4228515625
 20
25214.9047851562
 30
0
  0
VERTEX
  8
LAY0_0
 10
67775.4974365234
 20
25225.3723144531
 30
0
  0
VERTEX
  8
LAY0_0
 10
67792.5567626953
 20
25235.9008789062
 30
0
  0
VERTEX
  8
LAY0_0
 10
67809.5855712891
 20
25246.4599609375
 30
0
  0
VERTEX
  8
LAY0_0
 10
67826.5991210937
 20
25257.0495605469
 30
0
  0
VERTEX
  8
LAY0_0
 10
67843.5821533203
 20
25267.6696777344
 30
0
  0
VERTEX
  8
LAY0_0
 10
67860.5499267578
 20
25278.2897949219
 30
0
  0
VERTEX
  8
LAY0_0
 10
67877.4871826172
 20
25288.9709472656
 30
0
  0
VERTEX
  8
LAY0_0
 10
67894.3939208984
 20
25299.6826171875
 30
0
  0
VERTEX
  8
LAY0_0
 10
67911.2854003906
 20
25310.3942871094
 30
0
  0
VERTEX
  8
LAY0_0
 10
67928.1616210937
 20
25321.1669921875
 30
0
  0
VERTEX
  8
LAY0_0
 10
67945.0073242188
 20
25331.9396972656
 30
0
  0
VERTEX
  8
LAY0_0
 10
67961.8377685547
 20
25342.7734375
 30
0
  0
VERTEX
  8
LAY0_0
 10
67978.6529541016
 20
25353.6071777344
 30
0
  0
VERTEX
  8
LAY0_0
 10
67995.4376220703
 20
25364.4714355469
 30
0
  0
VERTEX
  8
LAY0_0
 10
68012.20703125
 20
25375.3662109375
 30
0
  0
VERTEX
  8
LAY0_0
 10
68028.9611816406
 20
25386.2915039062
 30
0
  0
VERTEX
  8
LAY0_0
 10
68045.6848144531
 20
25397.216796875
 30
0
  0
VERTEX
  8
LAY0_0
 10
68062.4084472656
 20
25408.203125
 30
0
  0
VERTEX
  8
LAY0_0
 10
68079.1015625
 20
25419.189453125
 30
0
  0
VERTEX
  8
LAY0_0
 10
68095.7641601562
 20
25430.2062988281
 30
0
  0
VERTEX
  8
LAY0_0
 10
68112.4267578125
 20
25441.2231445313
 30
0
  0
VERTEX
  8
LAY0_0
 10
68129.0588378906
 20
25452.3010253906
 30
0
  0
VERTEX
  8
LAY0_0
 10
68145.6909179688
 20
25463.37890625
 30
0
  0
VERTEX
  8
LAY0_0
 10
68162.3077392578
 20
25474.4873046875
 30
0
  0
VERTEX
  8
LAY0_0
 10
68178.8940429688
 20
25485.595703125
 30
0
  0
VERTEX
  8
LAY0_0
 10
68195.4650878906
 20
25496.7651367187
 30
0
  0
VERTEX
  8
LAY0_0
 10
68212.0361328125
 20
25507.9040527344
 30
0
  0
VERTEX
  8
LAY0_0
 10
68228.5766601562
 20
25519.1040039062
 30
0
  0
VERTEX
  8
LAY0_0
 10
68245.1171875
 20
25530.3039550781
 30
0
  0
VERTEX
  8
LAY0_0
 10
68261.6424560547
 20
25541.5344238281
 30
0
  0
VERTEX
  8
LAY0_0
 10
68278.1372070312
 20
25552.7648925781
 30
0
  0
VERTEX
  8
LAY0_0
 10
68294.6472167969
 20
25564.0258789062
 30
0
  0
VERTEX
  8
LAY0_0
 10
68311.1267089844
 20
25575.3173828125
 30
0
  0
VERTEX
  8
LAY0_0
 10
68327.5756835938
 20
25586.6088867187
 30
0
  0
VERTEX
  8
LAY0_0
 10
68344.0399169922
 20
25597.900390625
 30
0
  0
VERTEX
  8
LAY0_0
 10
68360.4888916016
 20
25609.2529296875
 30
0
  0
VERTEX
  8
LAY0_0
 10
68376.9226074219
 20
25620.5749511719
 30
0
  0
VERTEX
  8
LAY0_0
 10
68393.3410644531
 20
25631.9274902344
 30
0
  0
VERTEX
  8
LAY0_0
 10
68409.7595214844
 20
25643.310546875
 30
0
  0
VERTEX
  8
LAY0_0
 10
68426.1627197266
 20
25654.6936035156
 30
0
  0
VERTEX
  8
LAY0_0
 10
68442.5506591797
 20
25666.1071777344
 30
0
  0
VERTEX
  8
LAY0_0
 10
68458.9385986328
 20
25677.5207519531
 30
0
  0
VERTEX
  8
LAY0_0
 10
68475.3112792969
 20
25688.9343261719
 30
0
  0
VERTEX
  8
LAY0_0
 10
68491.6839599609
 20
25700.3784179687
 30
0
  0
VERTEX
  8
LAY0_0
 10
68508.0413818359
 20
25711.8225097656
 30
0
  0
VERTEX
  8
LAY0_0
 10
68524.3988037109
 20
25723.2971191406
 30
0
  0
VERTEX
  8
LAY0_0
 10
68540.7409667969
 20
25734.7717285156
 30
0
  0
VERTEX
  8
LAY0_0
 10
68557.0678710937
 20
25746.2463378906
 30
0
  0
VERTEX
  8
LAY0_0
 10
68573.4100341797
 20
25757.7209472656
 30
0
  0
VERTEX
  8
LAY0_0
 10
68589.7369384766
 20
25769.2260742187
 30
0
  0
VERTEX
  8
LAY0_0
 10
68606.0485839844
 20
25780.7312011719
 30
0
  0
VERTEX
  8
LAY0_0
 10
68622.3754882813
 20
25792.2668457031
 30
0
  0
VERTEX
  8
LAY0_0
 10
68638.671875
 20
25803.8024902344
 30
0
  0
VERTEX
  8
LAY0_0
 10
68654.9987792969
 20
25815.3381347656
 30
0
  0
VERTEX
  8
LAY0_0
 10
68671.2951660156
 20
25826.8737792969
 30
0
  0
VERTEX
  8
LAY0_0
 10
68687.5915527344
 20
25838.4094238281
 30
0
  0
VERTEX
  8
LAY0_0
 10
68703.8879394531
 20
25849.9755859375
 30
0
  0
VERTEX
  8
LAY0_0
 10
68720.1690673828
 20
25861.5417480469
 30
0
  0
VERTEX
  8
LAY0_0
 10
68736.4654541016
 20
25873.1079101562
 30
0
  0
VERTEX
  8
LAY0_0
 10
68752.7465820312
 20
25884.6740722656
 30
0
  0
VERTEX
  8
LAY0_0
 10
68769.04296875
 20
25896.240234375
 30
0
  0
VERTEX
  8
LAY0_0
 10
68785.3240966797
 20
25907.8369140625
 30
0
  0
VERTEX
  8
LAY0_0
 10
68801.6052246094
 20
25919.4030761719
 30
0
  0
VERTEX
  8
LAY0_0
 10
68817.9016113281
 20
25930.9997558594
 30
0
  0
VERTEX
  8
LAY0_0
 10
68834.1674804687
 20
25942.5964355469
 30
0
  0
VERTEX
  8
LAY0_0
 10
68850.4638671875
 20
25954.1625976562
 30
0
  0
VERTEX
  8
LAY0_0
 10
68866.7449951172
 20
25965.7592773438
 30
0
  0
VERTEX
  8
LAY0_0
 10
68883.0261230469
 20
25977.3559570313
 30
0
  0
VERTEX
  8
LAY0_0
 10
68899.3225097656
 20
25988.9526367187
 30
0
  0
VERTEX
  8
LAY0_0
 10
68915.6036376953
 20
26000.5493164062
 30
0
  0
VERTEX
  8
LAY0_0
 10
68931.9000244141
 20
26012.1459960938
 30
0
  0
VERTEX
  8
LAY0_0
 10
68948.1964111328
 20
26023.7426757813
 30
0
  0
VERTEX
  8
LAY0_0
 10
68964.4927978516
 20
26035.3393554687
 30
0
  0
VERTEX
  8
LAY0_0
 10
68980.7891845703
 20
26046.9360351562
 30
0
  0
VERTEX
  8
LAY0_0
 10
68997.1008300781
 20
26058.5021972656
 30
0
  0
VERTEX
  8
LAY0_0
 10
69013.3972167969
 20
26070.0988769531
 30
0
  0
VERTEX
  8
LAY0_0
 10
69029.7241210937
 20
26081.6650390625
 30
0
  0
VERTEX
  8
LAY0_0
 10
69046.0357666016
 20
26093.26171875
 30
0
  0
VERTEX
  8
LAY0_0
 10
69062.3626708984
 20
26104.8278808594
 30
0
  0
VERTEX
  8
LAY0_0
 10
69078.6895751953
 20
26116.3940429687
 30
0
  0
VERTEX
  8
LAY0_0
 10
69095.0317382813
 20
26127.9602050781
 30
0
  0
VERTEX
  8
LAY0_0
 10
69111.3739013672
 20
26139.5263671875
 30
0
  0
VERTEX
  8
LAY0_0
 10
69127.7160644531
 20
26151.0925292969
 30
0
  0
VERTEX
  8
LAY0_0
 10
69144.0734863281
 20
26162.6281738281
 30
0
  0
VERTEX
  8
LAY0_0
 10
69160.4461669922
 20
26174.1638183594
 30
0
  0
VERTEX
  8
LAY0_0
 10
69176.8188476563
 20
26185.6994628906
 30
0
  0
VERTEX
  8
LAY0_0
 10
69193.2067871094
 20
26197.2351074219
 30
0
  0
VERTEX
  8
LAY0_0
 10
69209.5947265625
 20
26208.7707519531
 30
0
  0
VERTEX
  8
LAY0_0
 10
69225.9826660156
 20
26220.2758789062
 30
0
  0
VERTEX
  8
LAY0_0
 10
69242.4011230469
 20
26231.7810058594
 30
0
  0
VERTEX
  8
LAY0_0
 10
69258.8195800781
 20
26243.2556152344
 30
0
  0
VERTEX
  8
LAY0_0
 10
69275.2532958984
 20
26254.7302246094
 30
0
  0
VERTEX
  8
LAY0_0
 10
69291.6870117187
 20
26266.2048339844
 30
0
  0
VERTEX
  8
LAY0_0
 10
69308.1512451172
 20
26277.6794433594
 30
0
  0
VERTEX
  8
LAY0_0
 10
69324.6154785156
 20
26289.1235351562
 30
0
  0
VERTEX
  8
LAY0_0
 10
69341.0949707031
 20
26300.5676269531
 30
0
  0
VERTEX
  8
LAY0_0
 10
69357.5744628906
 20
26311.9812011719
 30
0
  0
VERTEX
  8
LAY0_0
 10
69374.0844726563
 20
26323.3947753906
 30
0
  0
VERTEX
  8
LAY0_0
 10
69390.5944824219
 20
26334.7778320313
 30
0
  0
VERTEX
  8
LAY0_0
 10
69407.1350097656
 20
26346.1608886719
 30
0
  0
VERTEX
  8
LAY0_0
 10
69423.6755371094
 20
26357.5439453125
 30
0
  0
VERTEX
  8
LAY0_0
 10
69440.2313232422
 20
26368.896484375
 30
0
  0
VERTEX
  8
LAY0_0
 10
69456.8023681641
 20
26380.2490234375
 30
0
  0
VERTEX
  8
LAY0_0
 10
69473.388671875
 20
26391.5710449219
 30
0
  0
VERTEX
  8
LAY0_0
 10
69490.0054931641
 20
26402.8625488281
 30
0
  0
VERTEX
  8
LAY0_0
 10
69506.6223144531
 20
26414.1845703125
 30
0
  0
VERTEX
  8
LAY0_0
 10
69523.2543945313
 20
26425.4455566406
 30
0
  0
VERTEX
  8
LAY0_0
 10
69539.8712158203
 20
26436.7370605469
 30
0
  0
VERTEX
  8
LAY0_0
 10
69556.5185546875
 20
26448.0285644531
 30
0
  0
VERTEX
  8
LAY0_0
 10
69573.1506347656
 20
26459.3200683594
 30
0
  0
VERTEX
  8
LAY0_0
 10
69589.7674560547
 20
26470.6115722656
 30
0
  0
VERTEX
  8
LAY0_0
 10
69606.3690185547
 20
26481.93359375
 30
0
  0
VERTEX
  8
LAY0_0
 10
69622.9705810547
 20
26493.2556152344
 30
0
  0
VERTEX
  8
LAY0_0
 10
69639.5416259766
 20
26504.638671875
 30
0
  0
VERTEX
  8
LAY0_0
 10
69656.0974121094
 20
26516.0217285156
 30
0
  0
VERTEX
  8
LAY0_0
 10
69672.6226806641
 20
26527.4353027344
 30
0
  0
VERTEX
  8
LAY0_0
 10
69689.1174316406
 20
26538.9099121094
 30
0
  0
VERTEX
  8
LAY0_0
 10
69705.56640625
 20
26550.4150390625
 30
0
  0
VERTEX
  8
LAY0_0
 10
69721.9848632813
 20
26561.9812011719
 30
0
  0
VERTEX
  8
LAY0_0
 10
69738.3422851562
 20
26573.6083984375
 30
0
  0
VERTEX
  8
LAY0_0
 10
69754.6691894531
 20
26585.2661132813
 30
0
  0
VERTEX
  8
LAY0_0
 10
69770.9350585938
 20
26597.0153808594
 30
0
  0
VERTEX
  8
LAY0_0
 10
69787.1551513672
 20
26608.8256835938
 30
0
  0
VERTEX
  8
LAY0_0
 10
69803.2989501953
 20
26620.6970214844
 30
0
  0
VERTEX
  8
LAY0_0
 10
69819.3817138672
 20
26632.6293945313
 30
0
  0
VERTEX
  8
LAY0_0
 10
69835.4034423828
 20
26644.6838378906
 30
0
  0
VERTEX
  8
LAY0_0
 10
69851.3488769531
 20
26656.7993164062
 30
0
  0
VERTEX
  8
LAY0_0
 10
69867.2027587891
 20
26669.0368652344
 30
0
  0
VERTEX
  8
LAY0_0
 10
69882.9956054687
 20
26681.3354492187
 30
0
  0
VERTEX
  8
LAY0_0
 10
69898.681640625
 20
26693.7561035156
 30
0
  0
VERTEX
  8
LAY0_0
 10
69914.2913818359
 20
26706.298828125
 30
0
  0
VERTEX
  8
LAY0_0
 10
69929.8095703125
 20
26718.9331054687
 30
0
  0
VERTEX
  8
LAY0_0
 10
69945.2209472656
 20
26731.6589355469
 30
0
  0
VERTEX
  8
LAY0_0
 10
69960.5255126953
 20
26744.5373535156
 30
0
  0
VERTEX
  8
LAY0_0
 10
69975.7385253906
 20
26757.5378417969
 30
0
  0
VERTEX
  8
LAY0_0
 10
69990.8294677734
 20
26770.6604003906
 30
0
  0
VERTEX
  8
LAY0_0
 10
70005.7983398438
 20
26783.935546875
 30
0
  0
VERTEX
  8
LAY0_0
 10
70020.6604003906
 20
26797.36328125
 30
0
  0
VERTEX
  8
LAY0_0
 10
70035.400390625
 20
26810.9130859375
 30
0
  0
VERTEX
  8
LAY0_0
 10
70050.0030517578
 20
26824.6154785156
 30
0
  0
VERTEX
  8
LAY0_0
 10
70064.4836425781
 20
26838.4704589844
 30
0
  0
VERTEX
  8
LAY0_0
 10
70078.8269042969
 20
26852.4780273438
 30
0
  0
VERTEX
  8
LAY0_0
 10
70093.0328369141
 20
26866.6687011719
 30
0
  0
VERTEX
  8
LAY0_0
 10
70107.0861816406
 20
26881.0119628906
 30
0
  0
VERTEX
  8
LAY0_0
 10
70121.0021972656
 20
26895.5383300781
 30
0
  0
VERTEX
  8
LAY0_0
 10
70134.7503662109
 20
26910.2172851562
 30
0
  0
VERTEX
  8
LAY0_0
 10
70148.3612060547
 20
26925.1098632813
 30
0
  0
VERTEX
  8
LAY0_0
 10
70161.8041992188
 20
26940.185546875
 30
0
  0
VERTEX
  8
LAY0_0
 10
70175.0793457031
 20
26955.4748535156
 30
0
  0
VERTEX
  8
LAY0_0
 10
70188.1713867187
 20
26970.9167480469
 30
0
  0
VERTEX
  8
LAY0_0
 10
70201.1108398438
 20
26986.6027832031
 30
0
  0
VERTEX
  8
LAY0_0
 10
70213.8671875
 20
27002.4719238281
 30
0
  0
VERTEX
  8
LAY0_0
 10
70226.4099121094
 20
27018.5546875
 30
0
  0
VERTEX
  8
LAY0_0
 10
70238.7084960937
 20
27034.8510742187
 30
0
  0
VERTEX
  8
LAY0_0
 10
70250.7171630859
 20
27051.3610839844
 30
0
  0
VERTEX
  8
LAY0_0
 10
70262.3901367187
 20
27068.115234375
 30
0
  0
VERTEX
  8
LAY0_0
 10
70273.6968994141
 20
27085.0524902344
 30
0
  0
VERTEX
  8
LAY0_0
 10
70284.5764160156
 20
27102.2338867187
 30
0
  0
VERTEX
  8
LAY0_0
 10
70295.0134277344
 20
27119.5983886719
 30
0
  0
VERTEX
  8
LAY0_0
 10
70304.9621582031
 20
27137.2375488281
 30
0
  0
VERTEX
  8
LAY0_0
 10
70314.3615722656
 20
27155.0598144531
 30
0
  0
VERTEX
  8
LAY0_0
 10
70323.1964111328
 20
27173.1262207031
 30
0
  0
VERTEX
  8
LAY0_0
 10
70331.4208984375
 20
27191.4367675781
 30
0
  0
VERTEX
  8
LAY0_0
 10
70338.9739990234
 20
27209.9609375
 30
0
  0
VERTEX
  8
LAY0_0
 10
70345.8404541016
 20
27228.7292480469
 30
0
  0
VERTEX
  8
LAY0_0
 10
70351.9744873047
 20
27247.7111816406
 30
0
  0
VERTEX
  8
LAY0_0
 10
70357.3150634766
 20
27266.9677734375
 30
0
  0
VERTEX
  8
LAY0_0
 10
70361.8469238281
 20
27286.4379882813
 30
0
  0
VERTEX
  8
LAY0_0
 10
70365.5242919922
 20
27306.15234375
 30
0
  0
VERTEX
  8
LAY0_0
 10
70368.3166503906
 20
27326.0498046875
 30
0
  0
VERTEX
  8
LAY0_0
 10
70370.2239990234
 20
27346.0998535156
 30
0
  0
VERTEX
  8
LAY0_0
 10
70371.2158203125
 20
27366.2414550781
 30
0
  0
VERTEX
  8
LAY0_0
 10
70371.2768554687
 20
27386.3830566406
 30
0
  0
VERTEX
  8
LAY0_0
 10
70370.4223632813
 20
27406.4636230469
 30
0
  0
VERTEX
  8
LAY0_0
 10
70368.6065673828
 20
27426.4526367187
 30
0
  0
VERTEX
  8
LAY0_0
 10
70365.8142089844
 20
27446.2585449219
 30
0
  0
VERTEX
  8
LAY0_0
 10
70362.1063232422
 20
27465.8813476562
 30
0
  0
VERTEX
  8
LAY0_0
 10
70357.5439453125
 20
27485.2905273438
 30
0
  0
VERTEX
  8
LAY0_0
 10
70352.2491455078
 20
27504.5471191406
 30
0
  0
VERTEX
  8
LAY0_0
 10
70346.3592529297
 20
27523.681640625
 30
0
  0
VERTEX
  8
LAY0_0
 10
70339.9810791016
 20
27542.6940917969
 30
0
  0
VERTEX
  8
LAY0_0
 10
70333.2366943359
 20
27561.6149902344
 30
0
  0
VERTEX
  8
LAY0_0
 10
70326.2634277344
 20
27580.4748535156
 30
0
  0
VERTEX
  8
LAY0_0
 10
70319.1528320312
 20
27599.3347167969
 30
0
  0
VERTEX
  8
LAY0_0
 10
70318.7561035156
 20
27600.341796875
 30
0
  0
SEQEND
  0
POLYLINE
  8
LAY0_0
  6
CONTINUOUS
 62
3
 66
  1
 10
0
 20
0
 30
0
  0
VERTEX
  8
LAY0_0
 10
115489.639282227
 20
29558.5327148438
 30
0
  0
VERTEX
  8
LAY0_0
 10
115369.888305664
 20
29466.796875
 30
0
  0
VERTEX
  8
LAY0_0
 10
115250.137329102
 20
29375.0610351562
 30
0
  0
VERTEX
  8
LAY0_0
 10
115130.401611328
 20
29283.3251953125
 30
0
  0
VERTEX
  8
LAY0_0
 10
115010.665893555
 20
29191.6198730469
 30
0
  0
VERTEX
  8
LAY0_0
 10
114890.914916992
 20
29099.8840332031
 30
0
  0
VERTEX
  8
LAY0_0
 10
114771.16394043
 20
29008.1481933594
 30
0
  0
VERTEX
  8
LAY0_0
 10
114651.428222656
 20
28916.4123535156
 30
0
  0
VERTEX
  8
LAY0_0
 10
114531.692504883
 20
28824.6765136719
 30
0
  0
VERTEX
  8
LAY0_0
 10
114411.94152832
 20
28732.9711914062
 30
0
  0
VERTEX
  8
LAY0_0
 10
114292.205810547
 20
28641.2353515625
 30
0
  0
SEQEND
  0
POLYLINE
  8
LAY0_0
  6
CONTINUOUS
 62
5
 66
  1
 10
0
 20
0
 30
0
  0
VERTEX
  8
LAY0_0
 10
67218.8262939453
 20
29950.5004882812
 30
0
  0
VERTEX
  8
LAY0_0
 10
67310.2264404297
 20
29905.7922363281
 30
0
  0
VERTEX
  8
LAY0_0
 10
67401.8402099609
 20
29862.0300292969
 30
0
  0
VERTEX
  8
LAY0_0
 10
67493.8354492188
 20
29820.0988769531
 30
0
  0
VERTEX
  8
LAY0_0
 10
67586.42578125
 20
29780.9448242188
 30
0
  0
VERTEX
  8
LAY0_0
 10
67679.7943115234
 20
29745.4833984375
 30
0
  0
VERTEX
  8
LAY0_0
 10
67774.1546630859
 20
29714.6301269531
 30
0
  0
VERTEX
  8
LAY0_0
 10
67869.6746826172
 20
29689.3310546875
 30
0
  0
VERTEX
  8
LAY0_0
 10
67966.5679931641
 20
29670.4406738281
 30
0
  0
VERTEX
  8
LAY0_0
 10
68064.8040771484
 20
29657.8674316406
 30
0
  0
VERTEX
  8
LAY0_0
 10
68164.1082763672
 20
29650.6042480469
 30
0
  0
VERTEX
  8
LAY0_0
 10
68264.2211914062
 20
29647.5524902344
 30
0
  0
VERTEX
  8
LAY0_0
 10
68364.8681640625
 20
29647.6135253906
 30
0
  0
VERTEX
  8
LAY0_0
 10
68465.8203125
 20
29649.7192382812
 30
0
  0
VERTEX
  8
LAY0_0
 10
68566.7724609375
 20
29652.7709960937
 30
0
  0
VERTEX
  8
LAY0_0
 10
68667.5109863281
 20
29655.7312011719
 30
0
  0
VERTEX
  8
LAY0_0
 10
68767.7154541016
 20
29657.5012207031
 30
0
  0
VERTEX
  8
LAY0_0
 10
68867.2180175781
 20
29657.1655273438
 30
0
  0
VERTEX
  8
LAY0_0
 10
68966.1560058594
 20
29654.7241210937
 30
0
  0
VERTEX
  8
LAY0_0
 10
69064.7583007812
 20
29650.4821777344
 30
0
  0
VERTEX
  8
LAY0_0
 10
69163.2385253906
 20
29644.7143554687
 30
0
  0
VERTEX
  8
LAY0_0
 10
69261.8408203125
 20
29637.7258300781
 30
0
  0
VERTEX
  8
LAY0_0
 10
69360.8093261719
 20
29629.8217773438
 30
0
  0
VERTEX
  8
LAY0_0
 10
69460.3881835938
 20
29621.2768554687
 30
0
  0
VERTEX
  8
LAY0_0
 10
69560.791015625
 20
29612.3657226562
 30
0
  0
VERTEX
  8
LAY0_0
 10
69662.2619628906
 20
29603.4240722656
 30
0
  0
VERTEX
  8
LAY0_0
 10
69765.0146484375
 20
29594.7265625
 30
0
  0
VERTEX
  8
LAY0_0
 10
69868.8659667969
 20
29585.8459472656
 30
0
  0
VERTEX
  8
LAY0_0
 10
69970.5047607422
 20
29571.3806152344
 30
0
  0
VERTEX
  8
LAY0_0
 10
70065.3076171875
 20
29543.8842773438
 30
0
  0
VERTEX
  8
LAY0_0
 10
70148.8342285156
 20
29496.1853027344
 30
0
  0
VERTEX
  8
LAY0_0
 10
70220.9167480469
 20
29428.2836914063
 30
0
  0
VERTEX
  8
LAY0_0
 10
70286.4837646484
 20
29348.9379882812
 30
0
  0
VERTEX
  8
LAY0_0
 10
70301.5289306641
 20
29329.6203613281
 30
0
  0
SEQEND
  0
POLYLINE
  8
LAY0_0
  6
CONTINUOUS
 62
3
 66
  1
 10
0
 20
0
 30
0
  0
VERTEX
  8
LAY0_0
 10
101709.426879883
 20
19256.5307617187
 30
0
  0
VERTEX
  8
LAY0_0
 10
102035.629272461
 20
19488.0065917969
 30
0
  0
VERTEX
  8
LAY0_0
 10
102361.81640625
 20
19719.5434570313
 30
0
  0
VERTEX
  8
LAY0_0
 10
102687.911987305
 20
19951.2023925781
 30
0
  0
VERTEX
  8
LAY0_0
 10
103013.870239258
 20
20183.0444335938
 30
0
  0
VERTEX
  8
LAY0_0
 10
103339.67590332
 20
20415.1000976562
 30
0
  0
VERTEX
  8
LAY0_0
 10
103665.267944336
 20
20647.4609375
 30
0
  0
VERTEX
  8
LAY0_0
 10
103990.615844727
 20
20880.1574707031
 30
0
  0
VERTEX
  8
LAY0_0
 10
104315.673828125
 20
21113.28125
 30
0
  0
VERTEX
  8
LAY0_0
 10
104640.426635742
 20
21346.8017578125
 30
0
  0
VERTEX
  8
LAY0_0
 10
104964.874267578
 20
21580.7800292969
 30
0
  0
VERTEX
  8
LAY0_0
 10
105288.986206055
 20
21815.2160644531
 30
0
  0
VERTEX
  8
LAY0_0
 10
105612.762451172
 20
22050.1098632813
 30
0
  0
VERTEX
  8
LAY0_0
 10
105936.172485352
 20
22285.4919433594
 30
0
  0
VERTEX
  8
LAY0_0
 10
106259.231567383
 20
22521.3928222656
 30
0
  0
VERTEX
  8
LAY0_0
 10
106581.924438477
 20
22757.7819824219
 30
0
  0
VERTEX
  8
LAY0_0
 10
106904.220581055
 20
22994.6899414062
 30
0
  0
VERTEX
  8
LAY0_0
 10
107226.119995117
 20
23232.1472167969
 30
0
  0
VERTEX
  8
LAY0_0
 10
107547.592163086
 20
23470.1538085938
 30
0
  0
VERTEX
  8
LAY0_0
 10
107868.637084961
 20
23708.740234375
 30
0
  0
VERTEX
  8
LAY0_0
 10
108189.28527832
 20
23947.9064941406
 30
0
  0
VERTEX
  8
LAY0_0
 10
108509.506225586
 20
24187.5610351562
 30
0
  0
VERTEX
  8
LAY0_0
 10
108829.391479492
 20
24427.734375
 30
0
  0
VERTEX
  8
LAY0_0
 10
109148.971557617
 20
24668.2739257813
 30
0
  0
VERTEX
  8
LAY0_0
 10
109468.292236328
 20
24909.1796875
 30
0
  0
VERTEX
  8
LAY0_0
 10
109787.384033203
 20
25150.390625
 30
0
  0
VERTEX
  8
LAY0_0
 10
110106.307983398
 20
25391.845703125
 30
0
  0
VERTEX
  8
LAY0_0
 10
110425.094604492
 20
25633.4533691406
 30
0
  0
VERTEX
  8
LAY0_0
 10
110743.789672852
 20
25875.1831054687
 30
0
  0
VERTEX
  8
LAY0_0
 10
111062.454223633
 20
26117.0043945313
 30
0
  0
VERTEX
  8
LAY0_0
 10
111070.938110352
 20
26123.4436035156
 30
0
  0
SEQEND
  0
POLYLINE
  8
LAY0_0
  6
CONTINUOUS
 62
5
 66
  1
 10
0
 20
0
 30
0
  0
VERTEX
  8
LAY0_0
 10
60046.9055175781
 20
60388.0920410156
 30
0
  0
VERTEX
  8
LAY0_0
 10
60122.7493286133
 20
60202.7893066406
 30
0
  0
VERTEX
  8
LAY0_0
 10
60199.0432739258
 20
60017.7307128906
 30
0
  0
VERTEX
  8
LAY0_0
 10
60276.2603759766
 20
59833.1298828125
 30
0
  0
VERTEX
  8
LAY0_0
 10
60354.8583984375
 20
59649.2919921875
 30
0
  0
VERTEX
  8
LAY0_0
 10
60435.2951049805
 20
59466.3696289063
 30
0
  0
VERTEX
  8
LAY0_0
 10
60518.0206298828
 20
59284.66796875
 30
0
  0
VERTEX
  8
LAY0_0
 10
60602.8823852539
 20
59104.00390625
 30
0
  0
VERTEX
  8
LAY0_0
 10
60689.0411376953
 20
58923.8586425781
 30
0
  0
VERTEX
  8
LAY0_0
 10
60775.6118774414
 20
58743.5913085938
 30
0
  0
VERTEX
  8
LAY0_0
 10
60861.6790771484
 20
58562.6831054687
 30
0
  0
VERTEX
  8
LAY0_0
 10
60946.418762207
 20
58380.4931640625
 30
0
  0
VERTEX
  8
LAY0_0
 10
61030.8456420898
 20
58197.8759765625
 30
0
  0
VERTEX
  8
LAY0_0
 10
61119.1177368164
 20
58017.7917480469
 30
0
  0
VERTEX
  8
LAY0_0
 10
61215.6372070312
 20
57843.4753417969
 30
0
  0
VERTEX
  8
LAY0_0
 10
61324.6154785156
 20
57677.978515625
 30
0
  0
VERTEX
  8
LAY0_0
 10
61446.7163085938
 20
57521.8200683594
 30
0
  0
VERTEX
  8
LAY0_0
 10
61579.6051025391
 20
57373.3825683594
 30
0
  0
VERTEX
  8
LAY0_0
 10
61720.9014892578
 20
57230.95703125
 30
0
  0
VERTEX
  8
LAY0_0
 10
61868.1793212891
 20
57092.9260253906
 30
0
  0
VERTEX
  8
LAY0_0
 10
62019.0353393555
 20
56957.5500488281
 30
0
  0
VERTEX
  8
LAY0_0
 10
62171.0662841797
 20
56823.1811523438
 30
0
  0
VERTEX
  8
LAY0_0
 10
62327.4536132813
 20
56697.9064941406
 30
0
  0
VERTEX
  8
LAY0_0
 10
62504.4479370117
 20
56611.8774414063
 30
0
  0
VERTEX
  8
LAY0_0
 10
62698.1506347656
 20
56556.9458007812
 30
0
  0
VERTEX
  8
LAY0_0
 10
62895.2178955078
 20
56507.1105957031
 30
0
  0
VERTEX
  8
LAY0_0
 10
63086.8530273437
 20
56445.7397460937
 30
0
  0
VERTEX
  8
LAY0_0
 10
63275.1235961914
 20
56378.7231445313
 30
0
  0
VERTEX
  8
LAY0_0
 10
63463.6535644531
 20
56315.185546875
 30
0
  0
VERTEX
  8
LAY0_0
 10
63655.7769775391
 20
56263.6108398438
 30
0
  0
VERTEX
  8
LAY0_0
 10
63852.0355224609
 20
56226.2878417969
 30
0
  0
VERTEX
  8
LAY0_0
 10
64051.3763427734
 20
56202.1789550781
 30
0
  0
VERTEX
  8
LAY0_0
 10
64252.7618408203
 20
56190.185546875
 30
0
  0
VERTEX
  8
LAY0_0
 10
64455.1239013672
 20
56189.2700195313
 30
0
  0
VERTEX
  8
LAY0_0
 10
64657.4554443359
 20
56198.3337402344
 30
0
  0
VERTEX
  8
LAY0_0
 10
64858.6578369141
 20
56216.2475585937
 30
0
  0
VERTEX
  8
LAY0_0
 10
65057.8765869141
 20
56242.1264648438
 30
0
  0
VERTEX
  8
LAY0_0
 10
65255.0201416016
 20
56275.9399414063
 30
0
  0
VERTEX
  8
LAY0_0
 10
65450.3479003906
 20
56318.0236816406
 30
0
  0
VERTEX
  8
LAY0_0
 10
65644.1040039063
 20
56368.7133789063
 30
0
  0
VERTEX
  8
LAY0_0
 10
65835.8459472656
 20
56428.8024902344
 30
0
  0
VERTEX
  8
LAY0_0
 10
66023.6358642578
 20
56500
 30
0
  0
VERTEX
  8
LAY0_0
 10
66205.3680419922
 20
56584.1369628906
 30
0
  0
VERTEX
  8
LAY0_0
 10
66379.0130615234
 20
56683.0139160156
 30
0
  0
VERTEX
  8
LAY0_0
 10
66545.3186035156
 20
56794.8303222656
 30
0
  0
VERTEX
  8
LAY0_0
 10
66706.2072753906
 20
56915.8325195313
 30
0
  0
VERTEX
  8
LAY0_0
 10
66860.3668212891
 20
57045.8374023438
 30
0
  0
VERTEX
  8
LAY0_0
 10
67006.2255859375
 20
57184.814453125
 30
0
  0
VERTEX
  8
LAY0_0
 10
67142.2882080078
 20
57332.7331542969
 30
0
  0
VERTEX
  8
LAY0_0
 10
67267.0135498047
 20
57489.5935058594
 30
0
  0
VERTEX
  8
LAY0_0
 10
67379.1046142578
 20
57655.2429199219
 30
0
  0
VERTEX
  8
LAY0_0
 10
67480.1788330078
 20
57827.9724121094
 30
0
  0
VERTEX
  8
LAY0_0
 10
67573.5473632813
 20
58005.126953125
 30
0
  0
VERTEX
  8
LAY0_0
 10
67662.2009277344
 20
58184.4482421875
 30
0
  0
VERTEX
  8
LAY0_0
 10
67748.1384277344
 20
58365.0207519531
 30
0
  0
VERTEX
  8
LAY0_0
 10
67833.1451416016
 20
58546.0510253906
 30
0
  0
VERTEX
  8
LAY0_0
 10
67918.4417724609
 20
58727.0812988281
 30
0
  0
VERTEX
  8
LAY0_0
 10
68002.9296875
 20
58908.5083007812
 30
0
  0
VERTEX
  8
LAY0_0
 10
68084.9914550781
 20
59090.8813476563
 30
0
  0
VERTEX
  8
LAY0_0
 10
68163.0096435547
 20
59274.8107910156
 30
0
  0
VERTEX
  8
LAY0_0
 10
68235.8093261719
 20
59460.6628417969
 30
0
  0
VERTEX
  8
LAY0_0
 10
68303.5278320312
 20
59648.4375
 30
0
  0
VERTEX
  8
LAY0_0
 10
68366.5161132813
 20
59838.0126953125
 30
0
  0
VERTEX
  8
LAY0_0
 10
68425.0640869141
 20
60029.2663574219
 30
0
  0
VERTEX
  8
LAY0_0
 10
68479.5227050781
 20
60222.0764160156
 30
0
  0
VERTEX
  8
LAY0_0
 10
68530.2429199219
 20
60416.3513183594
 30
0
  0
VERTEX
  8
LAY0_0
 10
68577.5451660156
 20
60611.9384765625
 30
0
  0
VERTEX
  8
LAY0_0
 10
68622.0397949219
 20
60808.6242675781
 30
0
  0
VERTEX
  8
LAY0_0
 10
68666.6717529297
 20
61005.2185058594
 30
0
  0
VERTEX
  8
LAY0_0
 10
68715.7135009766
 20
61199.951171875
 30
0
  0
VERTEX
  8
LAY0_0
 10
68773.3917236328
 20
61391.11328125
 30
0
  0
VERTEX
  8
LAY0_0
 10
68843.9331054687
 20
61576.9653320312
 30
0
  0
VERTEX
  8
LAY0_0
 10
68930.4809570312
 20
61756.2561035156
 30
0
  0
VERTEX
  8
LAY0_0
 10
69026.2756347656
 20
61932.12890625
 30
0
  0
VERTEX
  8
LAY0_0
 10
69120.1019287109
 20
62109.619140625
 30
0
  0
VERTEX
  8
LAY0_0
 10
69211.0595703125
 20
62288.1774902344
 30
0
  0
VERTEX
  8
LAY0_0
 10
69309.2041015625
 20
62461.181640625
 30
0
  0
VERTEX
  8
LAY0_0
 10
69421.38671875
 20
62624.1760253906
 30
0
  0
VERTEX
  8
LAY0_0
 10
69546.5087890625
 20
62777.9235839844
 30
0
  0
VERTEX
  8
LAY0_0
 10
69682.4645996094
 20
62923.828125
 30
0
  0
VERTEX
  8
LAY0_0
 10
69827.0874023437
 20
63063.3239746094
 30
0
  0
VERTEX
  8
LAY0_0
 10
69978.271484375
 20
63197.8454589844
 30
0
  0
VERTEX
  8
LAY0_0
 10
70133.8500976563
 20
63328.857421875
 30
0
  0
VERTEX
  8
LAY0_0
 10
70291.7175292969
 20
63457.7331542969
 30
0
  0
VERTEX
  8
LAY0_0
 10
70449.70703125
 20
63585.9375
 30
0
  0
VERTEX
  8
LAY0_0
 10
70606.3537597656
 20
63714.3859863281
 30
0
  0
VERTEX
  8
LAY0_0
 10
70762.0239257812
 20
63842.6513671875
 30
0
  0
VERTEX
  8
LAY0_0
 10
70917.3889160156
 20
63969.970703125
 30
0
  0
VERTEX
  8
LAY0_0
 10
71073.1048583984
 20
64095.703125
 30
0
  0
VERTEX
  8
LAY0_0
 10
71229.8431396484
 20
64219.1162109375
 30
0
  0
VERTEX
  8
LAY0_0
 10
71388.2751464844
 20
64339.5080566406
 30
0
  0
VERTEX
  8
LAY0_0
 10
71549.0570068359
 20
64456.2072753906
 30
0
  0
VERTEX
  8
LAY0_0
 10
71712.8753662109
 20
64568.4814453125
 30
0
  0
VERTEX
  8
LAY0_0
 10
71880.3253173828
 20
64675.7202148438
 30
0
  0
VERTEX
  8
LAY0_0
 10
72051.0864257812
 20
64778.5034179688
 30
0
  0
VERTEX
  8
LAY0_0
 10
72224.2584228516
 20
64878.173828125
 30
0
  0
VERTEX
  8
LAY0_0
 10
72398.8647460937
 20
64976.1047363281
 30
0
  0
VERTEX
  8
LAY0_0
 10
72573.9593505859
 20
65073.6389160156
 30
0
  0
VERTEX
  8
LAY0_0
 10
72748.6114501953
 20
65172.1801757812
 30
0
  0
VERTEX
  8
LAY0_0
 10
72921.875
 20
65273.1018066406
 30
0
  0
VERTEX
  8
LAY0_0
 10
73092.9565429688
 20
65377.5024414062
 30
0
  0
VERTEX
  8
LAY0_0
 10
73262.2680664062
 20
65484.5581054687
 30
0
  0
VERTEX
  8
LAY0_0
 10
73430.7861328125
 20
65592.7124023437
 30
0
  0
VERTEX
  8
LAY0_0
 10
73599.4873046875
 20
65700.1953125
 30
0
  0
VERTEX
  8
LAY0_0
 10
73769.3176269531
 20
65805.4504394531
 30
0
  0
VERTEX
  8
LAY0_0
 10
73941.2384033203
 20
65906.7687988281
 30
0
  0
VERTEX
  8
LAY0_0
 10
74116.1193847656
 20
66002.685546875
 30
0
  0
VERTEX
  8
LAY0_0
 10
74293.8690185547
 20
66093.4753417969
 30
0
  0
VERTEX
  8
LAY0_0
 10
74473.876953125
 20
66180.17578125
 30
0
  0
VERTEX
  8
LAY0_0
 10
74655.5023193359
 20
66264.0075683594
 30
0
  0
VERTEX
  8
LAY0_0
 10
74838.1652832031
 20
66346.0693359375
 30
0
  0
VERTEX
  8
LAY0_0
 10
75021.2249755859
 20
66427.490234375
 30
0
  0
VERTEX
  8
LAY0_0
 10
75204.0863037109
 20
66509.3994140625
 30
0
  0
VERTEX
  8
LAY0_0
 10
75386.1083984375
 20
66592.9565429688
 30
0
  0
VERTEX
  8
LAY0_0
 10
75566.7114257812
 20
66679.2907714844
 30
0
  0
VERTEX
  8
LAY0_0
 10
75745.3002929688
 20
66769.4396972656
 30
0
  0
VERTEX
  8
LAY0_0
 10
75921.9360351562
 20
66863.3117675781
 30
0
  0
VERTEX
  8
LAY0_0
 10
76097.0764160156
 20
66959.9609375
 30
0
  0
VERTEX
  8
LAY0_0
 10
76271.2097167969
 20
67058.5632324219
 30
0
  0
VERTEX
  8
LAY0_0
 10
76444.7784423828
 20
67158.1420898438
 30
0
  0
VERTEX
  8
LAY0_0
 10
76618.2556152344
 20
67257.8735351562
 30
0
  0
VERTEX
  8
LAY0_0
 10
76792.1295166016
 20
67356.7810058594
 30
0
  0
VERTEX
  8
LAY0_0
 10
76966.8579101562
 20
67454.0405273437
 30
0
  0
VERTEX
  8
LAY0_0
 10
77142.9138183594
 20
67548.6755371094
 30
0
  0
VERTEX
  8
LAY0_0
 10
77320.7397460937
 20
67639.8620605469
 30
0
  0
VERTEX
  8
LAY0_0
 10
77500.4425048828
 20
67727.3559570312
 30
0
  0
VERTEX
  8
LAY0_0
 10
77681.8542480469
 20
67811.4318847656
 30
0
  0
VERTEX
  8
LAY0_0
 10
77864.7766113281
 20
67892.4560546875
 30
0
  0
VERTEX
  8
LAY0_0
 10
78048.9959716797
 20
67970.703125
 30
0
  0
VERTEX
  8
LAY0_0
 10
78234.3292236328
 20
68046.5393066406
 30
0
  0
VERTEX
  8
LAY0_0
 10
78420.5627441406
 20
68120.3002929688
 30
0
  0
VERTEX
  8
LAY0_0
 10
78607.5134277344
 20
68192.2607421875
 30
0
  0
VERTEX
  8
LAY0_0
 10
78794.9523925781
 20
68262.7868652344
 30
0
  0
VERTEX
  8
LAY0_0
 10
78982.7270507812
 20
68332.2143554687
 30
0
  0
VERTEX
  8
LAY0_0
 10
79170.6085205078
 20
68400.8483886719
 30
0
  0
VERTEX
  8
LAY0_0
 10
79358.2763671875
 20
68469.5739746094
 30
0
  0
VERTEX
  8
LAY0_0
 10
79545.3033447266
 20
68539.794921875
 30
0
  0
VERTEX
  8
LAY0_0
 10
79731.2774658203
 20
68612.8234863281
 30
0
  0
VERTEX
  8
LAY0_0
 10
79915.7562255859
 20
68690.0329589844
 30
0
  0
VERTEX
  8
LAY0_0
 10
80098.3276367187
 20
68772.7966308594
 30
0
  0
VERTEX
  8
LAY0_0
 10
80278.5491943359
 20
68862.4877929688
 30
0
  0
VERTEX
  8
LAY0_0
 10
80457.1533203125
 20
68956.5734863281
 30
0
  0
VERTEX
  8
LAY0_0
 10
80637.5732421875
 20
69042.96875
 30
0
  0
VERTEX
  8
LAY0_0
 10
80823.6694335938
 20
69108.3984375
 30
0
  0
VERTEX
  8
LAY0_0
 10
81016.9219970703
 20
69148.92578125
 30
0
  0
VERTEX
  8
LAY0_0
 10
81215.1184082031
 20
69175.1708984375
 30
0
  0
VERTEX
  8
LAY0_0
 10
81415.771484375
 20
69199.0966796875
 30
0
  0
VERTEX
  8
LAY0_0
 10
81616.3330078125
 20
69232.4829101562
 30
0
  0
VERTEX
  8
LAY0_0
 10
81814.6209716797
 20
69266.6320800781
 30
0
  0
VERTEX
  8
LAY0_0
 10
82009.2620849609
 20
69251.220703125
 30
0
  0
VERTEX
  8
LAY0_0
 10
82201.66015625
 20
69189.5446777344
 30
0
  0
VERTEX
  8
LAY0_0
 10
82394.7448730469
 20
69123.4741210937
 30
0
  0
VERTEX
  8
LAY0_0
 10
82585.6781005859
 20
69061.6455078125
 30
0
  0
VERTEX
  8
LAY0_0
 10
82766.6015625
 20
68983.1848144531
 30
0
  0
VERTEX
  8
LAY0_0
 10
82933.7768554687
 20
68876.0986328125
 30
0
  0
VERTEX
  8
LAY0_0
 10
83094.4213867187
 20
68754.5166015625
 30
0
  0
VERTEX
  8
LAY0_0
 10
83257.4157714844
 20
68636.2609863281
 30
0
  0
VERTEX
  8
LAY0_0
 10
83425.3997802734
 20
68527.4963378906
 30
0
  0
VERTEX
  8
LAY0_0
 10
83592.9260253906
 20
68419.0368652344
 30
0
  0
VERTEX
  8
LAY0_0
 10
83755.4473876953
 20
68303.1005859375
 30
0
  0
VERTEX
  8
LAY0_0
 10
83914.3676757812
 20
68181.5490722656
 30
0
  0
VERTEX
  8
LAY0_0
 10
84072.509765625
 20
68058.6547851562
 30
0
  0
VERTEX
  8
LAY0_0
 10
84232.6965332031
 20
67938.6596679688
 30
0
  0
VERTEX
  8
LAY0_0
 10
84397.5219726563
 20
67825.5615234375
 30
0
  0
VERTEX
  8
LAY0_0
 10
84566.6656494141
 20
67718.8415527344
 30
0
  0
VERTEX
  8
LAY0_0
 10
84737.6403808594
 20
67614.8376464844
 30
0
  0
VERTEX
  8
LAY0_0
 10
84908.1115722656
 20
67510.1013183594
 30
0
  0
VERTEX
  8
LAY0_0
 10
85077.5146484375
 20
67403.7475585938
 30
0
  0
VERTEX
  8
LAY0_0
 10
85246.3531494141
 20
67296.6003417969
 30
0
  0
VERTEX
  8
LAY0_0
 10
85415.1916503906
 20
67189.4226074219
 30
0
  0
VERTEX
  8
LAY0_0
 10
85584.5642089844
 20
67083.0688476563
 30
0
  0
VERTEX
  8
LAY0_0
 10
85754.4860839844
 20
66977.5085449219
 30
0
  0
VERTEX
  8
LAY0_0
 10
85923.8891601562
 20
66871.2158203125
 30
0
  0
VERTEX
  8
LAY0_0
 10
86091.5832519531
 20
66762.2985839844
 30
0
  0
VERTEX
  8
LAY0_0
 10
86257.0037841797
 20
66649.9633789063
 30
0
  0
VERTEX
  8
LAY0_0
 10
86420.7153320312
 20
66535.0341796875
 30
0
  0
VERTEX
  8
LAY0_0
 10
86583.4197998047
 20
66418.6401367187
 30
0
  0
VERTEX
  8
LAY0_0
 10
86648.2238769531
 20
66372.0092773437
 30
0
  0
SEQEND
  0
POLYLINE
  8
LAY0_0
  6
CONTINUOUS
 62
5
 66
  1
 10
0
 20
0
 30
0
  0
VERTEX
  8
LAY0_0
 10
77867.5842285156
 20
26571.7468261719
 30
0
  0
VERTEX
  8
LAY0_0
 10
77847.6104736328
 20
26572.75390625
 30
0
  0
VERTEX
  8
LAY0_0
 10
77827.63671875
 20
26573.7915039062
 30
0
  0
VERTEX
  8
LAY0_0
 10
77807.6629638672
 20
26574.8291015625
 30
0
  0
VERTEX
  8
LAY0_0
 10
77787.6892089844
 20
26575.8666992187
 30
0
  0
VERTEX
  8
LAY0_0
 10
77767.7307128906
 20
26576.904296875
 30
0
  0
VERTEX
  8
LAY0_0
 10
77747.7416992188
 20
26577.9418945313
 30
0
  0
VERTEX
  8
LAY0_0
 10
77727.7679443359
 20
26578.9794921875
 30
0
  0
VERTEX
  8
LAY0_0
 10
77707.7941894531
 20
26580.0170898438
 30
0
  0
VERTEX
  8
LAY0_0
 10
77687.8204345703
 20
26581.0546875
 30
0
  0
VERTEX
  8
LAY0_0
 10
77667.8466796875
 20
26582.0922851562
 30
0
  0
VERTEX
  8
LAY0_0
 10
77647.8729248047
 20
26583.1298828125
 30
0
  0
VERTEX
  8
LAY0_0
 10
77627.8991699219
 20
26584.1674804687
 30
0
  0
VERTEX
  8
LAY0_0
 10
77607.9406738281
 20
26585.205078125
 30
0
  0
VERTEX
  8
LAY0_0
 10
77587.9516601562
 20
26586.2426757813
 30
0
  0
VERTEX
  8
LAY0_0
 10
77567.9931640625
 20
26587.3107910156
 30
0
  0
VERTEX
  8
LAY0_0
 10
77548.0194091797
 20
26588.3483886719
 30
0
  0
VERTEX
  8
LAY0_0
 10
77528.0456542969
 20
26589.3859863281
 30
0
  0
VERTEX
  8
LAY0_0
 10
77508.0718994141
 20
26590.4541015625
 30
0
  0
VERTEX
  8
LAY0_0
 10
77488.0981445313
 20
26591.4916992187
 30
0
  0
VERTEX
  8
LAY0_0
 10
77468.1243896484
 20
26592.5598144531
 30
0
  0
VERTEX
  8
LAY0_0
 10
77448.1506347656
 20
26593.6279296875
 30
0
  0
VERTEX
  8
LAY0_0
 10
77428.1768798828
 20
26594.6960449219
 30
0
  0
VERTEX
  8
LAY0_0
 10
77408.203125
 20
26595.7336425781
 30
0
  0
VERTEX
  8
LAY0_0
 10
77388.2446289063
 20
26596.8017578125
 30
0
  0
VERTEX
  8
LAY0_0
 10
77368.2708740234
 20
26597.900390625
 30
0
  0
VERTEX
  8
LAY0_0
 10
77348.2971191406
 20
26598.9685058594
 30
0
  0
VERTEX
  8
LAY0_0
 10
77328.3233642578
 20
26600.0366210938
 30
0
  0
VERTEX
  8
LAY0_0
 10
77308.349609375
 20
26601.1047363281
 30
0
  0
VERTEX
  8
LAY0_0
 10
77288.3911132813
 20
26602.2033691406
 30
0
  0
VERTEX
  8
LAY0_0
 10
77268.4020996094
 20
26603.3020019531
 30
0
  0
VERTEX
  8
LAY0_0
 10
77248.4436035156
 20
26604.4006347656
 30
0
  0
VERTEX
  8
LAY0_0
 10
77228.4698486328
 20
26605.4992675781
 30
0
  0
VERTEX
  8
LAY0_0
 10
77208.49609375
 20
26606.5979003906
 30
0
  0
VERTEX
  8
LAY0_0
 10
77188.5375976563
 20
26607.6965332031
 30
0
  0
VERTEX
  8
LAY0_0
 10
77168.5638427734
 20
26608.7951660156
 30
0
  0
VERTEX
  8
LAY0_0
 10
77148.5900878906
 20
26609.9243164062
 30
0
  0
VERTEX
  8
LAY0_0
 10
77128.6315917969
 20
26611.0229492187
 30
0
  0
VERTEX
  8
LAY0_0
 10
77108.6578369141
 20
26612.1520996094
 30
0
  0
VERTEX
  8
LAY0_0
 10
77088.6840820312
 20
26613.28125
 30
0
  0
VERTEX
  8
LAY0_0
 10
77068.7255859375
 20
26614.4104003906
 30
0
  0
VERTEX
  8
LAY0_0
 10
77048.7518310547
 20
26615.5700683594
 30
0
  0
VERTEX
  8
LAY0_0
 10
77028.7780761719
 20
26616.69921875
 30
0
  0
VERTEX
  8
LAY0_0
 10
77008.8195800781
 20
26617.8588867187
 30
0
  0
VERTEX
  8
LAY0_0
 10
76988.8610839844
 20
26619.0185546875
 30
0
  0
VERTEX
  8
LAY0_0
 10
76968.8873291016
 20
26620.1782226562
 30
0
  0
VERTEX
  8
LAY0_0
 10
76948.9135742188
 20
26621.337890625
 30
0
  0
VERTEX
  8
LAY0_0
 10
76928.955078125
 20
26622.4975585938
 30
0
  0
VERTEX
  8
LAY0_0
 10
76908.9965820312
 20
26623.6877441406
 30
0
  0
VERTEX
  8
LAY0_0
 10
76889.0228271484
 20
26624.8779296875
 30
0
  0
VERTEX
  8
LAY0_0
 10
76869.0490722656
 20
26626.0681152344
 30
0
  0
VERTEX
  8
LAY0_0
 10
76849.0905761719
 20
26627.2583007813
 30
0
  0
VERTEX
  8
LAY0_0
 10
76829.1320800781
 20
26628.4484863281
 30
0
  0
VERTEX
  8
LAY0_0
 10
76809.1735839844
 20
26629.6691894531
 30
0
  0
VERTEX
  8
LAY0_0
 10
76789.2150878906
 20
26630.8898925781
 30
0
  0
VERTEX
  8
LAY0_0
 10
76769.2413330078
 20
26632.1105957031
 30
0
  0
VERTEX
  8
LAY0_0
 10
76749.2828369141
 20
26633.3312988281
 30
0
  0
VERTEX
  8
LAY0_0
 10
76729.3243408203
 20
26634.5825195313
 30
0
  0
VERTEX
  8
LAY0_0
 10
76709.3505859375
 20
26635.8337402344
 30
0
  0
VERTEX
  8
LAY0_0
 10
76689.3920898438
 20
26637.0849609375
 30
0
  0
VERTEX
  8
LAY0_0
 10
76669.43359375
 20
26638.3361816406
 30
0
  0
VERTEX
  8
LAY0_0
 10
76649.4750976563
 20
26639.6179199219
 30
0
  0
VERTEX
  8
LAY0_0
 10
76629.5166015625
 20
26640.8996582031
 30
0
  0
VERTEX
  8
LAY0_0
 10
76609.5581054687
 20
26642.1813964844
 30
0
  0
VERTEX
  8
LAY0_0
 10
76589.599609375
 20
26643.4631347656
 30
0
  0
VERTEX
  8
LAY0_0
 10
76569.6411132813
 20
26644.775390625
 30
0
  0
VERTEX
  8
LAY0_0
 10
76549.6826171875
 20
26646.0876464844
 30
0
  0
VERTEX
  8
LAY0_0
 10
76529.7241210937
 20
26647.3999023438
 30
0
  0
VERTEX
  8
LAY0_0
 10
76509.765625
 20
26648.7121582031
 30
0
  0
VERTEX
  8
LAY0_0
 10
76489.8071289063
 20
26650.0549316406
 30
0
  0
VERTEX
  8
LAY0_0
 10
76469.8486328125
 20
26651.3977050781
 30
0
  0
VERTEX
  8
LAY0_0
 10
76449.9053955078
 20
26652.7404785156
 30
0
  0
VERTEX
  8
LAY0_0
 10
76429.9468994141
 20
26654.1137695313
 30
0
  0
VERTEX
  8
LAY0_0
 10
76409.9884033203
 20
26655.4870605469
 30
0
  0
VERTEX
  8
LAY0_0
 10
76390.0451660156
 20
26656.8603515625
 30
0
  0
VERTEX
  8
LAY0_0
 10
76370.0866699219
 20
26658.2641601562
 30
0
  0
VERTEX
  8
LAY0_0
 10
76350.1281738281
 20
26659.66796875
 30
0
  0
VERTEX
  8
LAY0_0
 10
76330.1849365234
 20
26661.0717773438
 30
0
  0
VERTEX
  8
LAY0_0
 10
76310.2264404297
 20
26662.5061035156
 30
0
  0
VERTEX
  8
LAY0_0
 10
76290.283203125
 20
26663.9404296875
 30
0
  0
VERTEX
  8
LAY0_0
 10
76270.3247070312
 20
26665.3747558594
 30
0
  0
VERTEX
  8
LAY0_0
 10
76250.3814697266
 20
26666.8090820313
 30
0
  0
VERTEX
  8
LAY0_0
 10
76230.4382324219
 20
26668.2739257813
 30
0
  0
VERTEX
  8
LAY0_0
 10
76210.4949951172
 20
26669.7692871094
 30
0
  0
VERTEX
  8
LAY0_0
 10
76190.5517578125
 20
26671.2341308594
 30
0
  0
VERTEX
  8
LAY0_0
 10
76170.5932617187
 20
26672.7294921875
 30
0
  0
VERTEX
  8
LAY0_0
 10
76150.6500244141
 20
26674.2553710938
 30
0
  0
VERTEX
  8
LAY0_0
 10
76130.7067871094
 20
26675.7507324219
 30
0
  0
VERTEX
  8
LAY0_0
 10
76110.7635498047
 20
26677.2766113281
 30
0
  0
VERTEX
  8
LAY0_0
 10
76090.8203125
 20
26678.8330078125
 30
0
  0
VERTEX
  8
LAY0_0
 10
76070.8770751953
 20
26680.3894042969
 30
0
  0
VERTEX
  8
LAY0_0
 10
76050.9490966797
 20
26681.9458007813
 30
0
  0
VERTEX
  8
LAY0_0
 10
76031.005859375
 20
26683.5327148438
 30
0
  0
VERTEX
  8
LAY0_0
 10
76011.0626220703
 20
26685.1196289062
 30
0
  0
VERTEX
  8
LAY0_0
 10
75991.1193847656
 20
26686.7065429687
 30
0
  0
VERTEX
  8
LAY0_0
 10
75971.19140625
 20
26688.3239746094
 30
0
  0
VERTEX
  8
LAY0_0
 10
75951.2634277344
 20
26689.94140625
 30
0
  0
VERTEX
  8
LAY0_0
 10
75931.3201904297
 20
26691.5893554687
 30
0
  0
VERTEX
  8
LAY0_0
 10
75911.3922119141
 20
26693.2373046875
 30
0
  0
VERTEX
  8
LAY0_0
 10
75891.4642333984
 20
26694.9157714844
 30
0
  0
VERTEX
  8
LAY0_0
 10
75871.5362548828
 20
26696.5942382813
 30
0
  0
VERTEX
  8
LAY0_0
 10
75851.6082763672
 20
26698.2727050781
 30
0
  0
VERTEX
  8
LAY0_0
 10
75831.6802978516
 20
26699.9816894531
 30
0
  0
VERTEX
  8
LAY0_0
 10
75811.7523193359
 20
26701.6906738281
 30
0
  0
VERTEX
  8
LAY0_0
 10
75791.8243408203
 20
26703.4301757813
 30
0
  0
VERTEX
  8
LAY0_0
 10
75771.9116210937
 20
26705.1696777344
 30
0
  0
VERTEX
  8
LAY0_0
 10
75751.9836425781
 20
26706.9396972656
 30
0
  0
VERTEX
  8
LAY0_0
 10
75732.0556640625
 20
26708.7097167969
 30
0
  0
VERTEX
  8
LAY0_0
 10
75712.1429443359
 20
26710.5102539062
 30
0
  0
VERTEX
  8
LAY0_0
 10
75692.2302246094
 20
26712.3107910156
 30
0
  0
VERTEX
  8
LAY0_0
 10
75672.3022460937
 20
26714.1418457031
 30
0
  0
VERTEX
  8
LAY0_0
 10
75652.3895263672
 20
26715.9729003906
 30
0
  0
VERTEX
  8
LAY0_0
 10
75632.4768066406
 20
26717.8039550781
 30
0
  0
VERTEX
  8
LAY0_0
 10
75612.5640869141
 20
26719.6655273438
 30
0
  0
VERTEX
  8
LAY0_0
 10
75592.6513671875
 20
26721.5576171875
 30
0
  0
VERTEX
  8
LAY0_0
 10
75572.75390625
 20
26723.4497070313
 30
0
  0
VERTEX
  8
LAY0_0
 10
75552.8411865234
 20
26725.341796875
 30
0
  0
VERTEX
  8
LAY0_0
 10
75532.9284667969
 20
26727.2644042969
 30
0
  0
VERTEX
  8
LAY0_0
 10
75513.0310058594
 20
26729.2175292969
 30
0
  0
VERTEX
  8
LAY0_0
 10
75493.1335449219
 20
26731.1706542969
 30
0
  0
VERTEX
  8
LAY0_0
 10
75473.2360839844
 20
26733.154296875
 30
0
  0
VERTEX
  8
LAY0_0
 10
75453.3386230469
 20
26735.1379394531
 30
0
  0
VERTEX
  8
LAY0_0
 10
75433.4411621094
 20
26737.1215820313
 30
0
  0
VERTEX
  8
LAY0_0
 10
75413.5437011719
 20
26739.1357421875
 30
0
  0
VERTEX
  8
LAY0_0
 10
75393.6462402344
 20
26741.1499023438
 30
0
  0
VERTEX
  8
LAY0_0
 10
75373.7487792969
 20
26743.1945800781
 30
0
  0
VERTEX
  8
LAY0_0
 10
75353.8513183594
 20
26745.2392578125
 30
0
  0
VERTEX
  8
LAY0_0
 10
75333.9691162109
 20
26747.314453125
 30
0
  0
VERTEX
  8
LAY0_0
 10
75314.0716552734
 20
26749.3896484375
 30
0
  0
VERTEX
  8
LAY0_0
 10
75294.189453125
 20
26751.4953613281
 30
0
  0
VERTEX
  8
LAY0_0
 10
75274.3072509766
 20
26753.6010742187
 30
0
  0
VERTEX
  8
LAY0_0
 10
75254.4097900391
 20
26755.7067871094
 30
0
  0
VERTEX
  8
LAY0_0
 10
75234.5275878906
 20
26757.8430175781
 30
0
  0
VERTEX
  8
LAY0_0
 10
75214.6453857422
 20
26759.9792480469
 30
0
  0
VERTEX
  8
LAY0_0
 10
75194.7631835938
 20
26762.1459960938
 30
0
  0
VERTEX
  8
LAY0_0
 10
75174.8809814453
 20
26764.3127441406
 30
0
  0
VERTEX
  8
LAY0_0
 10
75154.9987792969
 20
26766.5100097656
 30
0
  0
VERTEX
  8
LAY0_0
 10
75135.1318359375
 20
26768.6767578125
 30
0
  0
VERTEX
  8
LAY0_0
 10
75115.2496337891
 20
26770.9045410156
 30
0
  0
VERTEX
  8
LAY0_0
 10
75095.3674316406
 20
26773.1018066406
 30
0
  0
VERTEX
  8
LAY0_0
 10
75075.5004882813
 20
26775.3295898438
 30
0
  0
VERTEX
  8
LAY0_0
 10
75055.6335449219
 20
26777.587890625
 30
0
  0
VERTEX
  8
LAY0_0
 10
75035.7513427734
 20
26779.8156738281
 30
0
  0
VERTEX
  8
LAY0_0
 10
75015.8843994141
 20
26782.0739746094
 30
0
  0
VERTEX
  8
LAY0_0
 10
74996.0174560547
 20
26784.3627929687
 30
0
  0
VERTEX
  8
LAY0_0
 10
74976.1505126953
 20
26786.62109375
 30
0
  0
VERTEX
  8
LAY0_0
 10
74956.2683105469
 20
26788.9404296875
 30
0
  0
VERTEX
  8
LAY0_0
 10
74936.4013671875
 20
26791.2292480469
 30
0
  0
VERTEX
  8
LAY0_0
 10
74916.5344238281
 20
26793.5485839844
 30
0
  0
VERTEX
  8
LAY0_0
 10
74896.6674804687
 20
26795.8679199219
 30
0
  0
VERTEX
  8
LAY0_0
 10
74876.8005371094
 20
26798.1872558594
 30
0
  0
VERTEX
  8
LAY0_0
 10
74856.9488525391
 20
26800.537109375
 30
0
  0
VERTEX
  8
LAY0_0
 10
74837.0819091797
 20
26802.8869628906
 30
0
  0
VERTEX
  8
LAY0_0
 10
74817.2149658203
 20
26805.2368164062
 30
0
  0
VERTEX
  8
LAY0_0
 10
74797.36328125
 20
26807.6171875
 30
0
  0
VERTEX
  8
LAY0_0
 10
74777.4963378906
 20
26809.9975585938
 30
0
  0
VERTEX
  8
LAY0_0
 10
74757.6293945313
 20
26812.3779296875
 30
0
  0
VERTEX
  8
LAY0_0
 10
74737.7777099609
 20
26814.7583007813
 30
0
  0
VERTEX
  8
LAY0_0
 10
74717.9260253906
 20
26817.1691894531
 30
0
  0
VERTEX
  8
LAY0_0
 10
74698.0590820312
 20
26819.580078125
 30
0
  0
VERTEX
  8
LAY0_0
 10
74678.2073974609
 20
26821.9909667969
 30
0
  0
VERTEX
  8
LAY0_0
 10
74658.3557128906
 20
26824.4018554687
 30
0
  0
VERTEX
  8
LAY0_0
 10
74638.4887695313
 20
26826.8432617187
 30
0
  0
VERTEX
  8
LAY0_0
 10
74618.6370849609
 20
26829.2846679687
 30
0
  0
VERTEX
  8
LAY0_0
 10
74598.7854003906
 20
26831.7260742187
 30
0
  0
VERTEX
  8
LAY0_0
 10
74578.9184570312
 20
26834.1979980469
 30
0
  0
VERTEX
  8
LAY0_0
 10
74559.0667724609
 20
26836.669921875
 30
0
  0
VERTEX
  8
LAY0_0
 10
74539.2150878906
 20
26839.111328125
 30
0
  0
VERTEX
  8
LAY0_0
 10
74519.3634033203
 20
26841.6137695313
 30
0
  0
VERTEX
  8
LAY0_0
 10
74499.51171875
 20
26844.0856933594
 30
0
  0
VERTEX
  8
LAY0_0
 10
74479.6600341797
 20
26846.5576171875
 30
0
  0
VERTEX
  8
LAY0_0
 10
74459.8083496094
 20
26849.0600585938
 30
0
  0
VERTEX
  8
LAY0_0
 10
74439.9566650391
 20
26851.5625
 30
0
  0
VERTEX
  8
LAY0_0
 10
74420.1049804687
 20
26854.0954589844
 30
0
  0
VERTEX
  8
LAY0_0
 10
74400.2685546875
 20
26856.6284179687
 30
0
  0
VERTEX
  8
LAY0_0
 10
74380.4168701172
 20
26859.1613769531
 30
0
  0
VERTEX
  8
LAY0_0
 10
74360.5804443359
 20
26861.7553710938
 30
0
  0
VERTEX
  8
LAY0_0
 10
74340.7440185547
 20
26864.3798828125
 30
0
  0
VERTEX
  8
LAY0_0
 10
74320.9228515625
 20
26867.0349121094
 30
0
  0
VERTEX
  8
LAY0_0
 10
74301.1016845703
 20
26869.7509765625
 30
0
  0
VERTEX
  8
LAY0_0
 10
74281.2805175781
 20
26872.4975585938
 30
0
  0
VERTEX
  8
LAY0_0
 10
74261.474609375
 20
26875.3051757813
 30
0
  0
VERTEX
  8
LAY0_0
 10
74241.6839599609
 20
26878.1433105469
 30
0
  0
VERTEX
  8
LAY0_0
 10
74221.8933105469
 20
26881.0729980469
 30
0
  0
VERTEX
  8
LAY0_0
 10
74202.1179199219
 20
26884.0637207031
 30
0
  0
VERTEX
  8
LAY0_0
 10
74182.3577880859
 20
26887.1459960938
 30
0
  0
VERTEX
  8
LAY0_0
 10
74162.6129150391
 20
26890.2893066406
 30
0
  0
VERTEX
  8
LAY0_0
 10
74142.8833007812
 20
26893.4936523438
 30
0
  0
VERTEX
  8
LAY0_0
 10
74123.1536865234
 20
26896.8200683594
 30
0
  0
VERTEX
  8
LAY0_0
 10
74103.4545898438
 20
26900.2380371094
 30
0
  0
VERTEX
  8
LAY0_0
 10
74083.7554931641
 20
26903.7475585938
 30
0
  0
VERTEX
  8
LAY0_0
 10
74064.0869140625
 20
26907.3486328125
 30
0
  0
VERTEX
  8
LAY0_0
 10
74044.4183349609
 20
26911.0717773438
 30
0
  0
VERTEX
  8
LAY0_0
 10
74024.7802734375
 20
26914.8864746094
 30
0
  0
VERTEX
  8
LAY0_0
 10
74005.1574707031
 20
26918.7927246094
 30
0
  0
VERTEX
  8
LAY0_0
 10
73985.5651855469
 20
26922.8210449219
 30
0
  0
VERTEX
  8
LAY0_0
 10
73965.9729003906
 20
26926.9714355469
 30
0
  0
VERTEX
  8
LAY0_0
 10
73946.4111328125
 20
26931.1828613281
 30
0
  0
VERTEX
  8
LAY0_0
 10
73926.8493652344
 20
26935.5163574219
 30
0
  0
VERTEX
  8
LAY0_0
 10
73907.3181152344
 20
26939.9108886719
 30
0
  0
VERTEX
  8
LAY0_0
 10
73887.8021240234
 20
26944.4274902344
 30
0
  0
VERTEX
  8
LAY0_0
 10
73868.3013916016
 20
26949.0356445313
 30
0
  0
VERTEX
  8
LAY0_0
 10
73848.8159179688
 20
26953.7048339844
 30
0
  0
VERTEX
  8
LAY0_0
 10
73829.3609619141
 20
26958.4655761719
 30
0
  0
VERTEX
  8
LAY0_0
 10
73809.9212646484
 20
26963.3178710938
 30
0
  0
VERTEX
  8
LAY0_0
 10
73790.4968261719
 20
26968.26171875
 30
0
  0
VERTEX
  8
LAY0_0
 10
73771.0723876953
 20
26973.2666015625
 30
0
  0
VERTEX
  8
LAY0_0
 10
73751.6784667969
 20
26978.3630371094
 30
0
  0
VERTEX
  8
LAY0_0
 10
73732.3150634766
 20
26983.5205078125
 30
0
  0
VERTEX
  8
LAY0_0
 10
73712.9516601562
 20
26988.76953125
 30
0
  0
VERTEX
  8
LAY0_0
 10
73693.6187744141
 20
26994.0795898438
 30
0
  0
VERTEX
  8
LAY0_0
 10
73674.2858886719
 20
26999.4506835938
 30
0
  0
VERTEX
  8
LAY0_0
 10
73654.9835205078
 20
27004.9133300781
 30
0
  0
VERTEX
  8
LAY0_0
 10
73635.6964111328
 20
27010.4064941406
 30
0
  0
VERTEX
  8
LAY0_0
 10
73616.4245605469
 20
27015.9912109375
 30
0
  0
VERTEX
  8
LAY0_0
 10
73597.16796875
 20
27021.6064453125
 30
0
  0
VERTEX
  8
LAY0_0
 10
73577.9418945313
 20
27027.3132324219
 30
0
  0
VERTEX
  8
LAY0_0
 10
73558.7310791016
 20
27033.0505371094
 30
0
  0
VERTEX
  8
LAY0_0
 10
73539.5202636719
 20
27038.8488769531
 30
0
  0
VERTEX
  8
LAY0_0
 10
73520.3399658203
 20
27044.7082519531
 30
0
  0
VERTEX
  8
LAY0_0
 10
73501.1749267578
 20
27050.6286621094
 30
0
  0
VERTEX
  8
LAY0_0
 10
73482.0251464844
 20
27056.5795898438
 30
0
  0
VERTEX
  8
LAY0_0
 10
73462.9058837891
 20
27062.5610351562
 30
0
  0
VERTEX
  8
LAY0_0
 10
73443.7866210937
 20
27068.603515625
 30
0
  0
VERTEX
  8
LAY0_0
 10
73424.6826171875
 20
27074.70703125
 30
0
  0
VERTEX
  8
LAY0_0
 10
73405.6091308594
 20
27080.8410644531
 30
0
  0
VERTEX
  8
LAY0_0
 10
73386.5509033203
 20
27087.0056152344
 30
0
  0
VERTEX
  8
LAY0_0
 10
73367.5079345703
 20
27093.2006835938
 30
0
  0
VERTEX
  8
LAY0_0
 10
73348.4802246094
 20
27099.4262695313
 30
0
  0
VERTEX
  8
LAY0_0
 10
73329.4677734375
 20
27105.6823730469
 30
0
  0
VERTEX
  8
LAY0_0
 10
73310.4858398438
 20
27111.9995117187
 30
0
  0
VERTEX
  8
LAY0_0
 10
73291.50390625
 20
27118.3166503906
 30
0
  0
VERTEX
  8
LAY0_0
 10
73272.5524902344
 20
27124.6643066406
 30
0
  0
VERTEX
  8
LAY0_0
 10
73253.6163330078
 20
27131.0424804687
 30
0
  0
VERTEX
  8
LAY0_0
 10
73234.6954345703
 20
27137.4206542969
 30
0
  0
VERTEX
  8
LAY0_0
 10
73215.7897949219
 20
27143.8293457031
 30
0
  0
VERTEX
  8
LAY0_0
 10
73196.8994140625
 20
27150.2685546875
 30
0
  0
VERTEX
  8
LAY0_0
 10
73178.0395507812
 20
27156.7077636719
 30
0
  0
VERTEX
  8
LAY0_0
 10
73159.1796875
 20
27163.1774902344
 30
0
  0
VERTEX
  8
LAY0_0
 10
73140.3503417969
 20
27169.6472167969
 30
0
  0
VERTEX
  8
LAY0_0
 10
73121.5209960937
 20
27176.1169433594
 30
0
  0
VERTEX
  8
LAY0_0
 10
73102.7221679688
 20
27182.6171875
 30
0
  0
VERTEX
  8
LAY0_0
 10
73083.9385986328
 20
27189.0869140625
 30
0
  0
VERTEX
  8
LAY0_0
 10
73065.1702880859
 20
27195.5871582031
 30
0
  0
VERTEX
  8
LAY0_0
 10
73046.4019775391
 20
27202.0874023438
 30
0
  0
VERTEX
  8
LAY0_0
 10
73027.6489257812
 20
27208.5571289062
 30
0
  0
VERTEX
  8
LAY0_0
 10
73008.8958740234
 20
27215.0268554687
 30
0
  0
VERTEX
  8
LAY0_0
 10
72990.1275634766
 20
27221.4965820313
 30
0
  0
VERTEX
  8
LAY0_0
 10
72971.3745117187
 20
27227.9357910156
 30
0
  0
VERTEX
  8
LAY0_0
 10
72952.5909423828
 20
27234.375
 30
0
  0
VERTEX
  8
LAY0_0
 10
72933.8073730469
 20
27240.7836914062
 30
0
  0
VERTEX
  8
LAY0_0
 10
72914.9932861328
 20
27247.1618652344
 30
0
  0
VERTEX
  8
LAY0_0
 10
72896.1486816406
 20
27253.5095214844
 30
0
  0
VERTEX
  8
LAY0_0
 10
72877.2888183594
 20
27259.8266601562
 30
0
  0
VERTEX
  8
LAY0_0
 10
72858.3984375
 20
27266.11328125
 30
0
  0
VERTEX
  8
LAY0_0
 10
72839.4775390625
 20
27272.3693847656
 30
0
  0
VERTEX
  8
LAY0_0
 10
72820.5108642578
 20
27278.564453125
 30
0
  0
VERTEX
  8
LAY0_0
 10
72801.513671875
 20
27284.6984863281
 30
0
  0
VERTEX
  8
LAY0_0
 10
72782.4554443359
 20
27290.8020019531
 30
0
  0
VERTEX
  8
LAY0_0
 10
72763.3514404297
 20
27296.8444824219
 30
0
  0
VERTEX
  8
LAY0_0
 10
72744.2016601562
 20
27302.8564453125
 30
0
  0
VERTEX
  8
LAY0_0
 10
72724.9755859375
 20
27308.7768554687
 30
0
  0
VERTEX
  8
LAY0_0
 10
72705.7037353516
 20
27314.6667480469
 30
0
  0
VERTEX
  8
LAY0_0
 10
72686.3555908203
 20
27320.4650878906
 30
0
  0
VERTEX
  8
LAY0_0
 10
72666.9464111328
 20
27326.171875
 30
0
  0
VERTEX
  8
LAY0_0
 10
72647.4609375
 20
27331.8481445313
 30
0
  0
VERTEX
  8
LAY0_0
 10
72627.8839111328
 20
27337.4328613281
 30
0
  0
VERTEX
  8
LAY0_0
 10
72608.2305908203
 20
27342.9260253906
 30
0
  0
VERTEX
  8
LAY0_0
 10
72588.5009765625
 20
27348.3276367187
 30
0
  0
VERTEX
  8
LAY0_0
 10
72568.7561035156
 20
27353.759765625
 30
0
  0
VERTEX
  8
LAY0_0
 10
72549.1027832031
 20
27359.3444824219
 30
0
  0
VERTEX
  8
LAY0_0
 10
72529.6478271484
 20
27365.234375
 30
0
  0
VERTEX
  8
LAY0_0
 10
72510.5285644531
 20
27371.58203125
 30
0
  0
VERTEX
  8
LAY0_0
 10
72491.8518066406
 20
27378.5400390625
 30
0
  0
VERTEX
  8
LAY0_0
 10
72473.7243652344
 20
27386.2915039062
 30
0
  0
VERTEX
  8
LAY0_0
 10
72456.2835693359
 20
27394.9584960938
 30
0
  0
VERTEX
  8
LAY0_0
 10
72439.6362304687
 20
27404.6936035156
 30
0
  0
VERTEX
  8
LAY0_0
 10
72423.7823486328
 20
27415.52734375
 30
0
  0
VERTEX
  8
LAY0_0
 10
72408.7066650391
 20
27427.4291992187
 30
0
  0
VERTEX
  8
LAY0_0
 10
72394.3481445313
 20
27440.2770996094
 30
0
  0
VERTEX
  8
LAY0_0
 10
72380.6304931641
 20
27454.0100097656
 30
0
  0
VERTEX
  8
LAY0_0
 10
72367.5231933594
 20
27468.5974121094
 30
0
  0
VERTEX
  8
LAY0_0
 10
72354.98046875
 20
27483.9477539062
 30
0
  0
VERTEX
  8
LAY0_0
 10
72342.9565429688
 20
27499.9694824219
 30
0
  0
VERTEX
  8
LAY0_0
 10
72331.3598632813
 20
27516.6015625
 30
0
  0
VERTEX
  8
LAY0_0
 10
72320.1751708984
 20
27533.7829589844
 30
0
  0
VERTEX
  8
LAY0_0
 10
72309.3414306641
 20
27551.4221191406
 30
0
  0
VERTEX
  8
LAY0_0
 10
72298.7976074219
 20
27569.4885253906
 30
0
  0
VERTEX
  8
LAY0_0
 10
72288.4979248047
 20
27587.8601074219
 30
0
  0
VERTEX
  8
LAY0_0
 10
72278.3966064453
 20
27606.5368652344
 30
0
  0
VERTEX
  8
LAY0_0
 10
72268.4326171875
 20
27625.3662109375
 30
0
  0
VERTEX
  8
LAY0_0
 10
72258.544921875
 20
27644.3176269531
 30
0
  0
VERTEX
  8
LAY0_0
 10
72251.6937255859
 20
27657.5622558594
 30
0
  0
SEQEND
  0
POLYLINE
  8
LAY0_0
  6
CONTINUOUS
 62
3
 66
  1
 10
0
 20
0
 30
0
  0
VERTEX
  8
LAY0_0
 10
133749.740600586
 20
66098.9379882813
 30
0
  0
VERTEX
  8
LAY0_0
 10
133880.249023438
 20
66147.3846435547
 30
0
  0
VERTEX
  8
LAY0_0
 10
134483.596801758
 20
65718.3074951172
 30
0
  0
VERTEX
  8
LAY0_0
 10
135128.082275391
 20
65252.0751953125
 30
0
  0
VERTEX
  8
LAY0_0
 10
135625.640869141
 20
64939.3920898438
 30
0
  0
VERTEX
  8
LAY0_0
 10
136024.307250977
 20
64728.9886474609
 30
0
  0
VERTEX
  8
LAY0_0
 10
136381.774902344
 20
64559.7229003906
 30
0
  0
VERTEX
  8
LAY0_0
 10
136754.837036133
 20
64371.2615966797
 30
0
  0
VERTEX
  8
LAY0_0
 10
137167.16003418
 20
64134.7045898438
 30
0
  0
VERTEX
  8
LAY0_0
 10
137601.226806641
 20
63860.1684570312
 30
0
  0
VERTEX
  8
LAY0_0
 10
138036.895751953
 20
63560.2111816406
 30
0
  0
VERTEX
  8
LAY0_0
 10
138455.093383789
 20
63247.1313476563
 30
0
  0
VERTEX
  8
LAY0_0
 10
138852.157592773
 20
62928.955078125
 30
0
  0
VERTEX
  8
LAY0_0
 10
139236.511230469
 20
62610.3515625
 30
0
  0
VERTEX
  8
LAY0_0
 10
139616.882324219
 20
62295.9594726563
 30
0
  0
VERTEX
  8
LAY0_0
 10
140001.998901367
 20
61990.3717041016
 30
0
  0
VERTEX
  8
LAY0_0
 10
140400.482177734
 20
61698.1201171875
 30
0
  0
VERTEX
  8
LAY0_0
 10
140814.208984375
 20
61419.0368652344
 30
0
  0
VERTEX
  8
LAY0_0
 10
141147.811889648
 20
61202.9418945313
 30
0
  0
SEQEND
  0
POLYLINE
  8
LAY0_0
  6
CONTINUOUS
 62
5
 66
  1
 10
0
 20
0
 30
0
  0
VERTEX
  8
LAY0_0
 10
86648.2238769531
 20
66372.0092773437
 30
0
  0
VERTEX
  8
LAY0_0
 10
86819.7326660156
 20
66269.0734863281
 30
0
  0
VERTEX
  8
LAY0_0
 10
86990.7531738281
 20
66165.3442382813
 30
0
  0
VERTEX
  8
LAY0_0
 10
87160.7360839844
 20
66059.9975585938
 30
0
  0
VERTEX
  8
LAY0_0
 10
87329.2541503906
 20
65952.3010253906
 30
0
  0
VERTEX
  8
LAY0_0
 10
87496.3684082031
 20
65842.4377441406
 30
0
  0
VERTEX
  8
LAY0_0
 10
87662.9180908203
 20
65731.6589355469
 30
0
  0
VERTEX
  8
LAY0_0
 10
87829.6966552734
 20
65621.2463378906
 30
0
  0
VERTEX
  8
LAY0_0
 10
87997.5280761719
 20
65512.4816894531
 30
0
  0
VERTEX
  8
LAY0_0
 10
88167.1295166016
 20
65406.5246582031
 30
0
  0
VERTEX
  8
LAY0_0
 10
88338.2873535156
 20
65303.0090332031
 30
0
  0
VERTEX
  8
LAY0_0
 10
88510.1776123047
 20
65200.68359375
 30
0
  0
VERTEX
  8
LAY0_0
 10
88681.9763183594
 20
65098.2055664062
 30
0
  0
VERTEX
  8
LAY0_0
 10
88852.8442382813
 20
64994.2932128906
 30
0
  0
VERTEX
  8
LAY0_0
 10
89021.97265625
 20
64887.6342773437
 30
0
  0
VERTEX
  8
LAY0_0
 10
89188.9801025391
 20
64777.6184082031
 30
0
  0
VERTEX
  8
LAY0_0
 10
89354.8736572266
 20
64665.8935546875
 30
0
  0
VERTEX
  8
LAY0_0
 10
89520.9197998047
 20
64554.3823242188
 30
0
  0
VERTEX
  8
LAY0_0
 10
89688.2019042969
 20
64444.7631835938
 30
0
  0
VERTEX
  8
LAY0_0
 10
89856.5216064453
 20
64336.7614746094
 30
0
  0
VERTEX
  8
LAY0_0
 10
90025.0091552734
 20
64229.00390625
 30
0
  0
VERTEX
  8
LAY0_0
 10
90192.8405761719
 20
64120.2087402344
 30
0
  0
VERTEX
  8
LAY0_0
 10
90359.4055175781
 20
64009.3994140625
 30
0
  0
VERTEX
  8
LAY0_0
 10
90525.1922607422
 20
63897.3388671875
 30
0
  0
VERTEX
  8
LAY0_0
 10
90691.0400390625
 20
63785.400390625
 30
0
  0
VERTEX
  8
LAY0_0
 10
90857.7728271484
 20
63674.8962402344
 30
0
  0
VERTEX
  8
LAY0_0
 10
91026.2756347656
 20
63567.1997070312
 30
0
  0
VERTEX
  8
LAY0_0
 10
91197.3724365234
 20
63463.623046875
 30
0
  0
VERTEX
  8
LAY0_0
 10
91371.7041015625
 20
63365.234375
 30
0
  0
VERTEX
  8
LAY0_0
 10
91547.3022460937
 20
63268.9208984375
 30
0
  0
VERTEX
  8
LAY0_0
 10
91720.3826904297
 20
63168.8537597656
 30
0
  0
VERTEX
  8
LAY0_0
 10
91887.2528076172
 20
63059.2956542969
 30
0
  0
VERTEX
  8
LAY0_0
 10
92048.1872558594
 20
62940.5822753906
 30
0
  0
VERTEX
  8
LAY0_0
 10
92207.8704833984
 20
62819.7937011719
 30
0
  0
VERTEX
  8
LAY0_0
 10
92371.1395263672
 20
62704.345703125
 30
0
  0
VERTEX
  8
LAY0_0
 10
92539.6575927734
 20
62596.7102050781
 30
0
  0
VERTEX
  8
LAY0_0
 10
92710.44921875
 20
62492.431640625
 30
0
  0
VERTEX
  8
LAY0_0
 10
92880.1879882813
 20
62386.5661621094
 30
0
  0
VERTEX
  8
LAY0_0
 10
93047.4243164062
 20
62276.85546875
 30
0
  0
VERTEX
  8
LAY0_0
 10
93213.0889892578
 20
62164.794921875
 30
0
  0
VERTEX
  8
LAY0_0
 10
93378.2806396484
 20
62051.9714355469
 30
0
  0
VERTEX
  8
LAY0_0
 10
93543.8385009766
 20
61939.7583007812
 30
0
  0
VERTEX
  8
LAY0_0
 10
93709.9304199219
 20
61828.3081054687
 30
0
  0
VERTEX
  8
LAY0_0
 10
93876.46484375
 20
61717.5598144531
 30
0
  0
VERTEX
  8
LAY0_0
 10
94043.45703125
 20
61607.4829101562
 30
0
  0
VERTEX
  8
LAY0_0
 10
94210.8306884766
 20
61497.9858398438
 30
0
  0
VERTEX
  8
LAY0_0
 10
94378.5858154297
 20
61389.0686035156
 30
0
  0
VERTEX
  8
LAY0_0
 10
94546.6613769531
 20
61280.6701660156
 30
0
  0
VERTEX
  8
LAY0_0
 10
94715.0421142578
 20
61172.7294921875
 30
0
  0
VERTEX
  8
LAY0_0
 10
94883.6822509766
 20
61065.1550292969
 30
0
  0
VERTEX
  8
LAY0_0
 10
95052.5360107422
 20
60957.9772949219
 30
0
  0
VERTEX
  8
LAY0_0
 10
95221.6186523437
 20
60851.1047363281
 30
0
  0
VERTEX
  8
LAY0_0
 10
95390.8386230469
 20
60744.4763183594
 30
0
  0
VERTEX
  8
LAY0_0
 10
95560.1806640625
 20
60638.0310058594
 30
0
  0
VERTEX
  8
LAY0_0
 10
95729.5989990234
 20
60531.73828125
 30
0
  0
VERTEX
  8
LAY0_0
 10
95899.0325927734
 20
60425.4455566406
 30
0
  0
VERTEX
  8
LAY0_0
 10
96068.3746337891
 20
60319.0307617187
 30
0
  0
VERTEX
  8
LAY0_0
 10
96237.5640869141
 20
60212.40234375
 30
0
  0
VERTEX
  8
LAY0_0
 10
96406.5551757812
 20
60105.4382324219
 30
0
  0
VERTEX
  8
LAY0_0
 10
96575.2563476563
 20
59998.046875
 30
0
  0
VERTEX
  8
LAY0_0
 10
96743.6370849609
 20
59890.13671875
 30
0
  0
VERTEX
  8
LAY0_0
 10
96911.7279052734
 20
59781.7687988281
 30
0
  0
VERTEX
  8
LAY0_0
 10
97079.4830322266
 20
59672.9125976563
 30
0
  0
VERTEX
  8
LAY0_0
 10
97246.9635009766
 20
59563.5986328125
 30
0
  0
VERTEX
  8
LAY0_0
 10
97414.1387939453
 20
59453.7963867187
 30
0
  0
VERTEX
  8
LAY0_0
 10
97581.0089111328
 20
59343.5668945313
 30
0
  0
VERTEX
  8
LAY0_0
 10
97747.6196289063
 20
59232.8491210937
 30
0
  0
VERTEX
  8
LAY0_0
 10
97913.9251708984
 20
59121.7346191406
 30
0
  0
VERTEX
  8
LAY0_0
 10
98079.9560546875
 20
59010.1623535156
 30
0
  0
VERTEX
  8
LAY0_0
 10
98245.7733154297
 20
58898.2543945313
 30
0
  0
VERTEX
  8
LAY0_0
 10
98411.6363525391
 20
58786.4074707031
 30
0
  0
VERTEX
  8
LAY0_0
 10
98577.8350830078
 20
58675.1098632813
 30
0
  0
VERTEX
  8
LAY0_0
 10
98744.6746826172
 20
58564.8193359375
 30
0
  0
VERTEX
  8
LAY0_0
 10
98912.4603271484
 20
58456.0546875
 30
0
  0
VERTEX
  8
LAY0_0
 10
99081.5124511719
 20
58349.2431640625
 30
0
  0
VERTEX
  8
LAY0_0
 10
99251.7547607422
 20
58244.3237304687
 30
0
  0
VERTEX
  8
LAY0_0
 10
99422.6226806641
 20
58140.380859375
 30
0
  0
VERTEX
  8
LAY0_0
 10
99593.4753417969
 20
58036.3159179688
 30
0
  0
VERTEX
  8
LAY0_0
 10
99763.7176513672
 20
57931.3049316406
 30
0
  0
VERTEX
  8
LAY0_0
 10
99933.3038330078
 20
57825.1953125
 30
0
  0
VERTEX
  8
LAY0_0
 10
100102.401733398
 20
57718.3532714844
 30
0
  0
VERTEX
  8
LAY0_0
 10
100271.16394043
 20
57611.083984375
 30
0
  0
VERTEX
  8
LAY0_0
 10
100439.743041992
 20
57503.662109375
 30
0
  0
VERTEX
  8
LAY0_0
 10
100607.925415039
 20
57395.751953125
 30
0
  0
VERTEX
  8
LAY0_0
 10
100774.887084961
 20
57285.8581542969
 30
0
  0
VERTEX
  8
LAY0_0
 10
100939.743041992
 20
57172.4853515625
 30
0
  0
VERTEX
  8
LAY0_0
 10
101101.669311523
 20
57054.1076660156
 30
0
  0
VERTEX
  8
LAY0_0
 10
101262.237548828
 20
56933.2885742188
 30
0
  0
VERTEX
  8
LAY0_0
 10
101429.946899414
 20
56824.1577148438
 30
0
  0
VERTEX
  8
LAY0_0
 10
101614.42565918
 20
56742.67578125
 30
0
  0
VERTEX
  8
LAY0_0
 10
101811.935424805
 20
56684.4482421875
 30
0
  0
VERTEX
  8
LAY0_0
 10
101985.000610352
 20
56593.505859375
 30
0
  0
VERTEX
  8
LAY0_0
 10
102128.540039062
 20
56453.5217285156
 30
0
  0
VERTEX
  8
LAY0_0
 10
102318.237304688
 20
56380.8288574219
 30
0
  0
VERTEX
  8
LAY0_0
 10
102528.549194336
 20
56409.7900390625
 30
0
  0
VERTEX
  8
LAY0_0
 10
102722.625732422
 20
56431.3049316406
 30
0
  0
VERTEX
  8
LAY0_0
 10
102862.045288086
 20
56292.3889160156
 30
0
  0
VERTEX
  8
LAY0_0
 10
102883.666992187
 20
56083.9233398438
 30
0
  0
VERTEX
  8
LAY0_0
 10
102762.451171875
 20
55927.2155761719
 30
0
  0
VERTEX
  8
LAY0_0
 10
102682.479858398
 20
55865.72265625
 30
0
  0
SEQEND
  0
POLYLINE
  8
LAY0_0
  6
CONTINUOUS
 62
5
 66
  1
 10
0
 20
0
 30
0
  0
VERTEX
  8
LAY0_0
 10
72279.1442871094
 20
28978.1188964844
 30
0
  0
VERTEX
  8
LAY0_0
 10
72282.2875976563
 20
28998.4130859375
 30
0
  0
VERTEX
  8
LAY0_0
 10
72285.5224609375
 20
29018.6462402344
 30
0
  0
VERTEX
  8
LAY0_0
 10
72289.0167236328
 20
29038.7573242188
 30
0
  0
VERTEX
  8
LAY0_0
 10
72292.8619384766
 20
29058.7158203125
 30
0
  0
VERTEX
  8
LAY0_0
 10
72297.1649169922
 20
29078.4606933594
 30
0
  0
VERTEX
  8
LAY0_0
 10
72302.0629882813
 20
29097.9309082031
 30
0
  0
VERTEX
  8
LAY0_0
 10
72307.6629638672
 20
29117.0654296875
 30
0
  0
VERTEX
  8
LAY0_0
 10
72314.0869140625
 20
29135.8337402344
 30
0
  0
VERTEX
  8
LAY0_0
 10
72321.4569091797
 20
29154.1442871094
 30
0
  0
VERTEX
  8
LAY0_0
 10
72329.8797607422
 20
29171.9665527344
 30
0
  0
VERTEX
  8
LAY0_0
 10
72339.4775390625
 20
29189.208984375
 30
0
  0
VERTEX
  8
LAY0_0
 10
72350.2502441406
 20
29205.9020996094
 30
0
  0
VERTEX
  8
LAY0_0
 10
72362.1063232422
 20
29221.9848632812
 30
0
  0
VERTEX
  8
LAY0_0
 10
72374.9694824219
 20
29237.4572753906
 30
0
  0
VERTEX
  8
LAY0_0
 10
72388.7634277344
 20
29252.2583007812
 30
0
  0
VERTEX
  8
LAY0_0
 10
72403.3660888672
 20
29266.4184570313
 30
0
  0
VERTEX
  8
LAY0_0
 10
72418.701171875
 20
29279.9072265625
 30
0
  0
VERTEX
  8
LAY0_0
 10
72434.6771240234
 20
29292.6940917969
 30
0
  0
VERTEX
  8
LAY0_0
 10
72451.2023925781
 20
29304.7790527344
 30
0
  0
VERTEX
  8
LAY0_0
 10
72468.2006835938
 20
29316.1315917969
 30
0
  0
VERTEX
  8
LAY0_0
 10
72485.5651855469
 20
29326.7211914063
 30
0
  0
VERTEX
  8
LAY0_0
 10
72503.2043457031
 20
29336.5783691406
 30
0
  0
VERTEX
  8
LAY0_0
 10
72521.0723876953
 20
29345.7336425781
 30
0
  0
VERTEX
  8
LAY0_0
 10
72539.1235351562
 20
29354.4006347656
 30
0
  0
VERTEX
  8
LAY0_0
 10
72557.2967529297
 20
29362.6403808594
 30
0
  0
VERTEX
  8
LAY0_0
 10
72575.5615234375
 20
29370.60546875
 30
0
  0
VERTEX
  8
LAY0_0
 10
72592.5750732422
 20
29377.9296875
 30
0
  0
SEQEND
  0
POLYLINE
  8
LAY0_0
  6
CONTINUOUS
 62
3
 66
  1
 10
0
 20
0
 30
0
  0
VERTEX
  8
LAY0_0
 10
59946.2280273437
 20
62710.3271484375
 30
0
  0
VERTEX
  8
LAY0_0
 10
59896.4538574219
 20
62713.7451171875
 30
0
  0
VERTEX
  8
LAY0_0
 10
59847.3510742188
 20
62716.552734375
 30
0
  0
VERTEX
  8
LAY0_0
 10
59799.5758056641
 20
62718.1396484375
 30
0
  0
VERTEX
  8
LAY0_0
 10
59753.7994384766
 20
62718.017578125
 30
0
  0
VERTEX
  8
LAY0_0
 10
59710.7086181641
 20
62715.4541015625
 30
0
  0
VERTEX
  8
LAY0_0
 10
59670.9289550781
 20
62709.9609375
 30
0
  0
VERTEX
  8
LAY0_0
 10
59635.1470947266
 20
62700.927734375
 30
0
  0
VERTEX
  8
LAY0_0
 10
59604.0496826172
 20
62687.6831054687
 30
0
  0
VERTEX
  8
LAY0_0
 10
59578.2623291016
 20
62669.7387695313
 30
0
  0
VERTEX
  8
LAY0_0
 10
59558.4564208984
 20
62646.4538574219
 30
0
  0
VERTEX
  8
LAY0_0
 10
59544.6472167969
 20
62617.7978515625
 30
0
  0
VERTEX
  8
LAY0_0
 10
59535.9344482422
 20
62584.47265625
 30
0
  0
VERTEX
  8
LAY0_0
 10
59531.3873291016
 20
62547.1801757812
 30
0
  0
VERTEX
  8
LAY0_0
 10
59530.0445556641
 20
62506.7138671875
 30
0
  0
VERTEX
  8
LAY0_0
 10
59530.9448242188
 20
62463.8061523437
 30
0
  0
VERTEX
  8
LAY0_0
 10
59533.1573486328
 20
62419.189453125
 30
0
  0
VERTEX
  8
LAY0_0
 10
59535.7208251953
 20
62373.5961914062
 30
0
  0
VERTEX
  8
LAY0_0
 10
59537.7044677734
 20
62327.8198242188
 30
0
  0
VERTEX
  8
LAY0_0
 10
59538.1317138672
 20
62282.5622558594
 30
0
  0
VERTEX
  8
LAY0_0
 10
59536.1785888672
 20
62238.525390625
 30
0
  0
VERTEX
  8
LAY0_0
 10
59531.7230224609
 20
62195.80078125
 30
0
  0
VERTEX
  8
LAY0_0
 10
59524.9786376953
 20
62154.296875
 30
0
  0
VERTEX
  8
LAY0_0
 10
59516.0980224609
 20
62113.8916015625
 30
0
  0
VERTEX
  8
LAY0_0
 10
59505.3100585938
 20
62074.5239257812
 30
0
  0
VERTEX
  8
LAY0_0
 10
59492.7825927734
 20
62036.1022949219
 30
0
  0
VERTEX
  8
LAY0_0
 10
59478.7292480469
 20
61998.4741210937
 30
0
  0
VERTEX
  8
LAY0_0
 10
59463.3178710937
 20
61961.6088867187
 30
0
  0
VERTEX
  8
LAY0_0
 10
59446.7620849609
 20
61925.29296875
 30
0
  0
VERTEX
  8
LAY0_0
 10
59429.2297363281
 20
61889.5568847656
 30
0
  0
VERTEX
  8
LAY0_0
 10
59410.9344482422
 20
61854.2175292969
 30
0
  0
VERTEX
  8
LAY0_0
 10
59392.0440673828
 20
61819.2138671875
 30
0
  0
VERTEX
  8
LAY0_0
 10
59372.7722167969
 20
61784.3933105469
 30
0
  0
VERTEX
  8
LAY0_0
 10
59353.3172607422
 20
61749.6948242188
 30
0
  0
VERTEX
  8
LAY0_0
 10
59333.8317871094
 20
61715.0268554687
 30
0
  0
VERTEX
  8
LAY0_0
 10
59314.5599365234
 20
61680.2978515625
 30
0
  0
VERTEX
  8
LAY0_0
 10
59295.6390380859
 20
61645.3247070312
 30
0
  0
VERTEX
  8
LAY0_0
 10
59277.2979736328
 20
61610.107421875
 30
0
  0
VERTEX
  8
LAY0_0
 10
59259.7198486328
 20
61574.4934082031
 30
0
  0
VERTEX
  8
LAY0_0
 10
59243.0877685547
 20
61538.3911132813
 30
0
  0
VERTEX
  8
LAY0_0
 10
59227.6153564453
 20
61501.708984375
 30
0
  0
VERTEX
  8
LAY0_0
 10
59213.4704589844
 20
61464.3249511719
 30
0
  0
VERTEX
  8
LAY0_0
 10
59200.8514404297
 20
61426.1779785156
 30
0
  0
VERTEX
  8
LAY0_0
 10
59189.8040771484
 20
61387.3291015625
 30
0
  0
VERTEX
  8
LAY0_0
 10
59180.4504394531
 20
61347.900390625
 30
0
  0
VERTEX
  8
LAY0_0
 10
59172.8057861328
 20
61307.9528808594
 30
0
  0
VERTEX
  8
LAY0_0
 10
59166.9158935547
 20
61267.6696777344
 30
0
  0
VERTEX
  8
LAY0_0
 10
59162.8875732422
 20
61227.1118164062
 30
0
  0
VERTEX
  8
LAY0_0
 10
59160.7208251953
 20
61186.4624023437
 30
0
  0
VERTEX
  8
LAY0_0
 10
59160.4766845703
 20
61145.751953125
 30
0
  0
VERTEX
  8
LAY0_0
 10
59162.2467041016
 20
61105.1635742188
 30
0
  0
VERTEX
  8
LAY0_0
 10
59166.0614013672
 20
61064.7888183594
 30
0
  0
VERTEX
  8
LAY0_0
 10
59171.9818115234
 20
61024.7192382813
 30
0
  0
VERTEX
  8
LAY0_0
 10
59180.0689697266
 20
60985.107421875
 30
0
  0
VERTEX
  8
LAY0_0
 10
59190.3533935547
 20
60946.044921875
 30
0
  0
VERTEX
  8
LAY0_0
 10
59202.6062011719
 20
60907.5012207031
 30
0
  0
VERTEX
  8
LAY0_0
 10
59216.3543701172
 20
60869.4458007812
 30
0
  0
VERTEX
  8
LAY0_0
 10
59231.1248779297
 20
60831.7260742188
 30
0
  0
VERTEX
  8
LAY0_0
 10
59246.4752197266
 20
60794.2810058594
 30
0
  0
VERTEX
  8
LAY0_0
 10
59261.9018554687
 20
60757.0190429688
 30
0
  0
VERTEX
  8
LAY0_0
 10
59276.9622802734
 20
60719.8181152344
 30
0
  0
VERTEX
  8
LAY0_0
 10
59291.1682128906
 20
60682.6171875
 30
0
  0
VERTEX
  8
LAY0_0
 10
59304.0618896484
 20
60645.2941894531
 30
0
  0
VERTEX
  8
LAY0_0
 10
59315.1702880859
 20
60607.7880859375
 30
0
  0
VERTEX
  8
LAY0_0
 10
59324.0203857422
 20
60569.9462890625
 30
0
  0
VERTEX
  8
LAY0_0
 10
59330.4901123047
 20
60531.7993164062
 30
0
  0
VERTEX
  8
LAY0_0
 10
59334.7625732422
 20
60493.3471679688
 30
0
  0
VERTEX
  8
LAY0_0
 10
59336.9903564453
 20
60454.5593261719
 30
0
  0
VERTEX
  8
LAY0_0
 10
59337.4481201172
 20
60415.52734375
 30
0
  0
VERTEX
  8
LAY0_0
 10
59336.2884521484
 20
60376.220703125
 30
0
  0
VERTEX
  8
LAY0_0
 10
59333.7554931641
 20
60336.7004394531
 30
0
  0
VERTEX
  8
LAY0_0
 10
59330.0170898438
 20
60296.9665527344
 30
0
  0
VERTEX
  8
LAY0_0
 10
59325.3021240234
 20
60257.0190429688
 30
0
  0
VERTEX
  8
LAY0_0
 10
59319.7784423828
 20
60216.9189453125
 30
0
  0
VERTEX
  8
LAY0_0
 10
59313.7054443359
 20
60176.6967773437
 30
0
  0
VERTEX
  8
LAY0_0
 10
59307.2357177734
 20
60136.2915039063
 30
0
  0
VERTEX
  8
LAY0_0
 10
59300.6134033203
 20
60095.8251953125
 30
0
  0
VERTEX
  8
LAY0_0
 10
59293.9910888672
 20
60055.2673339844
 30
0
  0
VERTEX
  8
LAY0_0
 10
59287.6434326172
 20
60014.6484375
 30
0
  0
VERTEX
  8
LAY0_0
 10
59281.7230224609
 20
59973.9990234375
 30
0
  0
VERTEX
  8
LAY0_0
 10
59276.4282226563
 20
59933.2885742188
 30
0
  0
VERTEX
  8
LAY0_0
 10
59271.9879150391
 20
59892.6391601562
 30
0
  0
VERTEX
  8
LAY0_0
 10
59268.6004638672
 20
59851.9592285156
 30
0
  0
VERTEX
  8
LAY0_0
 10
59266.4947509766
 20
59811.3403320312
 30
0
  0
VERTEX
  8
LAY0_0
 10
59265.8233642578
 20
59770.8129882813
 30
0
  0
VERTEX
  8
LAY0_0
 10
59266.7694091797
 20
59730.3466796875
 30
0
  0
VERTEX
  8
LAY0_0
 10
59269.3328857422
 20
59690.0329589844
 30
0
  0
VERTEX
  8
LAY0_0
 10
59273.4527587891
 20
59649.90234375
 30
0
  0
VERTEX
  8
LAY0_0
 10
59279.0679931641
 20
59609.9548339844
 30
0
  0
VERTEX
  8
LAY0_0
 10
59286.1480712891
 20
59570.3125
 30
0
  0
VERTEX
  8
LAY0_0
 10
59294.6472167969
 20
59531.005859375
 30
0
  0
VERTEX
  8
LAY0_0
 10
59304.4891357422
 20
59492.0043945313
 30
0
  0
VERTEX
  8
LAY0_0
 10
59315.6280517578
 20
59453.4606933594
 30
0
  0
VERTEX
  8
LAY0_0
 10
59328.0334472656
 20
59415.3442382813
 30
0
  0
VERTEX
  8
LAY0_0
 10
59341.6290283203
 20
59377.7465820312
 30
0
  0
VERTEX
  8
LAY0_0
 10
59356.3690185547
 20
59340.6982421875
 30
0
  0
VERTEX
  8
LAY0_0
 10
59372.2686767578
 20
59304.2297363281
 30
0
  0
VERTEX
  8
LAY0_0
 10
59389.2669677734
 20
59268.3410644531
 30
0
  0
VERTEX
  8
LAY0_0
 10
59407.3944091797
 20
59233.0322265625
 30
0
  0
VERTEX
  8
LAY0_0
 10
59426.6662597656
 20
59198.3032226563
 30
0
  0
VERTEX
  8
LAY0_0
 10
59447.0672607422
 20
59164.1845703125
 30
0
  0
VERTEX
  8
LAY0_0
 10
59468.5974121094
 20
59130.7067871094
 30
0
  0
VERTEX
  8
LAY0_0
 10
59491.2567138672
 20
59097.8393554687
 30
0
  0
VERTEX
  8
LAY0_0
 10
59515.0604248047
 20
59065.5822753906
 30
0
  0
VERTEX
  8
LAY0_0
 10
59539.9932861328
 20
59033.9660644531
 30
0
  0
VERTEX
  8
LAY0_0
 10
59566.0552978516
 20
59002.9907226563
 30
0
  0
VERTEX
  8
LAY0_0
 10
59593.2464599609
 20
58972.6867675781
 30
0
  0
VERTEX
  8
LAY0_0
 10
59621.58203125
 20
58943.0541992188
 30
0
  0
VERTEX
  8
LAY0_0
 10
59651.0620117187
 20
58914.0625
 30
0
  0
VERTEX
  8
LAY0_0
 10
59681.6558837891
 20
58885.7421875
 30
0
  0
VERTEX
  8
LAY0_0
 10
59713.4094238281
 20
58858.154296875
 30
0
  0
VERTEX
  8
LAY0_0
 10
59746.2921142578
 20
58831.2377929688
 30
0
  0
VERTEX
  8
LAY0_0
 10
59780.2734375
 20
58805.0537109375
 30
0
  0
VERTEX
  8
LAY0_0
 10
59815.2618408203
 20
58779.7241210937
 30
0
  0
VERTEX
  8
LAY0_0
 10
59851.1505126953
 20
58755.37109375
 30
0
  0
VERTEX
  8
LAY0_0
 10
59887.9089355469
 20
58732.0251464844
 30
0
  0
VERTEX
  8
LAY0_0
 10
59925.3997802734
 20
58709.8388671875
 30
0
  0
VERTEX
  8
LAY0_0
 10
59963.5772705078
 20
58688.8427734375
 30
0
  0
VERTEX
  8
LAY0_0
 10
60002.3345947266
 20
58669.189453125
 30
0
  0
VERTEX
  8
LAY0_0
 10
60041.5954589844
 20
58651.0009765625
 30
0
  0
VERTEX
  8
LAY0_0
 10
60081.2683105469
 20
58634.27734375
 30
0
  0
VERTEX
  8
LAY0_0
 10
60121.2768554687
 20
58619.2016601562
 30
0
  0
VERTEX
  8
LAY0_0
 10
60161.5295410156
 20
58605.8349609375
 30
0
  0
VERTEX
  8
LAY0_0
 10
60201.9500732422
 20
58594.2993164062
 30
0
  0
VERTEX
  8
LAY0_0
 10
60242.431640625
 20
58584.6557617187
 30
0
  0
VERTEX
  8
LAY0_0
 10
60282.9132080078
 20
58577.0263671875
 30
0
  0
VERTEX
  8
LAY0_0
 10
60323.3184814453
 20
58571.4721679688
 30
0
  0
VERTEX
  8
LAY0_0
 10
60363.5406494141
 20
58568.115234375
 30
0
  0
VERTEX
  8
LAY0_0
 10
60403.5034179688
 20
58567.0776367187
 30
0
  0
VERTEX
  8
LAY0_0
 10
60443.115234375
 20
58568.4204101562
 30
0
  0
VERTEX
  8
LAY0_0
 10
60482.2998046875
 20
58572.2045898438
 30
0
  0
VERTEX
  8
LAY0_0
 10
60520.9655761719
 20
58578.61328125
 30
0
  0
VERTEX
  8
LAY0_0
 10
60559.0362548828
 20
58587.7075195313
 30
0
  0
VERTEX
  8
LAY0_0
 10
60596.4202880859
 20
58599.5483398438
 30
0
  0
VERTEX
  8
LAY0_0
 10
60633.0871582031
 20
58614.1967773437
 30
0
  0
VERTEX
  8
LAY0_0
 10
60669.1131591797
 20
58631.1340332031
 30
0
  0
VERTEX
  8
LAY0_0
 10
60704.6966552734
 20
58649.7192382813
 30
0
  0
VERTEX
  8
LAY0_0
 10
60740.0054931641
 20
58669.3725585938
 30
0
  0
VERTEX
  8
LAY0_0
 10
60762.7105712891
 20
58682.3120117187
 30
0
  0
SEQEND
  0
POLYLINE
  8
LAY0_0
  6
CONTINUOUS
 62
3
 66
  1
 10
0
 20
0
 30
0
  0
VERTEX
  8
LAY0_0
 10
133546.371459961
 20
70805.5725097656
 30
0
  0
VERTEX
  8
LAY0_0
 10
134008.041381836
 20
71002.3956298828
 30
0
  0
VERTEX
  8
LAY0_0
 10
134507.873535156
 20
71032.0892333984
 30
0
  0
VERTEX
  8
LAY0_0
 10
135017.791748047
 20
71005.5236816406
 30
0
  0
VERTEX
  8
LAY0_0
 10
135485.290527344
 20
71135.8032226563
 30
0
  0
VERTEX
  8
LAY0_0
 10
135912.124633789
 20
71399.3072509766
 30
0
  0
VERTEX
  8
LAY0_0
 10
136295.059204102
 20
71756.7291259766
 30
0
  0
VERTEX
  8
LAY0_0
 10
136641.159057617
 20
72183.7005615234
 30
0
  0
VERTEX
  8
LAY0_0
 10
137058.975219727
 20
72315.7806396484
 30
0
  0
VERTEX
  8
LAY0_0
 10
137539.443969727
 20
72210.4949951172
 30
0
  0
VERTEX
  8
LAY0_0
 10
137896.194458008
 20
72552.4444580078
 30
0
  0
VERTEX
  8
LAY0_0
 10
137991.363525391
 20
72710.6018066406
 30
0
  0
SEQEND
  0
POLYLINE
  8
LAY0_0
  6
CONTINUOUS
 62
3
 66
  1
 10
0
 20
0
 30
0
  0
VERTEX
  8
LAY0_0
 10
55509.9334716797
 20
58110.7482910156
 30
0
  0
VERTEX
  8
LAY0_0
 10
55548.9349365234
 20
58097.16796875
 30
0
  0
VERTEX
  8
LAY0_0
 10
55587.9364013672
 20
58083.7707519531
 30
0
  0
VERTEX
  8
LAY0_0
 10
55626.9378662109
 20
58070.7397460937
 30
0
  0
VERTEX
  8
LAY0_0
 10
55665.9393310547
 20
58058.2885742188
 30
0
  0
VERTEX
  8
LAY0_0
 10
55704.9407958984
 20
58046.6003417969
 30
0
  0
VERTEX
  8
LAY0_0
 10
55743.9727783203
 20
58035.8276367187
 30
0
  0
VERTEX
  8
LAY0_0
 10
55783.0047607422
 20
58026.2145996094
 30
0
  0
VERTEX
  8
LAY0_0
 10
55822.0672607422
 20
58017.8833007812
 30
0
  0
VERTEX
  8
LAY0_0
 10
55861.1297607422
 20
58011.1083984375
 30
0
  0
VERTEX
  8
LAY0_0
 10
55900.2227783203
 20
58005.9814453125
 30
0
  0
VERTEX
  8
LAY0_0
 10
55939.3157958984
 20
58002.7465820312
 30
0
  0
VERTEX
  8
LAY0_0
 10
55978.4545898438
 20
58001.5869140625
 30
0
  0
VERTEX
  8
LAY0_0
 10
56017.6239013672
 20
58002.685546875
 30
0
  0
VERTEX
  8
LAY0_0
 10
56056.8084716797
 20
58005.9204101562
 30
0
  0
VERTEX
  8
LAY0_0
 10
56096.0235595703
 20
58011.0473632813
 30
0
  0
VERTEX
  8
LAY0_0
 10
56135.2691650391
 20
58017.6086425781
 30
0
  0
VERTEX
  8
LAY0_0
 10
56174.5758056641
 20
58025.2990722656
 30
0
  0
VERTEX
  8
LAY0_0
 10
56213.9282226562
 20
58033.7524414062
 30
0
  0
VERTEX
  8
LAY0_0
 10
56253.3416748047
 20
58042.6025390625
 30
0
  0
VERTEX
  8
LAY0_0
 10
56292.8009033203
 20
58051.4526367187
 30
0
  0
VERTEX
  8
LAY0_0
 10
56332.3364257812
 20
58059.9975585938
 30
0
  0
VERTEX
  8
LAY0_0
 10
56371.9329833984
 20
58067.8405761719
 30
0
  0
VERTEX
  8
LAY0_0
 10
56411.62109375
 20
58074.6459960937
 30
0
  0
VERTEX
  8
LAY0_0
 10
56451.3702392578
 20
58080.0170898438
 30
0
  0
VERTEX
  8
LAY0_0
 10
56491.2261962891
 20
58083.6181640625
 30
0
  0
VERTEX
  8
LAY0_0
 10
56531.1584472656
 20
58085.205078125
 30
0
  0
VERTEX
  8
LAY0_0
 10
56571.1212158203
 20
58084.716796875
 30
0
  0
VERTEX
  8
LAY0_0
 10
56611.0687255859
 20
58082.2448730469
 30
0
  0
VERTEX
  8
LAY0_0
 10
56650.9552001953
 20
58077.9113769531
 30
0
  0
VERTEX
  8
LAY0_0
 10
56690.7196044922
 20
58071.77734375
 30
0
  0
VERTEX
  8
LAY0_0
 10
56730.3009033203
 20
58063.8427734375
 30
0
  0
VERTEX
  8
LAY0_0
 10
56769.6685791016
 20
58054.3212890625
 30
0
  0
VERTEX
  8
LAY0_0
 10
56808.7615966797
 20
58043.1518554687
 30
0
  0
VERTEX
  8
LAY0_0
 10
56847.5036621094
 20
58030.517578125
 30
0
  0
VERTEX
  8
LAY0_0
 10
56885.8795166016
 20
58016.4184570312
 30
0
  0
VERTEX
  8
LAY0_0
 10
56923.8128662109
 20
58000.9765625
 30
0
  0
VERTEX
  8
LAY0_0
 10
56961.2426757812
 20
57984.2529296875
 30
0
  0
VERTEX
  8
LAY0_0
 10
56998.1384277344
 20
57966.30859375
 30
0
  0
VERTEX
  8
LAY0_0
 10
57034.4390869141
 20
57947.265625
 30
0
  0
VERTEX
  8
LAY0_0
 10
57070.0836181641
 20
57927.1240234375
 30
0
  0
VERTEX
  8
LAY0_0
 10
57104.9652099609
 20
57905.8837890625
 30
0
  0
VERTEX
  8
LAY0_0
 10
57138.9312744141
 20
57883.4838867187
 30
0
  0
VERTEX
  8
LAY0_0
 10
57171.8902587891
 20
57859.9243164062
 30
0
  0
VERTEX
  8
LAY0_0
 10
57203.7200927734
 20
57835.1745605469
 30
0
  0
VERTEX
  8
LAY0_0
 10
57234.2987060547
 20
57809.1430664062
 30
0
  0
VERTEX
  8
LAY0_0
 10
57263.4735107422
 20
57781.7993164062
 30
0
  0
VERTEX
  8
LAY0_0
 10
57291.1529541016
 20
57753.173828125
 30
0
  0
VERTEX
  8
LAY0_0
 10
57317.1997070313
 20
57723.1140136719
 30
0
  0
VERTEX
  8
LAY0_0
 10
57341.5069580078
 20
57691.650390625
 30
0
  0
VERTEX
  8
LAY0_0
 10
57363.9984130859
 20
57658.7829589844
 30
0
  0
VERTEX
  8
LAY0_0
 10
57384.6740722656
 20
57624.6337890625
 30
0
  0
VERTEX
  8
LAY0_0
 10
57403.5797119141
 20
57589.2944335937
 30
0
  0
VERTEX
  8
LAY0_0
 10
57420.7305908203
 20
57552.8564453125
 30
0
  0
VERTEX
  8
LAY0_0
 10
57436.1267089844
 20
57515.5029296875
 30
0
  0
VERTEX
  8
LAY0_0
 10
57449.8138427734
 20
57477.294921875
 30
0
  0
VERTEX
  8
LAY0_0
 10
57461.7919921875
 20
57438.3850097656
 30
0
  0
VERTEX
  8
LAY0_0
 10
57472.0916748047
 20
57398.8342285156
 30
0
  0
VERTEX
  8
LAY0_0
 10
57480.7586669922
 20
57358.7951660156
 30
0
  0
VERTEX
  8
LAY0_0
 10
57487.7777099609
 20
57318.359375
 30
0
  0
VERTEX
  8
LAY0_0
 10
57493.1640625
 20
57277.6489257812
 30
0
  0
VERTEX
  8
LAY0_0
 10
57496.9635009766
 20
57236.81640625
 30
0
  0
VERTEX
  8
LAY0_0
 10
57499.1607666016
 20
57195.9228515625
 30
0
  0
VERTEX
  8
LAY0_0
 10
57499.5269775391
 20
57155.1513671875
 30
0
  0
VERTEX
  8
LAY0_0
 10
57497.8485107422
 20
57114.6545410156
 30
0
  0
VERTEX
  8
LAY0_0
 10
57493.9270019531
 20
57074.6154785156
 30
0
  0
VERTEX
  8
LAY0_0
 10
57487.5335693359
 20
57035.2172851562
 30
0
  0
VERTEX
  8
LAY0_0
 10
57478.4393310547
 20
56996.58203125
 30
0
  0
VERTEX
  8
LAY0_0
 10
57466.4154052734
 20
56958.8623046875
 30
0
  0
VERTEX
  8
LAY0_0
 10
57451.4770507812
 20
56922.1801757812
 30
0
  0
VERTEX
  8
LAY0_0
 10
57433.9752197266
 20
56886.474609375
 30
0
  0
VERTEX
  8
LAY0_0
 10
57414.3218994141
 20
56851.5625
 30
0
  0
VERTEX
  8
LAY0_0
 10
57392.9748535156
 20
56817.3828125
 30
0
  0
VERTEX
  8
LAY0_0
 10
57370.3460693359
 20
56783.8134765625
 30
0
  0
VERTEX
  8
LAY0_0
 10
57346.8780517578
 20
56750.7629394531
 30
0
  0
VERTEX
  8
LAY0_0
 10
57322.9675292969
 20
56718.1396484375
 30
0
  0
VERTEX
  8
LAY0_0
 10
57299.0570068359
 20
56685.791015625
 30
0
  0
VERTEX
  8
LAY0_0
 10
57275.4669189453
 20
56653.6254882812
 30
0
  0
VERTEX
  8
LAY0_0
 10
57252.2735595703
 20
56621.4294433594
 30
0
  0
VERTEX
  8
LAY0_0
 10
57229.5532226562
 20
56589.0502929687
 30
0
  0
VERTEX
  8
LAY0_0
 10
57207.4127197266
 20
56556.2438964844
 30
0
  0
VERTEX
  8
LAY0_0
 10
57185.9283447266
 20
56522.8881835937
 30
0
  0
VERTEX
  8
LAY0_0
 10
57165.1611328125
 20
56488.7390136719
 30
0
  0
VERTEX
  8
LAY0_0
 10
57145.2178955078
 20
56453.6437988281
 30
0
  0
VERTEX
  8
LAY0_0
 10
57126.1444091797
 20
56417.3889160156
 30
0
  0
VERTEX
  8
LAY0_0
 10
57108.0780029297
 20
56379.8217773438
 30
0
  0
VERTEX
  8
LAY0_0
 10
57091.2017822266
 20
56340.9423828125
 30
0
  0
VERTEX
  8
LAY0_0
 10
57075.8514404297
 20
56301.025390625
 30
0
  0
VERTEX
  8
LAY0_0
 10
57062.4542236328
 20
56260.4064941406
 30
0
  0
VERTEX
  8
LAY0_0
 10
57051.3305664063
 20
56219.3298339844
 30
0
  0
VERTEX
  8
LAY0_0
 10
57042.8771972656
 20
56178.1311035156
 30
0
  0
VERTEX
  8
LAY0_0
 10
57037.4603271484
 20
56137.0849609375
 30
0
  0
VERTEX
  8
LAY0_0
 10
57035.4461669922
 20
56096.4965820313
 30
0
  0
VERTEX
  8
LAY0_0
 10
57037.2314453125
 20
56056.640625
 30
0
  0
VERTEX
  8
LAY0_0
 10
57043.1518554687
 20
56017.7917480469
 30
0
  0
VERTEX
  8
LAY0_0
 10
57053.6041259766
 20
55980.3161621094
 30
0
  0
VERTEX
  8
LAY0_0
 10
57068.8934326172
 20
55944.4274902344
 30
0
  0
VERTEX
  8
LAY0_0
 10
57088.5467529297
 20
55910.0646972656
 30
0
  0
VERTEX
  8
LAY0_0
 10
57111.0076904297
 20
55876.6479492188
 30
0
  0
VERTEX
  8
LAY0_0
 10
57134.7198486328
 20
55843.6584472656
 30
0
  0
VERTEX
  8
LAY0_0
 10
57158.1726074219
 20
55810.5163574219
 30
0
  0
VERTEX
  8
LAY0_0
 10
57179.7790527344
 20
55776.6723632812
 30
0
  0
VERTEX
  8
LAY0_0
 10
57197.9827880859
 20
55741.5161132812
 30
0
  0
VERTEX
  8
LAY0_0
 10
57211.6546630859
 20
55704.7119140625
 30
0
  0
VERTEX
  8
LAY0_0
 10
57221.0540771484
 20
55666.4123535156
 30
0
  0
VERTEX
  8
LAY0_0
 10
57226.8524169922
 20
55626.9226074219
 30
0
  0
VERTEX
  8
LAY0_0
 10
57229.6295166016
 20
55586.5478515625
 30
0
  0
VERTEX
  8
LAY0_0
 10
57229.9957275391
 20
55545.5627441406
 30
0
  0
VERTEX
  8
LAY0_0
 10
57228.5919189453
 20
55504.3334960937
 30
0
  0
VERTEX
  8
LAY0_0
 10
57226.0284423828
 20
55463.0737304687
 30
0
  0
VERTEX
  8
LAY0_0
 10
57222.9156494141
 20
55422.1801757812
 30
0
  0
VERTEX
  8
LAY0_0
 10
57219.5892333984
 20
55381.6833496094
 30
0
  0
VERTEX
  8
LAY0_0
 10
57216.1407470703
 20
55341.552734375
 30
0
  0
VERTEX
  8
LAY0_0
 10
57212.6770019531
 20
55301.6662597656
 30
0
  0
VERTEX
  8
LAY0_0
 10
57209.2742919922
 20
55261.9934082031
 30
0
  0
VERTEX
  8
LAY0_0
 10
57206.0089111328
 20
55222.412109375
 30
0
  0
VERTEX
  8
LAY0_0
 10
57203.0029296875
 20
55182.861328125
 30
0
  0
VERTEX
  8
LAY0_0
 10
57200.3173828125
 20
55143.310546875
 30
0
  0
VERTEX
  8
LAY0_0
 10
57198.0438232422
 20
55103.5766601562
 30
0
  0
VERTEX
  8
LAY0_0
 10
57196.2738037109
 20
55063.6596679687
 30
0
  0
VERTEX
  8
LAY0_0
 10
57195.1141357422
 20
55023.5595703125
 30
0
  0
VERTEX
  8
LAY0_0
 10
57194.7479248047
 20
54983.3679199219
 30
0
  0
VERTEX
  8
LAY0_0
 10
57195.2667236328
 20
54943.115234375
 30
0
  0
VERTEX
  8
LAY0_0
 10
57196.8536376953
 20
54902.8930664063
 30
0
  0
VERTEX
  8
LAY0_0
 10
57199.6307373047
 20
54862.7624511719
 30
0
  0
VERTEX
  8
LAY0_0
 10
57203.7506103516
 20
54822.8149414063
 30
0
  0
VERTEX
  8
LAY0_0
 10
57209.3658447266
 20
54783.1115722656
 30
0
  0
VERTEX
  8
LAY0_0
 10
57216.5985107422
 20
54743.7133789063
 30
0
  0
VERTEX
  8
LAY0_0
 10
57225.5706787109
 20
54704.7424316406
 30
0
  0
VERTEX
  8
LAY0_0
 10
57236.3739013672
 20
54666.1682128906
 30
0
  0
VERTEX
  8
LAY0_0
 10
57248.6419677734
 20
54627.9602050781
 30
0
  0
VERTEX
  8
LAY0_0
 10
57262.0086669922
 20
54590.0268554687
 30
0
  0
VERTEX
  8
LAY0_0
 10
57276.0925292969
 20
54552.3071289063
 30
0
  0
VERTEX
  8
LAY0_0
 10
57290.5426025391
 20
54514.7094726562
 30
0
  0
VERTEX
  8
LAY0_0
 10
57304.9468994141
 20
54477.1728515625
 30
0
  0
VERTEX
  8
LAY0_0
 10
57318.9544677734
 20
54439.5751953125
 30
0
  0
VERTEX
  8
LAY0_0
 10
57332.1685791016
 20
54401.85546875
 30
0
  0
VERTEX
  8
LAY0_0
 10
57344.2535400391
 20
54363.9221191406
 30
0
  0
VERTEX
  8
LAY0_0
 10
57354.7668457031
 20
54325.7141113281
 30
0
  0
VERTEX
  8
LAY0_0
 10
57363.3880615234
 20
54287.1398925781
 30
0
  0
VERTEX
  8
LAY0_0
 10
57369.9951171875
 20
54248.1689453125
 30
0
  0
VERTEX
  8
LAY0_0
 10
57374.9084472656
 20
54208.8317871094
 30
0
  0
VERTEX
  8
LAY0_0
 10
57378.4637451172
 20
54169.189453125
 30
0
  0
VERTEX
  8
LAY0_0
 10
57381.0272216797
 20
54129.2724609375
 30
0
  0
VERTEX
  8
LAY0_0
 10
57382.9498291016
 20
54089.111328125
 30
0
  0
VERTEX
  8
LAY0_0
 10
57384.5367431641
 20
54048.7670898438
 30
0
  0
VERTEX
  8
LAY0_0
 10
57386.1846923828
 20
54008.30078125
 30
0
  0
VERTEX
  8
LAY0_0
 10
57388.2293701172
 20
53967.7429199219
 30
0
  0
VERTEX
  8
LAY0_0
 10
57390.9301757812
 20
53927.1240234375
 30
0
  0
VERTEX
  8
LAY0_0
 10
57394.4549560547
 20
53886.5356445313
 30
0
  0
VERTEX
  8
LAY0_0
 10
57398.8952636719
 20
53846.1303710937
 30
0
  0
VERTEX
  8
LAY0_0
 10
57404.3731689453
 20
53805.9387207031
 30
0
  0
VERTEX
  8
LAY0_0
 10
57411.0260009766
 20
53766.0522460937
 30
0
  0
VERTEX
  8
LAY0_0
 10
57418.9453125
 20
53726.6235351562
 30
0
  0
VERTEX
  8
LAY0_0
 10
57428.2379150391
 20
53687.6831054687
 30
0
  0
VERTEX
  8
LAY0_0
 10
57439.0411376953
 20
53649.3835449219
 30
0
  0
VERTEX
  8
LAY0_0
 10
57451.4617919922
 20
53611.7553710937
 30
0
  0
VERTEX
  8
LAY0_0
 10
57465.5914306641
 20
53574.951171875
 30
0
  0
VERTEX
  8
LAY0_0
 10
57481.5521240234
 20
53539.0014648438
 30
0
  0
VERTEX
  8
LAY0_0
 10
57499.2828369141
 20
53503.9367675781
 30
0
  0
VERTEX
  8
LAY0_0
 10
57518.6309814453
 20
53469.6655273438
 30
0
  0
VERTEX
  8
LAY0_0
 10
57539.4897460937
 20
53436.1267089844
 30
0
  0
VERTEX
  8
LAY0_0
 10
57561.6912841797
 20
53403.2592773438
 30
0
  0
VERTEX
  8
LAY0_0
 10
57585.1287841797
 20
53370.9716796875
 30
0
  0
VERTEX
  8
LAY0_0
 10
57609.6343994141
 20
53339.2333984375
 30
0
  0
VERTEX
  8
LAY0_0
 10
57635.0860595703
 20
53307.9223632812
 30
0
  0
VERTEX
  8
LAY0_0
 10
57661.3311767578
 20
53277.0385742188
 30
0
  0
VERTEX
  8
LAY0_0
 10
57688.2781982422
 20
53246.4599609375
 30
0
  0
VERTEX
  8
LAY0_0
 10
57715.7135009766
 20
53216.1560058594
 30
0
  0
VERTEX
  8
LAY0_0
 10
57743.5760498047
 20
53186.03515625
 30
0
  0
VERTEX
  8
LAY0_0
 10
57771.6827392578
 20
53156.0668945313
 30
0
  0
VERTEX
  8
LAY0_0
 10
57796.1273193359
 20
53130.126953125
 30
0
  0
SEQEND
  0
POLYLINE
  8
LAY0_0
  6
CONTINUOUS
 62
3
 66
  1
 10
0
 20
0
 30
0
  0
VERTEX
  8
LAY0_0
 10
58693.6645507812
 20
62894.8059082031
 30
0
  0
VERTEX
  8
LAY0_0
 10
58686.8743896484
 20
62855.8044433594
 30
0
  0
VERTEX
  8
LAY0_0
 10
58680.0689697266
 20
62816.7724609375
 30
0
  0
VERTEX
  8
LAY0_0
 10
58673.1414794922
 20
62777.7709960937
 30
0
  0
VERTEX
  8
LAY0_0
 10
58666.1224365234
 20
62738.76953125
 30
0
  0
VERTEX
  8
LAY0_0
 10
58658.9202880859
 20
62699.7375488281
 30
0
  0
VERTEX
  8
LAY0_0
 10
58651.5045166016
 20
62660.7055664062
 30
0
  0
VERTEX
  8
LAY0_0
 10
58643.8446044922
 20
62621.6430664062
 30
0
  0
VERTEX
  8
LAY0_0
 10
58635.8795166016
 20
62582.5805664062
 30
0
  0
VERTEX
  8
LAY0_0
 10
58627.5787353516
 20
62543.5180664062
 30
0
  0
VERTEX
  8
LAY0_0
 10
58618.9117431641
 20
62504.4555664062
 30
0
  0
VERTEX
  8
LAY0_0
 10
58609.8175048828
 20
62465.33203125
 30
0
  0
VERTEX
  8
LAY0_0
 10
58600.2502441406
 20
62426.2084960937
 30
0
  0
VERTEX
  8
LAY0_0
 10
58590.1947021484
 20
62387.0849609375
 30
0
  0
VERTEX
  8
LAY0_0
 10
58579.5745849609
 20
62347.9309082031
 30
0
  0
VERTEX
  8
LAY0_0
 10
58568.3746337891
 20
62308.7463378906
 30
0
  0
VERTEX
  8
LAY0_0
 10
58556.5338134766
 20
62269.53125
 30
0
  0
VERTEX
  8
LAY0_0
 10
58543.9910888672
 20
62230.3771972656
 30
0
  0
VERTEX
  8
LAY0_0
 10
58530.5328369141
 20
62191.4672851562
 30
0
  0
VERTEX
  8
LAY0_0
 10
58515.9606933594
 20
62153.0151367187
 30
0
  0
VERTEX
  8
LAY0_0
 10
58500.0457763672
 20
62115.3564453125
 30
0
  0
VERTEX
  8
LAY0_0
 10
58482.6202392578
 20
62078.6743164062
 30
0
  0
VERTEX
  8
LAY0_0
 10
58463.4246826172
 20
62043.212890625
 30
0
  0
VERTEX
  8
LAY0_0
 10
58442.2912597656
 20
62009.2163085938
 30
0
  0
VERTEX
  8
LAY0_0
 10
58418.9910888672
 20
61976.9897460937
 30
0
  0
VERTEX
  8
LAY0_0
 10
58393.2952880859
 20
61946.7163085938
 30
0
  0
VERTEX
  8
LAY0_0
 10
58365.0207519531
 20
61918.6401367187
 30
0
  0
VERTEX
  8
LAY0_0
 10
58334.1217041016
 20
61892.8833007812
 30
0
  0
VERTEX
  8
LAY0_0
 10
58301.0559082031
 20
61869.0795898438
 30
0
  0
VERTEX
  8
LAY0_0
 10
58266.4184570312
 20
61846.7407226563
 30
0
  0
VERTEX
  8
LAY0_0
 10
58230.7891845703
 20
61825.439453125
 30
0
  0
VERTEX
  8
LAY0_0
 10
58194.7021484375
 20
61804.7180175781
 30
0
  0
VERTEX
  8
LAY0_0
 10
58158.7677001953
 20
61784.1186523437
 30
0
  0
VERTEX
  8
LAY0_0
 10
58123.5504150391
 20
61763.1530761719
 30
0
  0
VERTEX
  8
LAY0_0
 10
58089.6148681641
 20
61741.3940429688
 30
0
  0
VERTEX
  8
LAY0_0
 10
58057.5408935547
 20
61718.3837890625
 30
0
  0
VERTEX
  8
LAY0_0
 10
58027.9083251953
 20
61693.6645507812
 30
0
  0
VERTEX
  8
LAY0_0
 10
58001.2969970703
 20
61666.748046875
 30
0
  0
VERTEX
  8
LAY0_0
 10
57978.2562255859
 20
61637.2375488281
 30
0
  0
VERTEX
  8
LAY0_0
 10
57958.9233398438
 20
61604.98046875
 30
0
  0
VERTEX
  8
LAY0_0
 10
57942.8558349609
 20
61570.3125
 30
0
  0
VERTEX
  8
LAY0_0
 10
57929.5806884766
 20
61533.5693359375
 30
0
  0
VERTEX
  8
LAY0_0
 10
57918.6248779297
 20
61495.0866699219
 30
0
  0
VERTEX
  8
LAY0_0
 10
57909.4696044922
 20
61455.2612304687
 30
0
  0
VERTEX
  8
LAY0_0
 10
57901.6723632813
 20
61414.4592285156
 30
0
  0
VERTEX
  8
LAY0_0
 10
57894.7296142578
 20
61372.9858398438
 30
0
  0
VERTEX
  8
LAY0_0
 10
57888.1530761719
 20
61331.2377929688
 30
0
  0
VERTEX
  8
LAY0_0
 10
57881.4849853516
 20
61289.55078125
 30
0
  0
VERTEX
  8
LAY0_0
 10
57874.2218017578
 20
61248.2604980469
 30
0
  0
VERTEX
  8
LAY0_0
 10
57866.1041259766
 20
61207.5805664062
 30
0
  0
VERTEX
  8
LAY0_0
 10
57857.0709228516
 20
61167.48046875
 30
0
  0
VERTEX
  8
LAY0_0
 10
57847.1069335938
 20
61127.9907226563
 30
0
  0
VERTEX
  8
LAY0_0
 10
57836.1358642578
 20
61089.1723632813
 30
0
  0
VERTEX
  8
LAY0_0
 10
57824.1271972656
 20
61050.9338378906
 30
0
  0
VERTEX
  8
LAY0_0
 10
57811.03515625
 20
61013.3361816406
 30
0
  0
VERTEX
  8
LAY0_0
 10
57796.8292236328
 20
60976.3793945313
 30
0
  0
VERTEX
  8
LAY0_0
 10
57781.4178466797
 20
60940.0634765625
 30
0
  0
VERTEX
  8
LAY0_0
 10
57764.8162841797
 20
60904.3884277344
 30
0
  0
VERTEX
  8
LAY0_0
 10
57746.9635009766
 20
60869.3542480469
 30
0
  0
VERTEX
  8
LAY0_0
 10
57727.7984619141
 20
60834.9914550781
 30
0
  0
VERTEX
  8
LAY0_0
 10
57707.3822021484
 20
60801.26953125
 30
0
  0
VERTEX
  8
LAY0_0
 10
57685.8062744141
 20
60768.1274414062
 30
0
  0
VERTEX
  8
LAY0_0
 10
57663.1469726563
 20
60735.5651855469
 30
0
  0
VERTEX
  8
LAY0_0
 10
57639.5111083984
 20
60703.5522460937
 30
0
  0
VERTEX
  8
LAY0_0
 10
57614.9597167969
 20
60671.9970703125
 30
0
  0
VERTEX
  8
LAY0_0
 10
57589.599609375
 20
60640.8996582031
 30
0
  0
VERTEX
  8
LAY0_0
 10
57563.5223388672
 20
60610.2294921875
 30
0
  0
VERTEX
  8
LAY0_0
 10
57536.7889404297
 20
60579.9560546875
 30
0
  0
VERTEX
  8
LAY0_0
 10
57509.5367431641
 20
60549.9877929688
 30
0
  0
VERTEX
  8
LAY0_0
 10
57481.7962646484
 20
60520.3857421875
 30
0
  0
VERTEX
  8
LAY0_0
 10
57453.6895751953
 20
60491.0278320312
 30
0
  0
VERTEX
  8
LAY0_0
 10
57425.3082275391
 20
60461.9140625
 30
0
  0
VERTEX
  8
LAY0_0
 10
57396.728515625
 20
60433.0444335938
 30
0
  0
VERTEX
  8
LAY0_0
 10
57368.0267333984
 20
60404.296875
 30
0
  0
VERTEX
  8
LAY0_0
 10
57339.2333984375
 20
60375.7934570312
 30
0
  0
VERTEX
  8
LAY0_0
 10
57310.3179931641
 20
60347.4731445313
 30
0
  0
VERTEX
  8
LAY0_0
 10
57281.2347412109
 20
60319.3969726563
 30
0
  0
VERTEX
  8
LAY0_0
 10
57251.9836425781
 20
60291.6259765625
 30
0
  0
VERTEX
  8
LAY0_0
 10
57222.5189208984
 20
60264.16015625
 30
0
  0
VERTEX
  8
LAY0_0
 10
57192.8558349609
 20
60237.060546875
 30
0
  0
VERTEX
  8
LAY0_0
 10
57162.9180908203
 20
60210.3271484375
 30
0
  0
VERTEX
  8
LAY0_0
 10
57132.7056884766
 20
60184.0515136719
 30
0
  0
VERTEX
  8
LAY0_0
 10
57102.1881103516
 20
60158.2336425781
 30
0
  0
VERTEX
  8
LAY0_0
 10
57071.3348388672
 20
60132.8735351562
 30
0
  0
VERTEX
  8
LAY0_0
 10
57040.1153564453
 20
60108.0932617187
 30
0
  0
VERTEX
  8
LAY0_0
 10
57008.5296630859
 20
60083.8317871094
 30
0
  0
VERTEX
  8
LAY0_0
 10
56976.5319824219
 20
60060.1806640625
 30
0
  0
VERTEX
  8
LAY0_0
 10
56944.1070556641
 20
60037.1704101562
 30
0
  0
VERTEX
  8
LAY0_0
 10
56911.2091064453
 20
60014.8010253906
 30
0
  0
VERTEX
  8
LAY0_0
 10
56877.8228759766
 20
59993.1335449219
 30
0
  0
VERTEX
  8
LAY0_0
 10
56843.9483642578
 20
59972.1984863281
 30
0
  0
VERTEX
  8
LAY0_0
 10
56809.6160888672
 20
59951.904296875
 30
0
  0
VERTEX
  8
LAY0_0
 10
56774.9481201172
 20
59932.0983886719
 30
0
  0
VERTEX
  8
LAY0_0
 10
56739.9749755859
 20
59912.6586914062
 30
0
  0
VERTEX
  8
LAY0_0
 10
56704.833984375
 20
59893.4936523437
 30
0
  0
VERTEX
  8
LAY0_0
 10
56669.5861816406
 20
59874.4201660156
 30
0
  0
VERTEX
  8
LAY0_0
 10
56634.3231201172
 20
59855.3466796875
 30
0
  0
VERTEX
  8
LAY0_0
 10
56599.1363525391
 20
59836.1206054687
 30
0
  0
VERTEX
  8
LAY0_0
 10
56564.1021728516
 20
59816.5893554687
 30
0
  0
VERTEX
  8
LAY0_0
 10
56529.3273925781
 20
59796.6613769531
 30
0
  0
VERTEX
  8
LAY0_0
 10
56494.8883056641
 20
59776.1840820312
 30
0
  0
VERTEX
  8
LAY0_0
 10
56460.8612060547
 20
59755.0659179688
 30
0
  0
VERTEX
  8
LAY0_0
 10
56427.3529052734
 20
59733.0932617187
 30
0
  0
VERTEX
  8
LAY0_0
 10
56394.4244384766
 20
59710.205078125
 30
0
  0
VERTEX
  8
LAY0_0
 10
56362.1826171875
 20
59686.279296875
 30
0
  0
VERTEX
  8
LAY0_0
 10
56330.7037353516
 20
59661.1328125
 30
0
  0
VERTEX
  8
LAY0_0
 10
56300.0946044922
 20
59634.6435546875
 30
0
  0
VERTEX
  8
LAY0_0
 10
56270.4315185547
 20
59606.7504882813
 30
0
  0
VERTEX
  8
LAY0_0
 10
56241.7755126953
 20
59577.2094726563
 30
0
  0
VERTEX
  8
LAY0_0
 10
56214.0655517578
 20
59546.3562011719
 30
0
  0
VERTEX
  8
LAY0_0
 10
56186.6912841797
 20
59515.5029296875
 30
0
  0
VERTEX
  8
LAY0_0
 10
56158.9202880859
 20
59486.2060546875
 30
0
  0
VERTEX
  8
LAY0_0
 10
56130.0811767578
 20
59460.0830078125
 30
0
  0
VERTEX
  8
LAY0_0
 10
56099.4110107422
 20
59438.5986328125
 30
0
  0
VERTEX
  8
LAY0_0
 10
56066.5740966797
 20
59422.607421875
 30
0
  0
VERTEX
  8
LAY0_0
 10
56031.6925048828
 20
59411.7431640625
 30
0
  0
VERTEX
  8
LAY0_0
 10
55994.9798583984
 20
59405.5480957031
 30
0
  0
VERTEX
  8
LAY0_0
 10
55956.6192626953
 20
59403.4423828125
 30
0
  0
VERTEX
  8
LAY0_0
 10
55916.7938232422
 20
59404.9987792969
 30
0
  0
VERTEX
  8
LAY0_0
 10
55875.7476806641
 20
59409.66796875
 30
0
  0
VERTEX
  8
LAY0_0
 10
55833.6334228516
 20
59416.9921875
 30
0
  0
VERTEX
  8
LAY0_0
 10
55790.6799316406
 20
59426.4526367187
 30
0
  0
VERTEX
  8
LAY0_0
 10
55747.0703125
 20
59437.5610351562
 30
0
  0
VERTEX
  8
LAY0_0
 10
55703.0029296875
 20
59449.7985839844
 30
0
  0
VERTEX
  8
LAY0_0
 10
55658.6761474609
 20
59462.6770019531
 30
0
  0
VERTEX
  8
LAY0_0
 10
55645.7977294922
 20
59466.4611816406
 30
0
  0
SEQEND
  0
POLYLINE
  8
LAY0_0
  6
CONTINUOUS
 62
3
 66
  1
 10
0
 20
0
 30
0
  0
VERTEX
  8
LAY0_0
 10
136841.415405273
 20
64321.5942382813
 30
0
  0
VERTEX
  8
LAY0_0
 10
136694.488525391
 20
63898.6968994141
 30
0
  0
VERTEX
  8
LAY0_0
 10
136987.609863281
 20
63497.7416992188
 30
0
  0
VERTEX
  8
LAY0_0
 10
137199.096679688
 20
63047.8973388672
 30
0
  0
VERTEX
  8
LAY0_0
 10
137361.175537109
 20
62565.673828125
 30
0
  0
VERTEX
  8
LAY0_0
 10
137534.118652344
 20
62088.3941650391
 30
0
  0
VERTEX
  8
LAY0_0
 10
137736.511230469
 20
61629.5776367187
 30
0
  0
VERTEX
  8
LAY0_0
 10
137935.134887695
 20
61173.33984375
 30
0
  0
VERTEX
  8
LAY0_0
 10
138096.862792969
 20
60703.369140625
 30
0
  0
VERTEX
  8
LAY0_0
 10
138225.006103516
 20
60219.7418212891
 30
0
  0
VERTEX
  8
LAY0_0
 10
138345.321655273
 20
59732.6202392578
 30
0
  0
VERTEX
  8
LAY0_0
 10
138479.751586914
 20
59250.7019042969
 30
0
  0
VERTEX
  8
LAY0_0
 10
138618.225097656
 20
58770.4010009766
 30
0
  0
VERTEX
  8
LAY0_0
 10
138741.806030273
 20
58284.6527099609
 30
0
  0
VERTEX
  8
LAY0_0
 10
138860.122680664
 20
57797.0275878906
 30
0
  0
VERTEX
  8
LAY0_0
 10
138991.394042969
 20
57314.3463134766
 30
0
  0
VERTEX
  8
LAY0_0
 10
139153.869628906
 20
56843.3685302734
 30
0
  0
VERTEX
  8
LAY0_0
 10
139354.873657227
 20
56386.5814208984
 30
0
  0
VERTEX
  8
LAY0_0
 10
139556.610107422
 20
55928.5430908203
 30
0
  0
VERTEX
  8
LAY0_0
 10
139713.226318359
 20
55450.8056640625
 30
0
  0
VERTEX
  8
LAY0_0
 10
139861.175537109
 20
54975.2807617188
 30
0
  0
SEQEND
  0
POLYLINE
  8
LAY0_0
  6
CONTINUOUS
 62
3
 66
  1
 10
0
 20
0
 30
0
  0
VERTEX
  8
LAY0_0
 10
115489.639282227
 20
29558.5327148438
 30
0
  0
VERTEX
  8
LAY0_0
 10
115806.625366211
 20
29802.490234375
 30
0
  0
VERTEX
  8
LAY0_0
 10
116123.764038086
 20
30046.2951660156
 30
0
  0
VERTEX
  8
LAY0_0
 10
116441.177368164
 20
30289.7338867188
 30
0
  0
VERTEX
  8
LAY0_0
 10
116759.002685547
 20
30532.5927734375
 30
0
  0
VERTEX
  8
LAY0_0
 10
117077.407836914
 20
30774.7192382812
 30
0
  0
VERTEX
  8
LAY0_0
 10
117396.484375
 20
31015.9301757812
 30
0
  0
VERTEX
  8
LAY0_0
 10
117716.415405273
 20
31256.0424804687
 30
0
  0
VERTEX
  8
LAY0_0
 10
118037.307739258
 20
31494.8425292969
 30
0
  0
VERTEX
  8
LAY0_0
 10
118359.344482422
 20
31732.177734375
 30
0
  0
VERTEX
  8
LAY0_0
 10
118682.632446289
 20
31967.8344726562
 30
0
  0
VERTEX
  8
LAY0_0
 10
119007.293701172
 20
32201.66015625
 30
0
  0
VERTEX
  8
LAY0_0
 10
119333.450317383
 20
32433.4716796875
 30
0
  0
VERTEX
  8
LAY0_0
 10
119661.178588867
 20
32663.0249023438
 30
0
  0
VERTEX
  8
LAY0_0
 10
119990.55480957
 20
32890.2282714844
 30
0
  0
VERTEX
  8
LAY0_0
 10
120321.701049805
 20
33114.8376464844
 30
0
  0
VERTEX
  8
LAY0_0
 10
120654.678344727
 20
33336.669921875
 30
0
  0
VERTEX
  8
LAY0_0
 10
120989.593505859
 20
33555.5419921875
 30
0
  0
VERTEX
  8
LAY0_0
 10
121326.522827148
 20
33771.3317871094
 30
0
  0
VERTEX
  8
LAY0_0
 10
121665.542602539
 20
33983.7646484375
 30
0
  0
VERTEX
  8
LAY0_0
 10
122006.774902344
 20
34192.7185058594
 30
0
  0
VERTEX
  8
LAY0_0
 10
122350.26550293
 20
34398.0102539063
 30
0
  0
VERTEX
  8
LAY0_0
 10
122696.014404297
 20
34599.5178222656
 30
0
  0
VERTEX
  8
LAY0_0
 10
123044.021606445
 20
34797.1496582031
 30
0
  0
VERTEX
  8
LAY0_0
 10
123394.256591797
 20
34990.8142089844
 30
0
  0
VERTEX
  8
LAY0_0
 10
123746.688842773
 20
35180.419921875
 30
0
  0
VERTEX
  8
LAY0_0
 10
124101.303100586
 20
35365.8447265625
 30
0
  0
VERTEX
  8
LAY0_0
 10
124458.114624023
 20
35547.0581054687
 30
0
  0
VERTEX
  8
LAY0_0
 10
124817.06237793
 20
35723.876953125
 30
0
  0
VERTEX
  8
LAY0_0
 10
125178.161621094
 20
35896.3012695313
 30
0
  0
VERTEX
  8
LAY0_0
 10
125541.244506836
 20
36064.453125
 30
0
  0
VERTEX
  8
LAY0_0
 10
125905.685424805
 20
36229.6447753906
 30
0
  0
VERTEX
  8
LAY0_0
 10
126270.736694336
 20
36393.4326171875
 30
0
  0
VERTEX
  8
LAY0_0
 10
126635.665893555
 20
36557.373046875
 30
0
  0
VERTEX
  8
LAY0_0
 10
126999.755859375
 20
36722.9919433594
 30
0
  0
VERTEX
  8
LAY0_0
 10
127362.228393555
 20
36891.8151855469
 30
0
  0
VERTEX
  8
LAY0_0
 10
127722.366333008
 20
37065.4602050781
 30
0
  0
VERTEX
  8
LAY0_0
 10
128079.75769043
 20
37244.7204589844
 30
0
  0
VERTEX
  8
LAY0_0
 10
128435.134887695
 20
37428.1311035156
 30
0
  0
VERTEX
  8
LAY0_0
 10
128789.474487305
 20
37613.7390136719
 30
0
  0
VERTEX
  8
LAY0_0
 10
129143.783569336
 20
37799.4995117188
 30
0
  0
VERTEX
  8
LAY0_0
 10
129499.0234375
 20
37983.3984375
 30
0
  0
VERTEX
  8
LAY0_0
 10
129856.216430664
 20
38163.4826660156
 30
0
  0
VERTEX
  8
LAY0_0
 10
130216.30859375
 20
38337.7075195313
 30
0
  0
VERTEX
  8
LAY0_0
 10
130580.307006836
 20
38504.1198730469
 30
0
  0
VERTEX
  8
LAY0_0
 10
130949.203491211
 20
38660.6750488281
 30
0
  0
VERTEX
  8
LAY0_0
 10
131323.974609375
 20
38805.3894042969
 30
0
  0
VERTEX
  8
LAY0_0
 10
131705.459594727
 20
38935.8520507812
 30
0
  0
VERTEX
  8
LAY0_0
 10
132093.09387207
 20
39046.0205078125
 30
0
  0
VERTEX
  8
LAY0_0
 10
132485.702514648
 20
39128.1433105469
 30
0
  0
VERTEX
  8
LAY0_0
 10
132882.080078125
 20
39174.4384765625
 30
0
  0
VERTEX
  8
LAY0_0
 10
133281.005859375
 20
39179.9011230469
 30
0
  0
VERTEX
  8
LAY0_0
 10
133681.289672852
 20
39159.1186523438
 30
0
  0
VERTEX
  8
LAY0_0
 10
133742.919921875
 20
39155.029296875
 30
0
  0
SEQEND
  0
POLYLINE
  8
LAY0_0
  6
CONTINUOUS
 62
5
 66
  1
 10
0
 20
0
 30
0
  0
VERTEX
  8
LAY0_0
 10
62755.5084228516
 20
51641.2048339844
 30
0
  0
VERTEX
  8
LAY0_0
 10
62931.7321777344
 20
51545.4406738281
 30
0
  0
VERTEX
  8
LAY0_0
 10
63104.3472290039
 20
51444.4580078125
 30
0
  0
VERTEX
  8
LAY0_0
 10
63269.775390625
 20
51333.0993652344
 30
0
  0
VERTEX
  8
LAY0_0
 10
63426.8035888672
 20
51209.7473144531
 30
0
  0
VERTEX
  8
LAY0_0
 10
63577.3315429688
 20
51077.4841308594
 30
0
  0
VERTEX
  8
LAY0_0
 10
63723.4954833984
 20
50939.7888183594
 30
0
  0
VERTEX
  8
LAY0_0
 10
63866.9738769531
 20
50799.4995117188
 30
0
  0
VERTEX
  8
LAY0_0
 10
64005.9967041016
 20
50655.6701660156
 30
0
  0
VERTEX
  8
LAY0_0
 10
64137.1002197266
 20
50505.2795410156
 30
0
  0
VERTEX
  8
LAY0_0
 10
64259.9639892578
 20
50347.9919433594
 30
0
  0
VERTEX
  8
LAY0_0
 10
64380.1116943359
 20
50188.0798339844
 30
0
  0
VERTEX
  8
LAY0_0
 10
64503.7994384766
 20
50030.4260253906
 30
0
  0
VERTEX
  8
LAY0_0
 10
64636.7034912109
 20
49879.5166015625
 30
0
  0
VERTEX
  8
LAY0_0
 10
64778.7933349609
 20
49735.5346679687
 30
0
  0
VERTEX
  8
LAY0_0
 10
64926.0711669922
 20
49595.6420898438
 30
0
  0
VERTEX
  8
LAY0_0
 10
65074.4781494141
 20
49457.03125
 30
0
  0
VERTEX
  8
LAY0_0
 10
65219.9554443359
 20
49316.89453125
 30
0
  0
VERTEX
  8
LAY0_0
 10
65358.4594726563
 20
49172.3327636719
 30
0
  0
VERTEX
  8
LAY0_0
 10
65485.9161376953
 20
49020.5688476562
 30
0
  0
VERTEX
  8
LAY0_0
 10
65598.2818603516
 20
48858.7036132812
 30
0
  0
VERTEX
  8
LAY0_0
 10
65691.6961669922
 20
48684.1735839844
 30
0
  0
VERTEX
  8
LAY0_0
 10
65766.1895751953
 20
48498.2604980469
 30
0
  0
VERTEX
  8
LAY0_0
 10
65824.9359130859
 20
48305.4504394531
 30
0
  0
VERTEX
  8
LAY0_0
 10
65871.2463378906
 20
48109.9853515625
 30
0
  0
VERTEX
  8
LAY0_0
 10
65908.3862304687
 20
47913.3911132812
 30
0
  0
VERTEX
  8
LAY0_0
 10
65939.5751953125
 20
47716.0034179687
 30
0
  0
VERTEX
  8
LAY0_0
 10
65968.0328369141
 20
47518.1884765625
 30
0
  0
VERTEX
  8
LAY0_0
 10
65996.5057373047
 20
47320.2819824219
 30
0
  0
VERTEX
  8
LAY0_0
 10
66025.2838134766
 20
47122.3449707031
 30
0
  0
VERTEX
  8
LAY0_0
 10
66053.9245605469
 20
46924.3774414063
 30
0
  0
VERTEX
  8
LAY0_0
 10
66082.1533203125
 20
46726.3793945313
 30
0
  0
VERTEX
  8
LAY0_0
 10
66110.4431152344
 20
46528.4118652344
 30
0
  0
VERTEX
  8
LAY0_0
 10
66139.5416259766
 20
46330.5358886719
 30
0
  0
VERTEX
  8
LAY0_0
 10
66169.6319580078
 20
46132.7209472656
 30
0
  0
VERTEX
  8
LAY0_0
 10
66195.9381103516
 20
45934.5703125
 30
0
  0
VERTEX
  8
LAY0_0
 10
66214.0197753906
 20
45735.6262207031
 30
0
  0
VERTEX
  8
LAY0_0
 10
66225.3265380859
 20
45535.8276367188
 30
0
  0
VERTEX
  8
LAY0_0
 10
66231.7962646484
 20
45335.2661132812
 30
0
  0
VERTEX
  8
LAY0_0
 10
66228.3782958984
 20
45135.1013183594
 30
0
  0
VERTEX
  8
LAY0_0
 10
66202.1636962891
 20
44937.8967285156
 30
0
  0
VERTEX
  8
LAY0_0
 10
66153.0609130859
 20
44744.1101074219
 30
0
  0
VERTEX
  8
LAY0_0
 10
66090.4083251953
 20
44552.8259277344
 30
0
  0
VERTEX
  8
LAY0_0
 10
66023.4527587891
 20
44362.9760742188
 30
0
  0
VERTEX
  8
LAY0_0
 10
65956.6955566406
 20
44173.9807128906
 30
0
  0
VERTEX
  8
LAY0_0
 10
65889.7857666016
 20
43985.7177734375
 30
0
  0
VERTEX
  8
LAY0_0
 10
65822.0977783203
 20
43798.0651855469
 30
0
  0
VERTEX
  8
LAY0_0
 10
65753.0670166016
 20
43610.8093261719
 30
0
  0
VERTEX
  8
LAY0_0
 10
65682.7545166016
 20
43423.8586425781
 30
0
  0
VERTEX
  8
LAY0_0
 10
65611.8011474609
 20
43236.9384765625
 30
0
  0
VERTEX
  8
LAY0_0
 10
65540.9240722656
 20
43049.8657226562
 30
0
  0
VERTEX
  8
LAY0_0
 10
65470.8099365234
 20
42862.4267578125
 30
0
  0
VERTEX
  8
LAY0_0
 10
65402.1606445313
 20
42674.3469238281
 30
0
  0
VERTEX
  8
LAY0_0
 10
65335.6781005859
 20
42485.4736328125
 30
0
  0
VERTEX
  8
LAY0_0
 10
65271.1029052734
 20
42295.9289550781
 30
0
  0
VERTEX
  8
LAY0_0
 10
65206.6192626953
 20
42106.4453125
 30
0
  0
VERTEX
  8
LAY0_0
 10
65140.1824951172
 20
41917.7856445313
 30
0
  0
VERTEX
  8
LAY0_0
 10
65069.8089599609
 20
41730.7739257812
 30
0
  0
VERTEX
  8
LAY0_0
 10
64993.5760498047
 20
41546.1730957031
 30
0
  0
VERTEX
  8
LAY0_0
 10
64911.6058349609
 20
41363.8916015625
 30
0
  0
VERTEX
  8
LAY0_0
 10
64826.1566162109
 20
41183.0139160156
 30
0
  0
VERTEX
  8
LAY0_0
 10
64739.6392822266
 20
41002.5329589844
 30
0
  0
VERTEX
  8
LAY0_0
 10
64654.4494628906
 20
40821.4111328125
 30
0
  0
VERTEX
  8
LAY0_0
 10
64572.4334716797
 20
40638.916015625
 30
0
  0
VERTEX
  8
LAY0_0
 10
64493.5302734375
 20
40455.078125
 30
0
  0
VERTEX
  8
LAY0_0
 10
64417.2058105469
 20
40270.1416015625
 30
0
  0
VERTEX
  8
LAY0_0
 10
64342.9565429688
 20
40084.3200683594
 30
0
  0
VERTEX
  8
LAY0_0
 10
64270.263671875
 20
39897.8576660156
 30
0
  0
VERTEX
  8
LAY0_0
 10
64198.6236572266
 20
39710.9985351562
 30
0
  0
VERTEX
  8
LAY0_0
 10
64127.5177001953
 20
39523.9562988281
 30
0
  0
VERTEX
  8
LAY0_0
 10
64056.4270019531
 20
39336.9445800781
 30
0
  0
VERTEX
  8
LAY0_0
 10
63984.8480224609
 20
39150.2075195313
 30
0
  0
VERTEX
  8
LAY0_0
 10
63912.2772216797
 20
38963.9892578125
 30
0
  0
VERTEX
  8
LAY0_0
 10
63838.1805419922
 20
38778.5034179687
 30
0
  0
VERTEX
  8
LAY0_0
 10
63762.5122070312
 20
38593.7194824219
 30
0
  0
VERTEX
  8
LAY0_0
 10
63686.2030029297
 20
38408.9965820313
 30
0
  0
VERTEX
  8
LAY0_0
 10
63610.3820800781
 20
38223.6328125
 30
0
  0
VERTEX
  8
LAY0_0
 10
63536.6668701172
 20
38036.865234375
 30
0
  0
VERTEX
  8
LAY0_0
 10
63473.6175537109
 20
37847.6257324219
 30
0
  0
VERTEX
  8
LAY0_0
 10
63431.0913085938
 20
37655.029296875
 30
0
  0
VERTEX
  8
LAY0_0
 10
63407.6080322266
 20
37459.2895507812
 30
0
  0
VERTEX
  8
LAY0_0
 10
63399.1851806641
 20
37260.9252929687
 30
0
  0
VERTEX
  8
LAY0_0
 10
63401.8249511719
 20
37060.4248046875
 30
0
  0
VERTEX
  8
LAY0_0
 10
63411.4990234375
 20
36858.2763671875
 30
0
  0
VERTEX
  8
LAY0_0
 10
63424.2248535156
 20
36654.9682617188
 30
0
  0
VERTEX
  8
LAY0_0
 10
63435.9893798828
 20
36451.0192871094
 30
0
  0
VERTEX
  8
LAY0_0
 10
63442.8100585938
 20
36246.9177246094
 30
0
  0
VERTEX
  8
LAY0_0
 10
63442.7642822266
 20
36043.0908203125
 30
0
  0
VERTEX
  8
LAY0_0
 10
63439.0106201172
 20
35839.9658203125
 30
0
  0
VERTEX
  8
LAY0_0
 10
63435.4705810547
 20
35637.8784179687
 30
0
  0
VERTEX
  8
LAY0_0
 10
63436.0656738281
 20
35437.255859375
 30
0
  0
VERTEX
  8
LAY0_0
 10
63444.7174072266
 20
35238.4033203125
 30
0
  0
VERTEX
  8
LAY0_0
 10
63465.3472900391
 20
35041.748046875
 30
0
  0
VERTEX
  8
LAY0_0
 10
63501.8768310547
 20
34847.6257324219
 30
0
  0
VERTEX
  8
LAY0_0
 10
63556.4880371094
 20
34656.1279296875
 30
0
  0
VERTEX
  8
LAY0_0
 10
63617.919921875
 20
34465.1184082031
 30
0
  0
VERTEX
  8
LAY0_0
 10
63674.7436523437
 20
34272.7661132812
 30
0
  0
VERTEX
  8
LAY0_0
 10
63730.0415039063
 20
34080.2612304687
 30
0
  0
VERTEX
  8
LAY0_0
 10
63788.9404296875
 20
33889.404296875
 30
0
  0
VERTEX
  8
LAY0_0
 10
63856.5826416016
 20
33701.904296875
 30
0
  0
VERTEX
  8
LAY0_0
 10
63935.1959228516
 20
33518.3715820313
 30
0
  0
VERTEX
  8
LAY0_0
 10
64019.6075439453
 20
33336.8835449219
 30
0
  0
VERTEX
  8
LAY0_0
 10
64103.6224365234
 20
33155.029296875
 30
0
  0
VERTEX
  8
LAY0_0
 10
64180.9844970703
 20
32970.458984375
 30
0
  0
VERTEX
  8
LAY0_0
 10
64250.0457763672
 20
32782.6538085937
 30
0
  0
VERTEX
  8
LAY0_0
 10
64329.1473388672
 20
32599.2736816406
 30
0
  0
VERTEX
  8
LAY0_0
 10
64427.1697998047
 20
32424.6826171875
 30
0
  0
VERTEX
  8
LAY0_0
 10
64540.8630371094
 20
32258.6975097656
 30
0
  0
VERTEX
  8
LAY0_0
 10
64666.6717529297
 20
32101.1047363281
 30
0
  0
VERTEX
  8
LAY0_0
 10
64801.1169433594
 20
31951.5686035156
 30
0
  0
VERTEX
  8
LAY0_0
 10
64941.8182373047
 20
31809.08203125
 30
0
  0
VERTEX
  8
LAY0_0
 10
65087.2955322266
 20
31671.9360351562
 30
0
  0
VERTEX
  8
LAY0_0
 10
65236.1297607422
 20
31538.5131835937
 30
0
  0
VERTEX
  8
LAY0_0
 10
65386.8865966797
 20
31407.1350097656
 30
0
  0
VERTEX
  8
LAY0_0
 10
65538.8031005859
 20
31276.9165039063
 30
0
  0
VERTEX
  8
LAY0_0
 10
65691.7724609375
 20
31147.94921875
 30
0
  0
VERTEX
  8
LAY0_0
 10
65845.7794189453
 20
31020.2941894531
 30
0
  0
VERTEX
  8
LAY0_0
 10
66000.7934570312
 20
30894.0124511719
 30
0
  0
VERTEX
  8
LAY0_0
 10
66156.73828125
 20
30769.1345214844
 30
0
  0
VERTEX
  8
LAY0_0
 10
66312.7746582031
 20
30644.3786621094
 30
0
  0
VERTEX
  8
LAY0_0
 10
66467.3919677734
 20
30517.2424316406
 30
0
  0
VERTEX
  8
LAY0_0
 10
66619.384765625
 20
30385.8032226562
 30
0
  0
VERTEX
  8
LAY0_0
 10
66771.1486816406
 20
30253.7536621094
 30
0
  0
VERTEX
  8
LAY0_0
 10
66927.4749755859
 20
30128.6010742188
 30
0
  0
VERTEX
  8
LAY0_0
 10
67093.1549072266
 20
30017.9138183594
 30
0
  0
VERTEX
  8
LAY0_0
 10
67218.8262939453
 20
29950.5004882812
 30
0
  0
SEQEND
  0
POLYLINE
  8
LAY0_0
  6
CONTINUOUS
 62
3
 66
  1
 10
0
 20
0
 30
0
  0
VERTEX
  8
LAY0_0
 10
111062.454223633
 20
26117.0043945313
 30
0
  0
VERTEX
  8
LAY0_0
 10
111184.234619141
 20
26203.125
 30
0
  0
VERTEX
  8
LAY0_0
 10
111306.030273438
 20
26289.2761230469
 30
0
  0
VERTEX
  8
LAY0_0
 10
111427.810668945
 20
26375.3967285156
 30
0
  0
VERTEX
  8
LAY0_0
 10
111549.606323242
 20
26461.5478515625
 30
0
  0
VERTEX
  8
LAY0_0
 10
111671.401977539
 20
26547.6989746094
 30
0
  0
VERTEX
  8
LAY0_0
 10
111793.197631836
 20
26633.8195800781
 30
0
  0
VERTEX
  8
LAY0_0
 10
111914.993286133
 20
26719.970703125
 30
0
  0
VERTEX
  8
LAY0_0
 10
112036.78894043
 20
26806.0913085938
 30
0
  0
VERTEX
  8
LAY0_0
 10
112158.584594727
 20
26892.2424316406
 30
0
  0
VERTEX
  8
LAY0_0
 10
112280.349731445
 20
26978.3935546875
 30
0
  0
SEQEND
  0
POLYLINE
  8
LAY0_0
  6
CONTINUOUS
 62
3
 66
  1
 10
0
 20
0
 30
0
  0
VERTEX
  8
LAY0_0
 10
92091.9799804687
 20
10856.9946289062
 30
0
  0
VERTEX
  8
LAY0_0
 10
92361.1297607422
 20
11153.5949707031
 30
0
  0
VERTEX
  8
LAY0_0
 10
92630.5999755859
 20
11449.8596191406
 30
0
  0
VERTEX
  8
LAY0_0
 10
92900.7720947266
 20
11745.4223632812
 30
0
  0
VERTEX
  8
LAY0_0
 10
93171.9665527344
 20
12039.9169921875
 30
0
  0
VERTEX
  8
LAY0_0
 10
93444.5343017578
 20
12333.0078125
 30
0
  0
VERTEX
  8
LAY0_0
 10
93718.8262939453
 20
12624.3286132812
 30
0
  0
VERTEX
  8
LAY0_0
 10
93995.1782226563
 20
12913.5437011719
 30
0
  0
VERTEX
  8
LAY0_0
 10
94273.9105224609
 20
13200.2868652344
 30
0
  0
VERTEX
  8
LAY0_0
 10
94555.4046630859
 20
13484.2224121094
 30
0
  0
VERTEX
  8
LAY0_0
 10
94839.9810791016
 20
13764.9841308594
 30
0
  0
VERTEX
  8
LAY0_0
 10
95128.0059814453
 20
14042.2058105469
 30
0
  0
VERTEX
  8
LAY0_0
 10
95419.7692871094
 20
14315.5517578125
 30
0
  0
VERTEX
  8
LAY0_0
 10
95715.2709960937
 20
14585.0219726562
 30
0
  0
VERTEX
  8
LAY0_0
 10
96014.1754150391
 20
14850.8911132812
 30
0
  0
VERTEX
  8
LAY0_0
 10
96316.1468505859
 20
15113.4033203125
 30
0
  0
VERTEX
  8
LAY0_0
 10
96620.849609375
 20
15372.8332519531
 30
0
  0
VERTEX
  8
LAY0_0
 10
96927.9174804687
 20
15629.4555664062
 30
0
  0
VERTEX
  8
LAY0_0
 10
97237.0300292969
 20
15883.544921875
 30
0
  0
VERTEX
  8
LAY0_0
 10
97532.0434570312
 20
16122.6806640625
 30
0
  0
SEQEND
  0
ARC
  8
LAY0_0
  6
CONTINUOUS
 62
1
 10
25275.1312255859
 20
30152.4658203125
 30
0
 40
300.000011920929
 50
285.480323908756
 51
66.5379133847017
  0
ARC
  8
LAY0_0
  6
CONTINUOUS
 62
1
 10
25415.4968261719
 20
29290.6036376953
 30
0
 40
300.000011920929
 50
285.480323908756
 51
66.5379133847017
  0
ARC
  8
LAY0_0
  6
CONTINUOUS
 62
1
 10
25585.1745605469
 20
33034.8052978516
 30
0
 40
300.000011920929
 50
283.131449173945
 51
64.1890591404585
  0
ARC
  8
LAY0_0
  6
CONTINUOUS
 62
1
 10
25522.7813720703
 20
32473.2666015625
 30
0
 40
300.000011920929
 50
283.131449173945
 51
64.1890591404585
  0
ARC
  8
LAY0_0
  6
CONTINUOUS
 62
1
 10
55450.8209228516
 20
57006.1645507812
 30
0
 40
240.000009536743
 50
286.797703475111
 51
427.855316629348
  0
ARC
  8
LAY0_0
  6
CONTINUOUS
 62
1
 10
55429.7332763672
 20
56554.6875
 30
0
 40
240.000009536743
 50
286.797703475111
 51
427.855316629348
  0
ARC
  8
LAY0_0
  6
CONTINUOUS
 62
1
 10
55387.5732421875
 20
55651.6723632812
 30
0
 40
240.000009536743
 50
286.797703475111
 51
427.855316629348
  0
ARC
  8
LAY0_0
  6
CONTINUOUS
 62
1
 10
55367.5994873047
 20
55223.7854003906
 30
0
 40
240.000009536743
 50
286.797703475111
 51
427.855316629348
  0
ARC
  8
LAY0_0
  6
CONTINUOUS
 62
1
 10
56146.9268798828
 20
60709.7778320312
 30
0
 40
240.000009536743
 50
253.10839645067
 51
394.16598228415
  0
ARC
  8
LAY0_0
  6
CONTINUOUS
 62
1
 10
29621.826171875
 20
17659.5001220703
 30
0
 40
300.000011920929
 50
124.53979785418
 51
265.597397348038
  0
ARC
  8
LAY0_0
  6
CONTINUOUS
 62
1
 10
29301.5060424805
 20
19618.5913085938
 30
0
 40
300.000011920929
 50
124.53979785418
 51
265.597397348038
  0
ARC
  8
LAY0_0
  6
CONTINUOUS
 62
1
 10
29077.8961181641
 20
37841.1407470703
 30
0
 40
300.000011920929
 50
111.603487868067
 51
252.661101022304
  0
ARC
  8
LAY0_0
  6
CONTINUOUS
 62
1
 10
30049.3240356445
 20
8296.21887207031
 30
0
 40
300.000011920929
 50
101.089572772992
 51
242.14717226685
  0
ARC
  8
LAY0_0
  6
CONTINUOUS
 62
1
 10
29474.9374389648
 20
18205.078125
 30
0
 40
300.000011920929
 50
124.53979785418
 51
265.597397348038
  0
ARC
  8
LAY0_0
  6
CONTINUOUS
 62
1
 10
30537.2772216797
 20
11892.0288085938
 30
0
 40
300.000011920929
 50
106.291820505278
 51
247.349426829326
  0
ARC
  8
LAY0_0
  6
CONTINUOUS
 62
1
 10
29181.1676025391
 20
19296.2188720703
 30
0
 40
300.000011920929
 50
124.53979785418
 51
265.597397348038
  0
ARC
  8
LAY0_0
  6
CONTINUOUS
 62
1
 10
25333.6791992187
 20
23414.1540527344
 30
0
 40
300.000011920929
 50
302.292479380905
 51
83.3500688568512
  0
ARC
  8
LAY0_0
  6
CONTINUOUS
 62
1
 10
29595.2758789063
 20
18527.4505615234
 30
0
 40
300.000011920929
 50
124.53979785418
 51
265.597397348038
  0
ARC
  8
LAY0_0
  6
CONTINUOUS
 62
1
 10
30416.0537719727
 20
13315.9484863281
 30
0
 40
300.000011920929
 50
106.291820505278
 51
247.349426829326
  0
ARC
  8
LAY0_0
  6
CONTINUOUS
 62
1
 10
29448.3947753906
 20
19073.0133056641
 30
0
 40
300.000011920929
 50
124.53979785418
 51
265.597397348038
  0
ARC
  8
LAY0_0
  6
CONTINUOUS
 62
1
 10
25939.6591186523
 20
34414.0930175781
 30
0
 40
300.000011920929
 50
283.131449173945
 51
64.1890591404585
  0
ARC
  8
LAY0_0
  6
CONTINUOUS
 62
1
 10
25709.9533081055
 20
34157.8979492188
 30
0
 40
300.000011920929
 50
283.131449173945
 51
64.1890591404585
  0
ARC
  8
LAY0_0
  6
CONTINUOUS
 62
1
 10
25814.8803710938
 20
33291.0003662109
 30
0
 40
300.000011920929
 50
283.131449173945
 51
64.1890591404585
  0
ARC
  8
LAY0_0
  6
CONTINUOUS
 62
1
 10
25454.8187255859
 20
29854.2327880859
 30
0
 40
300.000011920929
 50
285.480323908756
 51
66.5379133847017
  0
ARC
  8
LAY0_0
  6
CONTINUOUS
 62
1
 10
25877.2659301758
 20
33852.5543212891
 30
0
 40
300.000011920929
 50
283.131449173945
 51
64.1890591404585
  0
ARC
  8
LAY0_0
  6
CONTINUOUS
 62
1
 10
30384.7122192383
 20
12751.8157958984
 30
0
 40
300.000011920929
 50
106.291820505278
 51
247.349426829326
  0
ARC
  8
LAY0_0
  6
CONTINUOUS
 62
1
 10
30599.9450683594
 20
13020.2941894531
 30
0
 40
300.000011920929
 50
106.291820505278
 51
247.349426829326
  0
ARC
  8
LAY0_0
  6
CONTINUOUS
 62
1
 10
30353.3782958984
 20
12187.6831054687
 30
0
 40
300.000011920929
 50
106.291820505278
 51
247.349426829326
  0
ARC
  8
LAY0_0
  6
CONTINUOUS
 62
1
 10
25647.5601196289
 20
33596.3439941406
 30
0
 40
300.000011920929
 50
283.131449173945
 51
64.1890591404585
  0
ARC
  8
LAY0_0
  6
CONTINUOUS
 62
1
 10
25752.4871826172
 20
32729.4616699219
 30
0
 40
300.000011920929
 50
283.131449173945
 51
64.1890591404585
  0
ARC
  8
LAY0_0
  6
CONTINUOUS
 62
1
 10
23733.0932617187
 20
75622.6196289063
 30
0
 40
300.000011920929
 50
286.385870388916
 51
67.4434735252403
  0
ARC
  8
LAY0_0
  6
CONTINUOUS
 62
1
 10
24039.1159057617
 20
77583.9996337891
 30
0
 40
300.000011920929
 50
286.385870388916
 51
67.4434735252403
  0
ARC
  8
LAY0_0
  6
CONTINUOUS
 62
1
 10
24387.9318237305
 20
86579.9255371094
 30
0
 40
240.000009536743
 50
290.471771512688
 51
431.529357346168
  0
ARC
  8
LAY0_0
  6
CONTINUOUS
 62
1
 10
23763.5040283203
 20
76186.8133544922
 30
0
 40
300.000011920929
 50
286.385870388916
 51
67.4434735252403
  0
ARC
  8
LAY0_0
  6
CONTINUOUS
 62
1
 10
23592.28515625
 20
72757.8277587891
 30
0
 40
300.000011920929
 50
285.70749600055
 51
66.7650991368746
  0
ARC
  8
LAY0_0
  6
CONTINUOUS
 62
1
 10
23555.1986694336
 20
72194.0460205078
 30
0
 40
300.000011920929
 50
285.70749600055
 51
66.7650991368746
  0
ARC
  8
LAY0_0
  6
CONTINUOUS
 62
1
 10
24008.7051391602
 20
77019.8211669922
 30
0
 40
300.000011920929
 50
286.385870388916
 51
67.4434735252403
  0
ARC
  8
LAY0_0
  6
CONTINUOUS
 62
1
 10
23824.3255615234
 20
77315.1702880859
 30
0
 40
300.000011920929
 50
286.385870388916
 51
67.4434735252403
  0
ARC
  8
LAY0_0
  6
CONTINUOUS
 62
1
 10
23793.9147949219
 20
76750.9918212891
 30
0
 40
300.000011920929
 50
286.385870388916
 51
67.4434735252403
  0
ARC
  8
LAY0_0
  6
CONTINUOUS
 62
1
 10
24380.0430297852
 20
87031.8603515625
 30
0
 40
240.000009536743
 50
290.471771512688
 51
431.529357346168
  0
ARC
  8
LAY0_0
  6
CONTINUOUS
 62
1
 10
24239.7613525391
 20
85901.2451171875
 30
0
 40
240.000009536743
 50
290.471771512688
 51
431.529357346168
  0
ARC
  8
LAY0_0
  6
CONTINUOUS
 62
1
 10
24372.1466064453
 20
87483.7951660156
 30
0
 40
240.000009536743
 50
290.471771512688
 51
431.529357346168
  0
ARC
  8
LAY0_0
  6
CONTINUOUS
 62
1
 10
24208.1832885742
 20
87708.9691162109
 30
0
 40
240.000009536743
 50
290.471771512688
 51
431.529357346168
  0
ARC
  8
LAY0_0
  6
CONTINUOUS
 62
1
 10
24216.0797119141
 20
87257.0343017578
 30
0
 40
240.000009536743
 50
290.471771512688
 51
431.529357346168
  0
ARC
  8
LAY0_0
  6
CONTINUOUS
 62
1
 10
24223.9761352539
 20
86805.0994873047
 30
0
 40
240.000009536743
 50
290.471771512688
 51
431.529357346168
  0
ARC
  8
LAY0_0
  6
CONTINUOUS
 62
1
 10
24231.8649291992
 20
86353.1646728516
 30
0
 40
240.000009536743
 50
290.471771512688
 51
431.529357346168
  0
ARC
  8
LAY0_0
  6
CONTINUOUS
 62
1
 10
55513.1683349609
 20
58341.1560058594
 30
0
 40
240.000009536743
 50
286.797703475111
 51
427.855316629348
  0
ARC
  8
LAY0_0
  6
CONTINUOUS
 62
1
 10
55471.9085693359
 20
57457.7026367188
 30
0
 40
240.000009536743
 50
286.797703475111
 51
427.855316629348
  0
ARC
  8
LAY0_0
  6
CONTINUOUS
 62
1
 10
24083.0841064453
 20
83187.7899169922
 30
0
 40
300.000011920929
 50
290.471525625878
 51
71.5291219320127
  0
ARC
  8
LAY0_0
  6
CONTINUOUS
 62
1
 10
24092.9489135742
 20
82622.8790283203
 30
0
 40
300.000011920929
 50
290.471525625878
 51
71.5291219320127
  0
ARC
  8
LAY0_0
  6
CONTINUOUS
 62
1
 10
24073.2192993164
 20
83752.7160644531
 30
0
 40
300.000011920929
 50
290.471525625878
 51
71.5291219320127
  0
ARC
  8
LAY0_0
  6
CONTINUOUS
 62
1
 10
55534.2407226562
 20
58792.6635742188
 30
0
 40
240.000009536743
 50
286.797703475111
 51
427.855316629348
  0
ARC
  8
LAY0_0
  6
CONTINUOUS
 62
1
 10
58892.1051025391
 20
63028.8696289063
 30
0
 40
240.000009536743
 50
213.996274395076
 51
355.053887549313
  0
ARC
  8
LAY0_0
  6
CONTINUOUS
 62
1
 10
55555.3131103516
 20
59244.1711425781
 30
0
 40
240.000009536743
 50
286.797703475111
 51
427.855316629348
  0
ARC
  8
LAY0_0
  6
CONTINUOUS
 62
1
 10
55408.6456298828
 20
56103.1494140625
 30
0
 40
240.000009536743
 50
286.797703475111
 51
427.855316629348
  0
ARC
  8
LAY0_0
  6
CONTINUOUS
 62
1
 10
55492.0806884766
 20
57889.6484375
 30
0
 40
240.000009536743
 50
286.797703475111
 51
427.855316629348
  0
ARC
  8
LAY0_0
  6
CONTINUOUS
 62
1
 10
23887.9928588867
 20
82904.3426513672
 30
0
 40
300.000011920929
 50
290.471525625878
 51
71.5291219320127
  0
ARC
  8
LAY0_0
  6
CONTINUOUS
 62
1
 10
23897.8576660156
 20
82339.4317626953
 30
0
 40
300.000011920929
 50
290.471525625878
 51
71.5291219320127
  0
ARC
  8
LAY0_0
  6
CONTINUOUS
 62
1
 10
23947.883605957
 20
75891.4489746094
 30
0
 40
300.000011920929
 50
286.385870388916
 51
67.4434735252403
  0
ARC
  8
LAY0_0
  6
CONTINUOUS
 62
1
 10
23629.3716430664
 20
73321.6094970703
 30
0
 40
300.000011920929
 50
285.70749600055
 51
66.7650991368746
  0
ARC
  8
LAY0_0
  6
CONTINUOUS
 62
1
 10
23978.2943725586
 20
76455.6427001953
 30
0
 40
300.000011920929
 50
286.385870388916
 51
67.4434735252403
  0
ARC
  8
LAY0_0
  6
CONTINUOUS
 62
1
 10
23878.1280517578
 20
83469.2687988281
 30
0
 40
300.000011920929
 50
290.471525625878
 51
71.5291219320127
  0
ARC
  8
LAY0_0
  6
CONTINUOUS
 62
1
 10
24102.8137207031
 20
82057.9681396484
 30
0
 40
300.000011920929
 50
290.471525625878
 51
71.5291219320127
  0
ARC
  8
LAY0_0
  6
CONTINUOUS
 62
1
 10
23854.736328125
 20
77879.3487548828
 30
0
 40
300.000011920929
 50
286.385870388916
 51
67.4434735252403
  0
ARC
  8
LAY0_0
  6
CONTINUOUS
 62
1
 10
23907.7224731445
 20
81774.5208740234
 30
0
 40
300.000011920929
 50
290.471525625878
 51
71.5291219320127
  0
ARC
  8
LAY0_0
  6
CONTINUOUS
 62
1
 10
24395.8282470703
 20
86127.9907226563
 30
0
 40
240.000009536743
 50
290.471771512688
 51
431.529357346168
  0
ARC
  8
LAY0_0
  6
CONTINUOUS
 62
1
 10
23868.2632446289
 20
84034.1796875
 30
0
 40
300.000011920929
 50
290.471525625878
 51
71.5291219320127
  0
ARC
  8
LAY0_0
  6
CONTINUOUS
 62
1
 10
27301.6204833984
 20
14222.5189208984
 30
0
 40
300.000011920929
 50
300.795438518622
 51
441.853024352102
  0
ARC
  8
LAY0_0
  6
CONTINUOUS
 62
1
 10
28155.6167602539
 20
23632.3089599609
 30
0
 40
300.000011920929
 50
122.292515353084
 51
263.350128507321
  0
ARC
  8
LAY0_0
  6
CONTINUOUS
 62
1
 10
28163.1240844727
 20
24500.6256103516
 30
0
 40
300.000011920929
 50
122.292515353084
 51
263.350128507321
  0
ARC
  8
LAY0_0
  6
CONTINUOUS
 62
1
 10
29328.0487060547
 20
18750.6408691406
 30
0
 40
300.000011920929
 50
124.53979785418
 51
265.597397348038
  0
ARC
  8
LAY0_0
  6
CONTINUOUS
 62
1
 10
29889.0533447266
 20
17436.2945556641
 30
0
 40
300.000011920929
 50
124.53979785418
 51
265.597397348038
  0
ARC
  8
LAY0_0
  6
CONTINUOUS
 62
1
 10
28404.6630859375
 20
29030.7922363281
 30
0
 40
300.000011920929
 50
105.480250597908
 51
246.537836431388
  0
ARC
  8
LAY0_0
  6
CONTINUOUS
 62
1
 10
28030.2352905273
 20
24183.2275390625
 30
0
 40
300.000011920929
 50
122.292515353084
 51
263.350128507321
  0
ARC
  8
LAY0_0
  6
CONTINUOUS
 62
1
 10
25075.4089355469
 20
23647.6593017578
 30
0
 40
300.000011920929
 50
302.292479380905
 51
83.3500688568512
  0
ARC
  8
LAY0_0
  6
CONTINUOUS
 62
1
 10
25459.0606689453
 20
22863.2354736328
 30
0
 40
300.000011920929
 50
302.292479380905
 51
83.3500688568512
  0
ARC
  8
LAY0_0
  6
CONTINUOUS
 62
1
 10
28483.3145141602
 20
30158.0505371094
 30
0
 40
300.000011920929
 50
105.480250597908
 51
246.537836431388
  0
ARC
  8
LAY0_0
  6
CONTINUOUS
 62
1
 10
28522.6364135742
 20
30721.6796875
 30
0
 40
300.000011920929
 50
105.480250597908
 51
246.537836431388
  0
ARC
  8
LAY0_0
  6
CONTINUOUS
 62
1
 10
28539.2684936523
 20
22847.8851318359
 30
0
 40
300.000011920929
 50
122.292515353084
 51
263.350128507321
  0
ARC
  8
LAY0_0
  6
CONTINUOUS
 62
1
 10
28288.5055541992
 20
23949.70703125
 30
0
 40
300.000011920929
 50
122.292515353084
 51
263.350128507321
  0
ARC
  8
LAY0_0
  6
CONTINUOUS
 62
1
 10
30631.2866210937
 20
13584.4268798828
 30
0
 40
300.000011920929
 50
106.291820505278
 51
247.349426829326
  0
ARC
  8
LAY0_0
  6
CONTINUOUS
 62
1
 10
28406.379699707
 20
22530.4870605469
 30
0
 40
300.000011920929
 50
122.292515353084
 51
263.350128507321
  0
ARC
  8
LAY0_0
  6
CONTINUOUS
 62
1
 10
28264.2974853516
 20
29892.6544189453
 30
0
 40
300.000011920929
 50
105.480250597908
 51
246.537836431388
  0
ARC
  8
LAY0_0
  6
CONTINUOUS
 62
1
 10
28413.8870239258
 20
23398.8037109375
 30
0
 40
300.000011920929
 50
122.292515353084
 51
263.350128507321
  0
ARC
  8
LAY0_0
  6
CONTINUOUS
 62
1
 10
28443.9849853516
 20
29594.4213867188
 30
0
 40
300.000011920929
 50
105.480250597908
 51
246.537836431388
  0
ARC
  8
LAY0_0
  6
CONTINUOUS
 62
1
 10
30322.0443725586
 20
11623.5504150391
 30
0
 40
300.000011920929
 50
106.291820505278
 51
247.349426829326
  0
ARC
  8
LAY0_0
  6
CONTINUOUS
 62
1
 10
28280.9982299805
 20
23081.3903808594
 30
0
 40
300.000011920929
 50
122.292515353084
 51
263.350128507321
  0
ARC
  8
LAY0_0
  6
CONTINUOUS
 62
1
 10
30568.6111450195
 20
12456.1614990234
 30
0
 40
300.000011920929
 50
106.291820505278
 51
247.349426829326
  0
ARC
  8
LAY0_0
  6
CONTINUOUS
 62
1
 10
28185.6536865234
 20
28765.3961181641
 30
0
 40
300.000011920929
 50
105.480250597908
 51
246.537836431388
  0
ARC
  8
LAY0_0
  6
CONTINUOUS
 62
1
 10
28224.9755859375
 20
29329.0252685547
 30
0
 40
300.000011920929
 50
105.480250597908
 51
246.537836431388
  0
ARC
  8
LAY0_0
  6
CONTINUOUS
 62
1
 10
26678.3752441406
 20
17822.0367431641
 30
0
 40
300.000011920929
 50
304.539802863136
 51
85.5973991692713
  0
ARC
  8
LAY0_0
  6
CONTINUOUS
 62
1
 10
29035.8505249023
 20
38970.3521728516
 30
0
 40
300.000011920929
 50
111.603487868067
 51
252.661101022304
  0
ARC
  8
LAY0_0
  6
CONTINUOUS
 62
1
 10
28303.6193847656
 20
30456.2835693359
 30
0
 40
300.000011920929
 50
105.480250597908
 51
246.537836431388
  0
ARC
  8
LAY0_0
  6
CONTINUOUS
 62
1
 10
26704.9179077148
 20
16954.0863037109
 30
0
 40
300.000011920929
 50
304.539802863136
 51
85.5973991692713
  0
ARC
  8
LAY0_0
  6
CONTINUOUS
 62
1
 10
28664.6423339844
 20
22296.9665527344
 30
0
 40
300.000011920929
 50
122.292515353084
 51
263.350128507321
  0
ARC
  8
LAY0_0
  6
CONTINUOUS
 62
1
 10
28804.3518066406
 20
39812.3168945313
 30
0
 40
300.000011920929
 50
111.603487868067
 51
252.661101022304
  0
CIRCLE
  8
LAY0_0
  6
CONTINUOUS
 62
4
 10
98569.9310302734
 20
17703.7658691406
 30
0
 40
1.99999986216426
  0
CIRCLE
  8
LAY0_0
  6
CONTINUOUS
 62
4
 10
70757.0648193359
 20
16624.9389648438
 30
0
 40
1.99999986216426
  0
ARC
  8
LAY0_0
  6
CONTINUOUS
 62
1
 10
28825.3784179687
 20
39247.7111816406
 30
0
 40
300.000011920929
 50
111.603487868067
 51
252.661101022304
  0
ARC
  8
LAY0_0
  6
CONTINUOUS
 62
1
 10
29014.8315429687
 20
39534.9578857422
 30
0
 40
300.000011920929
 50
111.603487868067
 51
252.661101022304
  0
ARC
  8
LAY0_0
  6
CONTINUOUS
 62
1
 10
26411.1480712891
 20
18045.2270507813
 30
0
 40
300.000011920929
 50
304.539802863136
 51
85.5973991692713
  0
ARC
  8
LAY0_0
  6
CONTINUOUS
 62
1
 10
25208.2977294922
 20
23965.0573730469
 30
0
 40
300.000011920929
 50
302.292479380905
 51
83.3500688568512
  0
ARC
  8
LAY0_0
  6
CONTINUOUS
 62
1
 10
26825.2563476562
 20
17276.4587402344
 30
0
 40
300.000011920929
 50
304.539802863136
 51
85.5973991692713
  0
ARC
  8
LAY0_0
  6
CONTINUOUS
 62
1
 10
28961.7156982422
 20
34260.5133056641
 30
0
 40
300.000011920929
 50
105.894604023907
 51
246.952210347954
  0
ARC
  8
LAY0_0
  6
CONTINUOUS
 62
1
 10
25200.7904052734
 20
23096.7407226562
 30
0
 40
300.000011920929
 50
302.292479380905
 51
83.3500688568512
  0
ARC
  8
LAY0_0
  6
CONTINUOUS
 62
1
 10
28846.3973999023
 20
38683.10546875
 30
0
 40
300.000011920929
 50
111.603487868067
 51
252.661101022304
  0
ARC
  8
LAY0_0
  6
CONTINUOUS
 62
1
 10
26531.4865112305
 20
18367.5994873047
 30
0
 40
300.000011920929
 50
304.539802863136
 51
85.5973991692713
  0
ARC
  8
LAY0_0
  6
CONTINUOUS
 62
1
 10
26558.0291748047
 20
17499.6643066406
 30
0
 40
300.000011920929
 50
304.539802863136
 51
85.5973991692713
  0
ARC
  8
LAY0_0
  6
CONTINUOUS
 62
1
 10
26264.2593383789
 20
18590.8050537109
 30
0
 40
300.000011920929
 50
304.539802863136
 51
85.5973991692713
  0
ARC
  8
LAY0_0
  6
CONTINUOUS
 62
1
 10
25451.545715332
 20
21994.9188232422
 30
0
 40
300.000011920929
 50
302.292479380905
 51
83.3500688568512
  0
ARC
  8
LAY0_0
  6
CONTINUOUS
 62
1
 10
26384.5977783203
 20
18913.1774902344
 30
0
 40
300.000011920929
 50
304.539802863136
 51
85.5973991692713
  0
ARC
  8
LAY0_0
  6
CONTINUOUS
 62
1
 10
25584.4421386719
 20
22312.3168945313
 30
0
 40
300.000011920929
 50
302.292479380905
 51
83.3500688568512
  0
ARC
  8
LAY0_0
  6
CONTINUOUS
 62
1
 10
25772.3388671875
 20
34719.4366455078
 30
0
 40
300.000011920929
 50
283.131449173945
 51
64.1890591404585
  0
ARC
  8
LAY0_0
  6
CONTINUOUS
 62
1
 10
27220.8709716797
 20
15644.3481445313
 30
0
 40
300.000011920929
 50
300.795438518622
 51
441.853024352102
  0
ARC
  8
LAY0_0
  6
CONTINUOUS
 62
1
 10
25157.1655273438
 20
28461.5783691406
 30
0
 40
300.000011920929
 50
285.480323908756
 51
66.5379133847017
  0
ARC
  8
LAY0_0
  6
CONTINUOUS
 62
1
 10
30140.0680541992
 20
10284.2254638672
 30
0
 40
300.000011920929
 50
101.089572772992
 51
242.14717226685
  0
ARC
  8
LAY0_0
  6
CONTINUOUS
 62
1
 10
25376.1749267578
 20
28726.9744873047
 30
0
 40
300.000011920929
 50
285.480323908756
 51
66.5379133847017
  0
ARC
  8
LAY0_0
  6
CONTINUOUS
 62
1
 10
26968.7957763672
 20
15884.521484375
 30
0
 40
300.000011920929
 50
300.795438518622
 51
441.853024352102
  0
ARC
  8
LAY0_0
  6
CONTINUOUS
 62
1
 10
25858.2458496094
 20
38309.1583251953
 30
0
 40
300.000011920929
 50
291.603615820429
 51
432.661228974666
  0
ARC
  8
LAY0_0
  6
CONTINUOUS
 62
1
 10
27121.940612793
 20
10380.9967041016
 30
0
 40
300.000011920929
 50
281.089495819678
 51
62.1471057861915
  0
ARC
  8
LAY0_0
  6
CONTINUOUS
 62
1
 10
27553.7033081055
 20
13982.3455810547
 30
0
 40
300.000011920929
 50
300.795438518622
 51
441.853024352102
  0
ARC
  8
LAY0_0
  6
CONTINUOUS
 62
1
 10
27442.756652832
 20
14536.3464355469
 30
0
 40
300.000011920929
 50
300.795438518622
 51
441.853024352102
  0
ARC
  8
LAY0_0
  6
CONTINUOUS
 62
1
 10
29975.3494262695
 20
9166.29028320312
 30
0
 40
300.000011920929
 50
101.089572772992
 51
242.14717226685
  0
ARC
  8
LAY0_0
  6
CONTINUOUS
 62
1
 10
27079.7348022461
 20
15330.5206298828
 30
0
 40
300.000011920929
 50
300.795438518622
 51
441.853024352102
  0
ARC
  8
LAY0_0
  6
CONTINUOUS
 62
1
 10
24950.0350952148
 20
24198.5778808594
 30
0
 40
300.000011920929
 50
302.292479380905
 51
83.3500688568512
  0
ARC
  8
LAY0_0
  6
CONTINUOUS
 62
1
 10
27190.6814575195
 20
14776.5197753906
 30
0
 40
300.000011920929
 50
300.795438518622
 51
441.853024352102
  0
ARC
  8
LAY0_0
  6
CONTINUOUS
 62
1
 10
27204.2999267578
 20
10939.9566650391
 30
0
 40
300.000011920929
 50
281.089495819678
 51
62.1471057861915
  0
ARC
  8
LAY0_0
  6
CONTINUOUS
 62
1
 10
27331.8176269531
 20
15090.3472900391
 30
0
 40
300.000011920929
 50
300.795438518622
 51
441.853024352102
  0
ARC
  8
LAY0_0
  6
CONTINUOUS
 62
1
 10
25879.264831543
 20
37744.5526123047
 30
0
 40
300.000011920929
 50
291.603615820429
 51
432.661228974666
  0
ARC
  8
LAY0_0
  6
CONTINUOUS
 62
1
 10
30057.7087402344
 20
9725.26550292969
 30
0
 40
300.000011920929
 50
101.089572772992
 51
242.14717226685
  0
ARC
  8
LAY0_0
  6
CONTINUOUS
 62
1
 10
29892.9901123047
 20
8607.33032226563
 30
0
 40
300.000011920929
 50
101.089572772992
 51
242.14717226685
  0
ARC
  8
LAY0_0
  6
CONTINUOUS
 62
1
 10
27278.2745361328
 20
10069.8852539062
 30
0
 40
300.000011920929
 50
281.089495819678
 51
62.1471057861915
  0
ARC
  8
LAY0_0
  6
CONTINUOUS
 62
1
 10
27360.6338500977
 20
10628.8452148438
 30
0
 40
300.000011920929
 50
281.089495819678
 51
62.1471057861915
  0
ARC
  8
LAY0_0
  6
CONTINUOUS
 62
1
 10
27412.5671386719
 20
13668.5180664062
 30
0
 40
300.000011920929
 50
300.795438518622
 51
441.853024352102
  0
ARC
  8
LAY0_0
  6
CONTINUOUS
 62
1
 10
29102.6992797852
 20
36516.11328125
 30
0
 40
300.000011920929
 50
105.894604023907
 51
246.952210347954
  0
ARC
  8
LAY0_0
  6
CONTINUOUS
 62
1
 10
28365.3411865234
 20
28467.1630859375
 30
0
 40
300.000011920929
 50
105.480250597908
 51
246.537836431388
  0
ARC
  8
LAY0_0
  6
CONTINUOUS
 62
1
 10
28885.612487793
 20
36249.1455078125
 30
0
 40
300.000011920929
 50
105.894604023907
 51
246.952210347954
  0
ARC
  8
LAY0_0
  6
CONTINUOUS
 62
1
 10
28993.8125610352
 20
40099.5635986328
 30
0
 40
300.000011920929
 50
111.603487868067
 51
252.661101022304
  0
ARC
  8
LAY0_0
  6
CONTINUOUS
 62
1
 10
29032.2036743164
 20
35388.3209228516
 30
0
 40
300.000011920929
 50
105.894604023907
 51
246.952210347954
  0
ARC
  8
LAY0_0
  6
CONTINUOUS
 62
1
 10
28779.8690795898
 20
34557.4493408203
 30
0
 40
300.000011920929
 50
105.894604023907
 51
246.952210347954
  0
ARC
  8
LAY0_0
  6
CONTINUOUS
 62
1
 10
25326.171875
 20
22545.8374023438
 30
0
 40
300.000011920929
 50
302.292479380905
 51
83.3500688568512
  0
ARC
  8
LAY0_0
  6
CONTINUOUS
 62
1
 10
29742.1646118164
 20
17981.8725585938
 30
0
 40
300.000011920929
 50
124.53979785418
 51
265.597397348038
  0
ARC
  8
LAY0_0
  6
CONTINUOUS
 62
1
 10
29067.4514770508
 20
35952.2247314453
 30
0
 40
300.000011920929
 50
105.894604023907
 51
246.952210347954
  0
ARC
  8
LAY0_0
  6
CONTINUOUS
 62
1
 10
29056.8771362305
 20
38405.7464599609
 30
0
 40
300.000011920929
 50
111.603487868067
 51
252.661101022304
  0
ARC
  8
LAY0_0
  6
CONTINUOUS
 62
1
 10
26117.3706054687
 20
19136.3830566406
 30
0
 40
300.000011920929
 50
304.539802863136
 51
85.5973991692713
  0
ARC
  8
LAY0_0
  6
CONTINUOUS
 62
1
 10
26874.8626708984
 20
8704.1015625
 30
0
 40
300.000011920929
 50
281.089495819678
 51
62.1471057861915
  0
ARC
  8
LAY0_0
  6
CONTINUOUS
 62
1
 10
27039.5812988281
 20
9822.021484375
 30
0
 40
300.000011920929
 50
281.089495819678
 51
62.1471057861915
  0
ARC
  8
LAY0_0
  6
CONTINUOUS
 62
1
 10
27113.5559082031
 20
8951.95007324219
 30
0
 40
300.000011920929
 50
281.089495819678
 51
62.1471057861915
  0
ARC
  8
LAY0_0
  6
CONTINUOUS
 62
1
 10
27195.915222168
 20
9510.91003417969
 30
0
 40
300.000011920929
 50
281.089495819678
 51
62.1471057861915
  0
ARC
  8
LAY0_0
  6
CONTINUOUS
 62
1
 10
26957.2219848633
 20
9263.0615234375
 30
0
 40
300.000011920929
 50
281.089495819678
 51
62.1471057861915
  0
ARC
  8
LAY0_0
  6
CONTINUOUS
 62
1
 10
28815.1168823242
 20
35121.337890625
 30
0
 40
300.000011920929
 50
105.894604023907
 51
246.952210347954
  0
ARC
  8
LAY0_0
  6
CONTINUOUS
 62
1
 10
28850.3646850586
 20
35685.2416992188
 30
0
 40
300.000011920929
 50
105.894604023907
 51
246.952210347954
  0
ARC
  8
LAY0_0
  6
CONTINUOUS
 62
1
 10
28867.4163818359
 20
38118.4997558594
 30
0
 40
300.000011920929
 50
111.603487868067
 51
252.661101022304
  0
ARC
  8
LAY0_0
  6
CONTINUOUS
 62
1
 10
30505.9356689453
 20
11327.8961181641
 30
0
 40
300.000011920929
 50
106.291820505278
 51
247.349426829326
  0
ARC
  8
LAY0_0
  6
CONTINUOUS
 62
1
 10
28996.9635009766
 20
34824.4171142578
 30
0
 40
300.000011920929
 50
105.894604023907
 51
246.952210347954
  0
ARC
  8
LAY0_0
  6
CONTINUOUS
 62
1
 10
59329.6661376953
 20
63142.2119140625
 30
0
 40
240.000009536743
 50
213.996274395076
 51
355.053887549313
  0
ARC
  8
LAY0_0
  6
CONTINUOUS
 62
1
 10
23698.9822387695
 20
71332.7484130859
 30
0
 40
300.000011920929
 50
285.70749600055
 51
66.7650991368746
  0
ARC
  8
LAY0_0
  6
CONTINUOUS
 62
1
 10
23773.1552124023
 20
72460.3118896484
 30
0
 40
300.000011920929
 50
285.70749600055
 51
66.7650991368746
  0
ARC
  8
LAY0_0
  6
CONTINUOUS
 62
1
 10
23736.0687255859
 20
71896.5301513672
 30
0
 40
300.000011920929
 50
285.70749600055
 51
66.7650991368746
  0
ARC
  8
LAY0_0
  6
CONTINUOUS
 62
1
 10
24078.1478881836
 20
61051.2847900391
 30
0
 40
300.000011920929
 50
298.601089983594
 51
79.6586794595395
  0
ARC
  8
LAY0_0
  6
CONTINUOUS
 62
1
 10
24167.8009033203
 20
60493.4387207031
 30
0
 40
300.000011920929
 50
298.601089983594
 51
79.6586794595395
  0
ARC
  8
LAY0_0
  6
CONTINUOUS
 62
1
 10
23481.0256958008
 20
71066.4825439453
 30
0
 40
300.000011920929
 50
285.70749600055
 51
66.7650991368746
  0
ARC
  8
LAY0_0
  6
CONTINUOUS
 62
1
 10
23512.6495361328
 20
66747.7111816406
 30
0
 40
300.000011920929
 50
295.235118119098
 51
76.2927280856114
  0
ARC
  8
LAY0_0
  6
CONTINUOUS
 62
1
 10
23455.2536010742
 20
65324.7528076172
 30
0
 40
300.000011920929
 50
295.235118119098
 51
76.2927280856114
  0
ARC
  8
LAY0_0
  6
CONTINUOUS
 62
1
 10
23511.9934082031
 20
64762.6037597656
 30
0
 40
300.000011920929
 50
295.235118119098
 51
76.2927280856114
  0
ARC
  8
LAY0_0
  6
CONTINUOUS
 62
1
 10
23810.2493286133
 20
73024.0936279297
 30
0
 40
300.000011920929
 50
285.70749600055
 51
66.7650991368746
  0
ARC
  8
LAY0_0
  6
CONTINUOUS
 62
1
 10
23285.026550293
 20
67011.1846923828
 30
0
 40
300.000011920929
 50
295.235118119098
 51
76.2927280856114
  0
ARC
  8
LAY0_0
  6
CONTINUOUS
 62
1
 10
23898.8494873047
 20
62166.9616699219
 30
0
 40
300.000011920929
 50
298.601089983594
 51
79.6586794595395
  0
ARC
  8
LAY0_0
  6
CONTINUOUS
 62
1
 10
23682.8765869141
 20
65061.279296875
 30
0
 40
300.000011920929
 50
295.235118119098
 51
76.2927280856114
  0
ARC
  8
LAY0_0
  6
CONTINUOUS
 62
1
 10
23809.2041015625
 20
62724.8077392578
 30
0
 40
300.000011920929
 50
298.601089983594
 51
79.6586794595395
  0
ARC
  8
LAY0_0
  6
CONTINUOUS
 62
1
 10
26908.7829589844
 20
81739.3188476563
 30
0
 40
300.000011920929
 50
110.47087174895
 51
251.52846441262
  0
ARC
  8
LAY0_0
  6
CONTINUOUS
 62
1
 10
25474.8382568359
 20
47187.5915527344
 30
0
 40
300.000011920929
 50
297.596123269875
 51
78.6537195760097
  0
ARC
  8
LAY0_0
  6
CONTINUOUS
 62
1
 10
23569.3893432617
 20
66185.5621337891
 30
0
 40
300.000011920929
 50
295.235118119098
 51
76.2927280856114
  0
ARC
  8
LAY0_0
  6
CONTINUOUS
 62
1
 10
24231.201171875
 20
61359.4665527344
 30
0
 40
300.000011920929
 50
298.601089983594
 51
79.6586794595395
  0
ARC
  8
LAY0_0
  6
CONTINUOUS
 62
1
 10
24051.9027709961
 20
62475.1586914062
 30
0
 40
300.000011920929
 50
298.601089983594
 51
79.6586794595395
  0
ARC
  8
LAY0_0
  6
CONTINUOUS
 62
1
 10
24141.5481567383
 20
61917.3126220703
 30
0
 40
300.000011920929
 50
298.601089983594
 51
79.6586794595395
  0
ARC
  8
LAY0_0
  6
CONTINUOUS
 62
1
 10
23626.1367797852
 20
65623.4130859375
 30
0
 40
300.000011920929
 50
295.235118119098
 51
76.2927280856114
  0
ARC
  8
LAY0_0
  6
CONTINUOUS
 62
1
 10
23988.5025024414
 20
61609.1156005859
 30
0
 40
300.000011920929
 50
298.601089983594
 51
79.6586794595395
  0
ARC
  8
LAY0_0
  6
CONTINUOUS
 62
1
 10
24269.8974609375
 20
58025.1312255859
 30
0
 40
300.000011920929
 50
292.318845909556
 51
73.3764558760694
  0
ARC
  8
LAY0_0
  6
CONTINUOUS
 62
1
 10
24297.9736328125
 20
57460.8306884766
 30
0
 40
300.000011920929
 50
292.318845909556
 51
73.3764558760694
  0
ARC
  8
LAY0_0
  6
CONTINUOUS
 62
1
 10
25155.4260253906
 20
49424.9114990234
 30
0
 40
300.000011920929
 50
297.596123269875
 51
78.6537195760097
  0
ARC
  8
LAY0_0
  6
CONTINUOUS
 62
1
 10
25235.2752685547
 20
48865.5700683594
 30
0
 40
300.000011920929
 50
297.596123269875
 51
78.6537195760097
  0
ARC
  8
LAY0_0
  6
CONTINUOUS
 62
1
 10
25017.5628662109
 20
52702.9418945313
 30
0
 40
300.000011920929
 50
296.811798987104
 51
77.8693884630496
  0
ARC
  8
LAY0_0
  6
CONTINUOUS
 62
1
 10
24241.828918457
 20
58589.4317626953
 30
0
 40
300.000011920929
 50
292.318845909556
 51
73.3764558760694
  0
ARC
  8
LAY0_0
  6
CONTINUOUS
 62
1
 10
24566.2078857422
 20
54641.1590576172
 30
0
 40
300.000011920929
 50
296.811798987104
 51
77.8693884630496
  0
ARC
  8
LAY0_0
  6
CONTINUOUS
 62
1
 10
24638.3972167969
 20
54080.7952880859
 30
0
 40
300.000011920929
 50
296.811798987104
 51
77.8693884630496
  0
ARC
  8
LAY0_0
  6
CONTINUOUS
 62
1
 10
24399.6124267578
 20
59443.3288574219
 30
0
 40
300.000011920929
 50
292.318845909556
 51
73.3764558760694
  0
ARC
  8
LAY0_0
  6
CONTINUOUS
 62
1
 10
24185.6918334961
 20
59718.0480957031
 30
0
 40
300.000011920929
 50
292.318845909556
 51
73.3764558760694
  0
ARC
  8
LAY0_0
  6
CONTINUOUS
 62
1
 10
24213.7603759766
 20
59153.7475585938
 30
0
 40
300.000011920929
 50
292.318845909556
 51
73.3764558760694
  0
ARC
  8
LAY0_0
  6
CONTINUOUS
 62
1
 10
24800.9948730469
 20
54384.0484619141
 30
0
 40
300.000011920929
 50
296.811798987104
 51
77.8693884630496
  0
ARC
  8
LAY0_0
  6
CONTINUOUS
 62
1
 10
24873.1842041016
 20
53823.6846923828
 30
0
 40
300.000011920929
 50
296.811798987104
 51
77.8693884630496
  0
ARC
  8
LAY0_0
  6
CONTINUOUS
 62
1
 10
24320.8465576172
 20
60801.6204833984
 30
0
 40
300.000011920929
 50
298.601089983594
 51
79.6586794595395
  0
ARC
  8
LAY0_0
  6
CONTINUOUS
 62
1
 10
23341.7663574219
 20
66449.0356445313
 30
0
 40
300.000011920929
 50
295.235118119098
 51
76.2927280856114
  0
ARC
  8
LAY0_0
  6
CONTINUOUS
 62
1
 10
23398.5137939453
 20
65886.8865966797
 30
0
 40
300.000011920929
 50
295.235118119098
 51
76.2927280856114
  0
ARC
  8
LAY0_0
  6
CONTINUOUS
 62
1
 10
24854.9652099609
 20
52399.6734619141
 30
0
 40
300.000011920929
 50
296.811798987104
 51
77.8693884630496
  0
ARC
  8
LAY0_0
  6
CONTINUOUS
 62
1
 10
25315.1321411133
 20
48306.2438964844
 30
0
 40
300.000011920929
 50
297.596123269875
 51
78.6537195760097
  0
ARC
  8
LAY0_0
  6
CONTINUOUS
 62
1
 10
25394.9813842773
 20
47746.9177246094
 30
0
 40
300.000011920929
 50
297.596123269875
 51
78.6537195760097
  0
ARC
  8
LAY0_0
  6
CONTINUOUS
 62
1
 10
24945.3735351562
 20
53263.3056640625
 30
0
 40
300.000011920929
 50
296.811798987104
 51
77.8693884630496
  0
ARC
  8
LAY0_0
  6
CONTINUOUS
 62
1
 10
24710.5865478516
 20
53520.4162597656
 30
0
 40
300.000011920929
 50
296.811798987104
 51
77.8693884630496
  0
ARC
  8
LAY0_0
  6
CONTINUOUS
 62
1
 10
24782.7758789062
 20
52960.0524902344
 30
0
 40
300.000011920929
 50
296.811798987104
 51
77.8693884630496
  0
ARC
  8
LAY0_0
  6
CONTINUOUS
 62
1
 10
25393.7072753906
 20
49171.0357666016
 30
0
 40
300.000011920929
 50
297.596123269875
 51
78.6537195760097
  0
ARC
  8
LAY0_0
  6
CONTINUOUS
 62
1
 10
25473.5641479492
 20
48611.7095947266
 30
0
 40
300.000011920929
 50
297.596123269875
 51
78.6537195760097
  0
ARC
  8
LAY0_0
  6
CONTINUOUS
 62
1
 10
25553.4133911133
 20
48052.3681640625
 30
0
 40
300.000011920929
 50
297.596123269875
 51
78.6537195760097
  0
ARC
  8
LAY0_0
  6
CONTINUOUS
 62
1
 10
25633.2702636719
 20
47493.0419921875
 30
0
 40
300.000011920929
 50
297.596123269875
 51
78.6537195760097
  0
ARC
  8
LAY0_0
  6
CONTINUOUS
 62
1
 10
25706.3903808594
 20
44736.3586425781
 30
0
 40
300.000011920929
 50
290.471361701338
 51
71.5289580074726
  0
ARC
  8
LAY0_0
  6
CONTINUOUS
 62
1
 10
25716.2551879883
 20
44171.4477539063
 30
0
 40
300.000011920929
 50
290.471361701338
 51
71.5289580074726
  0
ARC
  8
LAY0_0
  6
CONTINUOUS
 62
1
 10
25726.1123657227
 20
43606.5216064453
 30
0
 40
300.000011920929
 50
290.471361701338
 51
71.5289580074726
  0
ARC
  8
LAY0_0
  6
CONTINUOUS
 62
1
 10
25735.9771728516
 20
43041.6107177734
 30
0
 40
300.000011920929
 50
290.471361701338
 51
71.5289580074726
  0
ARC
  8
LAY0_0
  6
CONTINUOUS
 62
1
 10
25745.8419799805
 20
42476.6998291016
 30
0
 40
300.000011920929
 50
290.471361701338
 51
71.5289580074726
  0
ARC
  8
LAY0_0
  6
CONTINUOUS
 62
1
 10
25911.3464355469
 20
44454.8950195313
 30
0
 40
300.000011920929
 50
290.471361701338
 51
71.5289580074726
  0
ARC
  8
LAY0_0
  6
CONTINUOUS
 62
1
 10
25921.2112426758
 20
43889.9688720703
 30
0
 40
300.000011920929
 50
290.471361701338
 51
71.5289580074726
  0
ARC
  8
LAY0_0
  6
CONTINUOUS
 62
1
 10
25931.0684204102
 20
43325.0579833984
 30
0
 40
300.000011920929
 50
290.471361701338
 51
71.5289580074726
  0
ARC
  8
LAY0_0
  6
CONTINUOUS
 62
1
 10
25940.9332275391
 20
42760.1470947266
 30
0
 40
300.000011920929
 50
290.471361701338
 51
71.5289580074726
  0
ARC
  8
LAY0_0
  6
CONTINUOUS
 62
1
 10
27101.1810302734
 20
83787.0635986328
 30
0
 40
300.000011920929
 50
102.342891995122
 51
243.400484658791
  0
ARC
  8
LAY0_0
  6
CONTINUOUS
 62
1
 10
27171.2951660156
 20
84347.7020263672
 30
0
 40
300.000011920929
 50
102.342891995122
 51
243.400484658791
  0
ARC
  8
LAY0_0
  6
CONTINUOUS
 62
1
 10
27241.4093017578
 20
84908.3251953125
 30
0
 40
300.000011920929
 50
102.342891995122
 51
243.400484658791
  0
ARC
  8
LAY0_0
  6
CONTINUOUS
 62
1
 10
27311.5158081055
 20
85468.9636230469
 30
0
 40
300.000011920929
 50
102.342891995122
 51
243.400484658791
  0
ARC
  8
LAY0_0
  6
CONTINUOUS
 62
1
 10
27381.6299438477
 20
86029.6020507812
 30
0
 40
300.000011920929
 50
102.342891995122
 51
243.400484658791
  0
ARC
  8
LAY0_0
  6
CONTINUOUS
 62
1
 10
26938.0798339844
 20
84094.6807861328
 30
0
 40
300.000011920929
 50
102.342891995122
 51
243.400484658791
  0
ARC
  8
LAY0_0
  6
CONTINUOUS
 62
1
 10
27008.1939697266
 20
84655.3192138672
 30
0
 40
300.000011920929
 50
102.342891995122
 51
243.400484658791
  0
ARC
  8
LAY0_0
  6
CONTINUOUS
 62
1
 10
27078.3081054687
 20
85215.9423828125
 30
0
 40
300.000011920929
 50
102.342891995122
 51
243.400484658791
  0
ARC
  8
LAY0_0
  6
CONTINUOUS
 62
1
 10
27148.4146118164
 20
85776.5808105469
 30
0
 40
300.000011920929
 50
102.342891995122
 51
243.400484658791
  0
ARC
  8
LAY0_0
  6
CONTINUOUS
 62
1
 10
27113.7390136719
 20
81457.8552246094
 30
0
 40
300.000011920929
 50
110.47087174895
 51
251.52846441262
  0
ARC
  8
LAY0_0
  6
CONTINUOUS
 62
1
 10
27133.4533691406
 20
80328.0181884766
 30
0
 40
300.000011920929
 50
110.47087174895
 51
251.52846441262
  0
ARC
  8
LAY0_0
  6
CONTINUOUS
 62
1
 10
26938.362121582
 20
80044.5709228516
 30
0
 40
300.000011920929
 50
110.47087174895
 51
251.52846441262
  0
ARC
  8
LAY0_0
  6
CONTINUOUS
 62
1
 10
26722.8012084961
 20
71596.0540771484
 30
0
 40
300.000011920929
 50
105.707566123675
 51
246.765172447723
  0
ARC
  8
LAY0_0
  6
CONTINUOUS
 62
1
 10
27103.8818359375
 20
82022.7661132813
 30
0
 40
300.000011920929
 50
110.47087174895
 51
251.52846441262
  0
ARC
  8
LAY0_0
  6
CONTINUOUS
 62
1
 10
27123.5961914062
 20
80892.9443359375
 30
0
 40
300.000011920929
 50
110.47087174895
 51
251.52846441262
  0
ARC
  8
LAY0_0
  6
CONTINUOUS
 62
1
 10
26818.115234375
 20
75837.0666503906
 30
0
 40
300.000011920929
 50
102.340658523263
 51
243.3982716775
  0
ARC
  8
LAY0_0
  6
CONTINUOUS
 62
1
 10
26918.6401367187
 20
81174.4079589844
 30
0
 40
300.000011920929
 50
110.47087174895
 51
251.52846441262
  0
ARC
  8
LAY0_0
  6
CONTINUOUS
 62
1
 10
26958.3892822266
 20
76958.3282470703
 30
0
 40
300.000011920929
 50
102.340658523263
 51
243.3982716775
  0
ARC
  8
LAY0_0
  6
CONTINUOUS
 62
1
 10
26928.5049438477
 20
80609.4970703125
 30
0
 40
300.000011920929
 50
110.47087174895
 51
251.52846441262
  0
ARC
  8
LAY0_0
  6
CONTINUOUS
 62
1
 10
26888.2522583008
 20
76397.6898193359
 30
0
 40
300.000011920929
 50
102.340658523263
 51
243.3982716775
  0
ARC
  8
LAY0_0
  6
CONTINUOUS
 62
1
 10
26655.029296875
 20
76144.6838378906
 30
0
 40
300.000011920929
 50
102.340658523263
 51
243.3982716775
  0
ARC
  8
LAY0_0
  6
CONTINUOUS
 62
1
 10
27028.5186767578
 20
77518.9514160156
 30
0
 40
300.000011920929
 50
102.340658523263
 51
243.3982716775
  0
ARC
  8
LAY0_0
  6
CONTINUOUS
 62
1
 10
26795.295715332
 20
77265.9454345703
 30
0
 40
300.000011920929
 50
102.340658523263
 51
243.3982716775
  0
ARC
  8
LAY0_0
  6
CONTINUOUS
 62
1
 10
27143.310546875
 20
79763.1072998047
 30
0
 40
300.000011920929
 50
110.47087174895
 51
251.52846441262
  0
ARC
  8
LAY0_0
  6
CONTINUOUS
 62
1
 10
26725.1663208008
 20
76705.322265625
 30
0
 40
300.000011920929
 50
102.340658523263
 51
243.3982716775
  0
ARC
  8
LAY0_0
  6
CONTINUOUS
 62
1
 10
27098.6557006836
 20
78079.58984375
 30
0
 40
300.000011920929
 50
102.340658523263
 51
243.3982716775
  0
ARC
  8
LAY0_0
  6
CONTINUOUS
 62
1
 10
26759.8876953125
 20
72159.8358154297
 30
0
 40
300.000011920929
 50
105.707566123675
 51
246.765172447723
  0
ARC
  8
LAY0_0
  6
CONTINUOUS
 62
1
 10
26685.7147216797
 20
71032.2723388672
 30
0
 40
300.000011920929
 50
105.707566123675
 51
246.765172447723
  0
ARC
  8
LAY0_0
  6
CONTINUOUS
 62
1
 10
26834.0606689453
 20
73287.3992919922
 30
0
 40
300.000011920929
 50
105.707566123675
 51
246.765172447723
  0
ARC
  8
LAY0_0
  6
CONTINUOUS
 62
1
 10
26865.4327392578
 20
77826.5838623047
 30
0
 40
300.000011920929
 50
102.340658523263
 51
243.3982716775
  0
ARC
  8
LAY0_0
  6
CONTINUOUS
 62
1
 10
26796.9741821289
 20
72723.6175537109
 30
0
 40
300.000011920929
 50
105.707566123675
 51
246.765172447723
  0
ARC
  8
LAY0_0
  6
CONTINUOUS
 62
1
 10
24483.8256835938
 20
57750.4272460937
 30
0
 40
300.000011920929
 50
292.318845909556
 51
73.3764558760694
  0
ARC
  8
LAY0_0
  6
CONTINUOUS
 62
1
 10
55325.4241943359
 20
54320.80078125
 30
0
 40
240.000009536743
 50
286.797703475111
 51
427.855316629348
  0
ARC
  8
LAY0_0
  6
CONTINUOUS
 62
1
 10
58017.0135498047
 20
62802.1240234375
 30
0
 40
240.000009536743
 50
213.996274395076
 51
355.053887549313
  0
ARC
  8
LAY0_0
  6
CONTINUOUS
 62
1
 10
30296.3943481445
 20
9973.11401367187
 30
0
 40
300.000011920929
 50
101.089572772992
 51
242.14717226685
  0
ARC
  8
LAY0_0
  6
CONTINUOUS
 62
1
 10
30214.0426635742
 20
9414.15405273437
 30
0
 40
300.000011920929
 50
101.089572772992
 51
242.14717226685
  0
ARC
  8
LAY0_0
  6
CONTINUOUS
 62
1
 10
25795.1736450195
 20
40002.9754638672
 30
0
 40
300.000011920929
 50
291.603615820429
 51
432.661228974666
  0
ARC
  8
LAY0_0
  6
CONTINUOUS
 62
1
 10
57466.1102294922
 20
62501.5258789063
 30
0
 40
240.000009536743
 50
253.10839645067
 51
394.16598228415
  0
ARC
  8
LAY0_0
  6
CONTINUOUS
 62
1
 10
55878.9367675781
 20
60345.7641601562
 30
0
 40
240.000009536743
 50
253.10839645067
 51
394.16598228415
  0
ARC
  8
LAY0_0
  6
CONTINUOUS
 62
1
 10
59767.2271728516
 20
63255.5847167969
 30
0
 40
240.000009536743
 50
213.996274395076
 51
355.053887549313
  0
ARC
  8
LAY0_0
  6
CONTINUOUS
 62
1
 10
56394.1650390625
 20
61045.5627441406
 30
0
 40
240.000009536743
 50
253.10839645067
 51
394.16598228415
  0
ARC
  8
LAY0_0
  6
CONTINUOUS
 62
1
 10
56930.1300048828
 20
61773.5595703125
 30
0
 40
240.000009536743
 50
253.10839645067
 51
394.16598228415
  0
ARC
  8
LAY0_0
  6
CONTINUOUS
 62
1
 10
56662.1551513672
 20
61409.5458984375
 30
0
 40
240.000009536743
 50
253.10839645067
 51
394.16598228415
  0
ARC
  8
LAY0_0
  6
CONTINUOUS
 62
1
 10
26026.6723632813
 20
39161.0107421875
 30
0
 40
300.000011920929
 50
291.603615820429
 51
432.661228974666
  0
ARC
  8
LAY0_0
  6
CONTINUOUS
 62
1
 10
26005.6533813477
 20
39725.6164550781
 30
0
 40
300.000011920929
 50
291.603615820429
 51
432.661228974666
  0
ARC
  8
LAY0_0
  6
CONTINUOUS
 62
1
 10
30131.6833496094
 20
8855.17883300781
 30
0
 40
300.000011920929
 50
101.089572772992
 51
242.14717226685
  0
ARC
  8
LAY0_0
  6
CONTINUOUS
 62
1
 10
26047.6989746094
 20
38596.4050292969
 30
0
 40
300.000011920929
 50
291.603615820429
 51
432.661228974666
  0
ARC
  8
LAY0_0
  6
CONTINUOUS
 62
1
 10
25837.2192382813
 20
38873.7640380859
 30
0
 40
300.000011920929
 50
291.603615820429
 51
432.661228974666
  0
ARC
  8
LAY0_0
  6
CONTINUOUS
 62
1
 10
25196.4874267578
 20
29025.2075195313
 30
0
 40
300.000011920929
 50
285.480323908756
 51
66.5379133847017
  0
ARC
  8
LAY0_0
  6
CONTINUOUS
 62
1
 10
25235.8093261719
 20
29588.8366699219
 30
0
 40
300.000011920929
 50
285.480323908756
 51
66.5379133847017
  0
ARC
  8
LAY0_0
  6
CONTINUOUS
 62
1
 10
30378.7536621094
 20
10532.0739746094
 30
0
 40
300.000011920929
 50
101.089572772992
 51
242.14717226685
  0
ARC
  8
LAY0_0
  6
CONTINUOUS
 62
1
 10
26068.7255859375
 20
38031.7993164063
 30
0
 40
300.000011920929
 50
291.603615820429
 51
432.661228974666
  0
ARC
  8
LAY0_0
  6
CONTINUOUS
 62
1
 10
25336.8530273438
 20
28163.3453369141
 30
0
 40
300.000011920929
 50
285.480323908756
 51
66.5379133847017
  0
ARC
  8
LAY0_0
  6
CONTINUOUS
 62
1
 10
25117.8359985352
 20
27897.9339599609
 30
0
 40
300.000011920929
 50
285.480323908756
 51
66.5379133847017
  0
ARC
  8
LAY0_0
  6
CONTINUOUS
 62
1
 10
55346.5118408203
 20
54772.2778320313
 30
0
 40
240.000009536743
 50
286.797703475111
 51
427.855316629348
  0
ARC
  8
LAY0_0
  6
CONTINUOUS
 62
1
 10
58454.5593261719
 20
62915.4968261719
 30
0
 40
240.000009536743
 50
213.996274395076
 51
355.053887549313
  0
ARC
  8
LAY0_0
  6
CONTINUOUS
 62
1
 10
55576.4007568359
 20
59695.6787109375
 30
0
 40
240.000009536743
 50
286.797703475111
 51
427.855316629348
  0
ARC
  8
LAY0_0
  6
CONTINUOUS
 62
1
 10
57198.1353759766
 20
62137.5122070312
 30
0
 40
240.000009536743
 50
253.10839645067
 51
394.16598228415
  0
ARC
  8
LAY0_0
  6
CONTINUOUS
 62
1
 10
26762.1459960938
 20
64427.0324707031
 30
0
 40
300.000011920929
 50
115.23512677052
 51
256.292712604
  0
ARC
  8
LAY0_0
  6
CONTINUOUS
 62
1
 10
26705.4061889648
 20
64989.1815185547
 30
0
 40
300.000011920929
 50
115.23512677052
 51
256.292712604
  0
ARC
  8
LAY0_0
  6
CONTINUOUS
 62
1
 10
27235.466003418
 20
58791.8090820312
 30
0
 40
300.000011920929
 50
112.318868221356
 51
253.376467715215
  0
ARC
  8
LAY0_0
  6
CONTINUOUS
 62
1
 10
27207.3974609375
 20
59356.1096191406
 30
0
 40
300.000011920929
 50
112.318868221356
 51
253.376467715215
  0
ARC
  8
LAY0_0
  6
CONTINUOUS
 62
1
 10
27263.542175293
 20
58227.5085449219
 30
0
 40
300.000011920929
 50
112.318868221356
 51
253.376467715215
  0
ARC
  8
LAY0_0
  6
CONTINUOUS
 62
1
 10
26616.096496582
 20
73021.1334228516
 30
0
 40
300.000011920929
 50
105.707566123675
 51
246.765172447723
  0
ARC
  8
LAY0_0
  6
CONTINUOUS
 62
1
 10
26477.783203125
 20
65252.6550292969
 30
0
 40
300.000011920929
 50
115.23512677052
 51
256.292712604
  0
ARC
  8
LAY0_0
  6
CONTINUOUS
 62
1
 10
26421.0357666016
 20
65814.8040771484
 30
0
 40
300.000011920929
 50
115.23512677052
 51
256.292712604
  0
ARC
  8
LAY0_0
  6
CONTINUOUS
 62
1
 10
26648.6587524414
 20
65551.3305664062
 30
0
 40
300.000011920929
 50
115.23512677052
 51
256.292712604
  0
ARC
  8
LAY0_0
  6
CONTINUOUS
 62
1
 10
26541.9235229492
 20
71893.5699462891
 30
0
 40
300.000011920929
 50
105.707566123675
 51
246.765172447723
  0
ARC
  8
LAY0_0
  6
CONTINUOUS
 62
1
 10
26579.0100097656
 20
72457.3516845703
 30
0
 40
300.000011920929
 50
105.707566123675
 51
246.765172447723
  0
ARC
  8
LAY0_0
  6
CONTINUOUS
 62
1
 10
27421.3256835938
 20
59081.4056396484
 30
0
 40
300.000011920929
 50
112.318868221356
 51
253.376467715215
  0
ARC
  8
LAY0_0
  6
CONTINUOUS
 62
1
 10
27393.2571411133
 20
59645.7061767578
 30
0
 40
300.000011920929
 50
112.318868221356
 51
253.376467715215
  0
ARC
  8
LAY0_0
  6
CONTINUOUS
 62
1
 10
26504.8370361328
 20
71329.7882080078
 30
0
 40
300.000011920929
 50
105.707566123675
 51
246.765172447723
  0
ARC
  8
LAY0_0
  6
CONTINUOUS
 62
1
 10
24427.6885986328
 20
58879.0283203125
 30
0
 40
300.000011920929
 50
292.318845909556
 51
73.3764558760694
  0
ARC
  8
LAY0_0
  6
CONTINUOUS
 62
1
 10
24455.7571411133
 20
58314.7277832031
 30
0
 40
300.000011920929
 50
292.318845909556
 51
73.3764558760694
  0
ARC
  8
LAY0_0
  6
CONTINUOUS
 62
1
 10
27449.3942260742
 20
58517.08984375
 30
0
 40
300.000011920929
 50
112.318868221356
 51
253.376467715215
  0
ARC
  8
LAY0_0
  6
CONTINUOUS
 62
1
 10
27179.328918457
 20
59920.41015625
 30
0
 40
300.000011920929
 50
112.318868221356
 51
253.376467715215
  0
ARC
  8
LAY0_0
  6
CONTINUOUS
 62
1
 10
27882.9650878906
 20
53940.0939941406
 30
0
 40
300.000011920929
 50
116.811124619609
 51
257.868737773846
  0
ARC
  8
LAY0_0
  6
CONTINUOUS
 62
1
 10
27365.1809692383
 20
60210.0067138672
 30
0
 40
300.000011920929
 50
112.318868221356
 51
253.376467715215
  0
ARC
  8
LAY0_0
  6
CONTINUOUS
 62
1
 10
26364.2959594727
 20
66376.9378662109
 30
0
 40
300.000011920929
 50
115.23512677052
 51
256.292712604
  0
ARC
  8
LAY0_0
  6
CONTINUOUS
 62
1
 10
27477.4627685547
 20
57952.7893066406
 30
0
 40
300.000011920929
 50
112.318868221356
 51
253.376467715215
  0
ARC
  8
LAY0_0
  6
CONTINUOUS
 62
1
 10
27503.8223266602
 20
55317.9473876953
 30
0
 40
300.000011920929
 50
116.811124619609
 51
257.868737773846
  0
ARC
  8
LAY0_0
  6
CONTINUOUS
 62
1
 10
28489.1586303711
 20
48530.1818847656
 30
0
 40
300.000011920929
 50
114.556807023668
 51
255.614420177905
  0
ARC
  8
LAY0_0
  6
CONTINUOUS
 62
1
 10
27666.4199829102
 20
55621.2005615234
 30
0
 40
300.000011920929
 50
116.811124619609
 51
257.868737773846
  0
ARC
  8
LAY0_0
  6
CONTINUOUS
 62
1
 10
27594.23828125
 20
56181.5795898438
 30
0
 40
300.000011920929
 50
116.811124619609
 51
257.868737773846
  0
ARC
  8
LAY0_0
  6
CONTINUOUS
 62
1
 10
27738.6016845703
 20
55060.8367919922
 30
0
 40
300.000011920929
 50
116.811124619609
 51
257.868737773846
  0
ARC
  8
LAY0_0
  6
CONTINUOUS
 62
1
 10
28439.0716552734
 20
49092.9565429687
 30
0
 40
300.000011920929
 50
114.556807023668
 51
255.614420177905
  0
ARC
  8
LAY0_0
  6
CONTINUOUS
 62
1
 10
23518.1121826172
 20
71630.2642822266
 30
0
 40
300.000011920929
 50
285.70749600055
 51
66.7650991368746
  0
ARC
  8
LAY0_0
  6
CONTINUOUS
 62
1
 10
25816.2002563477
 20
39438.3697509766
 30
0
 40
300.000011920929
 50
291.603615820429
 51
432.661228974666
  0
ARC
  8
LAY0_0
  6
CONTINUOUS
 62
1
 10
28589.3249511719
 20
47404.6325683594
 30
0
 40
300.000011920929
 50
114.556807023668
 51
255.614420177905
  0
ARC
  8
LAY0_0
  6
CONTINUOUS
 62
1
 10
28539.2379760742
 20
47967.4072265625
 30
0
 40
300.000011920929
 50
114.556807023668
 51
255.614420177905
  0
ARC
  8
LAY0_0
  6
CONTINUOUS
 62
1
 10
27431.640625
 20
55878.3111572266
 30
0
 40
300.000011920929
 50
116.811124619609
 51
257.868737773846
  0
ARC
  8
LAY0_0
  6
CONTINUOUS
 62
1
 10
27810.7833862305
 20
54500.4577636719
 30
0
 40
300.000011920929
 50
116.811124619609
 51
257.868737773846
  0
ARC
  8
LAY0_0
  6
CONTINUOUS
 62
1
 10
28264.6713256836
 20
48796.3409423828
 30
0
 40
300.000011920929
 50
114.556807023668
 51
255.614420177905
  0
ARC
  8
LAY0_0
  6
CONTINUOUS
 62
1
 10
26535.1791381836
 20
66675.6134033203
 30
0
 40
300.000011920929
 50
115.23512677052
 51
256.292712604
  0
ARC
  8
LAY0_0
  6
CONTINUOUS
 62
1
 10
26534.5230102539
 20
64690.5059814453
 30
0
 40
300.000011920929
 50
115.23512677052
 51
256.292712604
  0
ARC
  8
LAY0_0
  6
CONTINUOUS
 62
1
 10
26591.9189453125
 20
66113.4643554687
 30
0
 40
300.000011920929
 50
115.23512677052
 51
256.292712604
  0
ARC
  8
LAY0_0
  6
CONTINUOUS
 62
1
 10
28214.5843505859
 20
49359.1156005859
 30
0
 40
300.000011920929
 50
114.556807023668
 51
255.614420177905
  0
ARC
  8
LAY0_0
  6
CONTINUOUS
 62
1
 10
27648.1857299805
 20
54197.2045898438
 30
0
 40
300.000011920929
 50
116.811124619609
 51
257.868737773846
  0
ARC
  8
LAY0_0
  6
CONTINUOUS
 62
1
 10
27576.0040283203
 20
54757.568359375
 30
0
 40
300.000011920929
 50
116.811124619609
 51
257.868737773846
  0
ARC
  8
LAY0_0
  6
CONTINUOUS
 62
1
 10
28364.8376464844
 20
47670.7763671875
 30
0
 40
300.000011920929
 50
114.556807023668
 51
255.614420177905
  0
ARC
  8
LAY0_0
  6
CONTINUOUS
 62
1
 10
28314.7506713867
 20
48233.5662841797
 30
0
 40
300.000011920929
 50
114.556807023668
 51
255.614420177905
  0
ARC
  8
LAY0_0
  6
CONTINUOUS
 62
1
 10
28388.9923095703
 20
49655.7312011719
 30
0
 40
300.000011920929
 50
114.556807023668
 51
255.614420177905
  0
CIRCLE
  8
LAY0_0
  6
CONTINUOUS
 62
1
 10
50049.6520996094
 20
87679.3212890625
 30
0
 40
150.000005960464
  0
CIRCLE
  8
LAY0_0
  6
CONTINUOUS
 62
1
 10
38710.4949951172
 20
79228.0731201172
 30
0
 40
150.000005960464
  0
CIRCLE
  8
LAY0_0
  6
CONTINUOUS
 62
1
 10
48605.6976318359
 20
77784.1186523437
 30
0
 40
150.000005960464
  0
CIRCLE
  8
LAY0_0
  6
CONTINUOUS
 62
1
 10
37266.5405273438
 20
69332.8704833984
 30
0
 40
150.000005960464
  0
CIRCLE
  8
LAY0_0
  6
CONTINUOUS
 62
1
 10
47161.7431640625
 20
67888.916015625
 30
0
 40
150.000005960464
  0
CIRCLE
  8
LAY0_0
  6
CONTINUOUS
 62
1
 10
35822.5860595703
 20
59437.6525878906
 30
0
 40
150.000005960464
  0
CIRCLE
  8
LAY0_0
  6
CONTINUOUS
 62
1
 10
45717.7886962891
 20
57993.6981201172
 30
0
 40
150.000005960464
  0
CIRCLE
  8
LAY0_0
  6
CONTINUOUS
 62
1
 10
34378.6315917969
 20
49542.4346923828
 30
0
 40
150.000005960464
  0
CIRCLE
  8
LAY0_0
  6
CONTINUOUS
 62
1
 10
44273.8342285156
 20
48098.4802246094
 30
0
 40
150.000005960464
  0
CIRCLE
  8
LAY0_0
  6
CONTINUOUS
 62
1
 10
31490.7302856445
 20
29752.0599365234
 30
0
 40
150.000005960464
  0
CIRCLE
  8
LAY0_0
  6
CONTINUOUS
 62
1
 10
41385.9329223633
 20
28308.10546875
 30
0
 40
150.000005960464
  0
CIRCLE
  8
LAY0_0
  6
CONTINUOUS
 62
1
 10
51834.2437744141
 20
17845.5810546875
 30
0
 40
150.000005960464
  0
CIRCLE
  8
LAY0_0
  6
CONTINUOUS
 62
1
 10
60212.1429443359
 20
22686.0656738281
 30
0
 40
150.000005960464
  0
CIRCLE
  8
LAY0_0
  6
CONTINUOUS
 62
1
 10
69033.0505371094
 20
26674.3774414062
 30
0
 40
150.000005960464
  0
CIRCLE
  8
LAY0_0
  6
CONTINUOUS
 62
1
 10
61023.8876342773
 20
32759.1705322266
 30
0
 40
150.000005960464
  0
CIRCLE
  8
LAY0_0
  6
CONTINUOUS
 62
1
 10
61866.828918457
 20
42609.6954345703
 30
0
 40
150.000005960464
  0
CIRCLE
  8
LAY0_0
  6
CONTINUOUS
 62
1
 10
56858.1695556641
 20
51705.9478759766
 30
0
 40
150.000005960464
  0
CIRCLE
  8
LAY0_0
  6
CONTINUOUS
 62
1
 10
54739.2044067383
 20
61267.3797607422
 30
0
 40
150.000005960464
  0
CIRCLE
  8
LAY0_0
  6
CONTINUOUS
 62
1
 10
90703.7506103516
 20
68991.2872314453
 30
0
 40
150.000005960464
  0
CIRCLE
  8
LAY0_0
  6
CONTINUOUS
 62
1
 10
98711.1206054687
 20
64325.2563476563
 30
0
 40
150.000005960464
  0
CIRCLE
  8
LAY0_0
  6
CONTINUOUS
 62
1
 10
105425.750732422
 20
56855.6823730469
 30
0
 40
150.000005960464
  0
CIRCLE
  8
LAY0_0
  6
CONTINUOUS
 62
1
 10
111635.940551758
 20
64982.0709228516
 30
0
 40
150.000005960464
  0
CIRCLE
  8
LAY0_0
  6
CONTINUOUS
 62
1
 10
119542.297363281
 20
70401.0772705078
 30
0
 40
150.000005960464
  0
CIRCLE
  8
LAY0_0
  6
CONTINUOUS
 62
1
 10
123380.523681641
 20
86876.0528564453
 30
0
 40
150.000005960464
  0
CIRCLE
  8
LAY0_0
  6
CONTINUOUS
 62
1
 10
128974.334716797
 20
95691.8487548828
 30
0
 40
150.000005960464
  0
CIRCLE
  8
LAY0_0
  6
CONTINUOUS
 62
1
 10
129170.486450195
 20
69269.6228027344
 30
0
 40
150.000005960464
  0
CIRCLE
  8
LAY0_0
  6
CONTINUOUS
 62
1
 10
100831.970214844
 20
45937.9425048828
 30
0
 40
150.000005960464
  0
CIRCLE
  8
LAY0_0
  6
CONTINUOUS
 62
1
 10
43598.4497070313
 20
12437.2253417969
 30
0
 40
150.000005960464
  0
CIRCLE
  8
LAY0_0
  6
CONTINUOUS
 62
1
 10
39941.9784545898
 20
18412.9028320313
 30
0
 40
150.000005960464
  0
CIRCLE
  8
LAY0_0
  6
CONTINUOUS
 62
1
 10
30046.7758178711
 20
19856.8572998047
 30
0
 40
150.000005960464
  0
CIRCLE
  8
LAY0_0
  6
CONTINUOUS
 62
1
 10
32934.684753418
 20
39647.2778320313
 30
0
 40
150.000005960464
  0
CIRCLE
  8
LAY0_0
  6
CONTINUOUS
 62
1
 10
42829.8873901367
 20
38203.3233642578
 30
0
 40
150.000005960464
  0
CIRCLE
  8
LAY0_0
  6
CONTINUOUS
 62
1
 10
63519.2565917969
 20
65698.3337402344
 30
0
 40
150.000005960464
  0
CIRCLE
  8
LAY0_0
  6
CONTINUOUS
 62
1
 10
71612.9608154297
 20
68444.580078125
 30
0
 40
150.000005960464
  0
CIRCLE
  8
LAY0_0
  6
CONTINUOUS
 62
1
 10
81118.8201904297
 20
71828.9337158203
 30
0
 40
150.000005960464
  0
CIRCLE
  8
LAY0_0
  6
CONTINUOUS
 62
1
 10
95115.5090332031
 20
37805.1147460937
 30
0
 40
150.000005960464
  0
CIRCLE
  8
LAY0_0
  6
CONTINUOUS
 62
1
 10
88698.7609863281
 20
31002.2125244141
 30
0
 40
150.000005960464
  0
CIRCLE
  8
LAY0_0
  6
CONTINUOUS
 62
1
 10
78769.8822021484
 20
27366.6687011719
 30
0
 40
150.000005960464
  0
CIRCLE
  8
LAY0_0
  6
CONTINUOUS
 62
1
 10
138311.218261719
 20
65594.0399169922
 30
0
 40
150.000005960464
  0
CIRCLE
  8
LAY0_0
  6
CONTINUOUS
 62
1
 10
122739.379882812
 20
76884.4604492188
 30
0
 40
150.000005960464
  0
TEXT
  8
LAY0_0
  1
T-100
 10
44659.0995788574
 20
47906.0325622559
 40
425
 41
1
 50
0
  0
TEXT
  8
LAY0_0
  1
8.65
 10
125025.413513184
 20
29429.1687011719
 40
375
 41
1
 50
0
  0
TEXT
  8
LAY0_0
  1
（8.57）
 10
122776.748657227
 20
38827.9838562012
 40
375
 41
1
 50
0
  0
TEXT
  8
LAY0_0
  1
（8.22）
 10
126499.961853027
 20
19106.5483093262
 40
375
 41
1
 50
0
  0
TEXT
  8
LAY0_0
  1
T-72
 10
129355.804443359
 20
95503.4484863281
 40
750
 41
1
 50
0
  0
TEXT
  8
LAY0_0
  1
T-109
 10
36329.891204834
 20
59224.1897583008
 40
425
 41
1
 50
0
  0
TEXT
  8
LAY0_0
  1
8.59
 10
126844.055175781
 20
19588.2797241211
 40
375
 41
1
 50
0
  0
TEXT
  8
LAY0_0
  1
T-71
 10
123299.285888672
 20
87143.9514160156
 40
750
 41
1
 50
0
  0
TEXT
  8
LAY0_0
  1
T-108
 10
34775.634765625
 20
49340.7287597656
 40
425
 41
1
 50
0
  0
TEXT
  8
LAY0_0
  1
T-97
 10
40474.5674133301
 20
18215.7897949219
 40
425
 41
1
 50
0
  0
TEXT
  8
LAY0_0
  1
T-101
 10
46173.5000610352
 20
57749.641418457
 40
425
 41
1
 50
0
  0
TEXT
  8
LAY0_0
  1
8.90
 10
121281.402587891
 20
49068.3746337891
 40
375
 41
1
 50
0
  0
TEXT
  8
LAY0_0
  1
（8.28）
 10
124654.495239258
 20
28986.1240386963
 40
375
 41
1
 50
0
  0
TEXT
  8
LAY0_0
  1
8.80
 10
123126.678466797
 20
39317.8787231445
 40
375
 41
1
 50
0
  0
TEXT
  8
LAY0_0
  1
9.06
 10
86670.5169677734
 20
48608.1886291504
 40
375
 41
1
 50
0
  0
TEXT
  8
LAY0_0
  1
（9.10）
 10
71684.6618652344
 20
45331.5963745117
 40
375
 41
1
 50
0
  0
TEXT
  8
LAY0_0
  1
9.16
 10
68641.2353515625
 20
48445.6062316895
 40
375
 41
1
 50
0
  0
TEXT
  8
LAY0_0
  1
（9.16）
 10
68269.401550293
 20
47987.9608154297
 40
375
 41
1
 50
0
  0
TEXT
  8
LAY0_0
  1
9.19
 10
78390.4724121094
 20
53534.6984863281
 40
375
 41
1
 50
0
  0
TEXT
  8
LAY0_0
  1
（9.19）
 10
78026.6647338867
 20
53093.2846069336
 40
375
 41
1
 50
0
  0
TEXT
  8
LAY0_0
  1
9.21
 10
87841.7205810547
 20
56255.7182312012
 40
375
 41
1
 50
0
  0
TEXT
  8
LAY0_0
  1
（9.21）
 10
95370.8190917969
 20
49721.9352722168
 40
375
 41
1
 50
0
  0
TEXT
  8
LAY0_0
  1
（8.76）
 10
120924.476623535
 20
48595.9739685059
 40
375
 41
1
 50
0
  0
TEXT
  8
LAY0_0
  1
T-102
 10
47608.1962585449
 20
67672.9583740234
 40
425
 41
1
 50
0
  0
TEXT
  8
LAY0_0
  1
9.21
 10
95736.2976074219
 20
50133.5792541504
 40
375
 41
1
 50
0
  0
TEXT
  8
LAY0_0
  1
（9.05）
 10
86306.9610595703
 20
48186.9277954102
 40
375
 41
1
 50
0
  0
TEXT
  8
LAY0_0
  1
9.16
 10
92893.2647705078
 20
56461.1625671387
 40
375
 41
1
 50
0
  0
TEXT
  8
LAY0_0
  1
（9.12）
 10
92506.5460205078
 20
55905.2505493164
 40
375
 41
1
 50
0
  0
TEXT
  8
LAY0_0
  1
T-49
 10
88753.6087036133
 20
31216.0987854004
 40
425
 41
1
 50
0
  0
TEXT
  8
LAY0_0
  1
T-90
 10
55140.3503417969
 20
61017.5628662109
 40
425
 41
1
 50
0
  0
TEXT
  8
LAY0_0
  1
T-70
 10
122302.429199219
 20
76131.6375732422
 40
425
 41
1
 50
0
  0
TEXT
  8
LAY0_0
  1
T-50
 10
95245.4147338867
 20
37975.3799438477
 40
425
 41
1
 50
0
  0
TEXT
  8
LAY0_0
  1
T-55
 10
129471.878051758
 20
69041.3284301758
 40
425
 41
1
 50
0
  0
TEXT
  8
LAY0_0
  1
T-45
 10
52270.9617614746
 20
17578.1478881836
 40
425
 41
1
 50
0
  0
TEXT
  8
LAY0_0
  1
T-51
 10
100381.103515625
 20
46191.1277770996
 40
425
 41
1
 50
0
  0
TEXT
  8
LAY0_0
  1
縮尺 弐百五十分之壱
 10
74035.1867675781
 20
86547.7676391602
 40
750
 41
1
 50
0
  0
TEXT
  8
LAY0_0
  1
大覚寺放生池現況平面図
 10
68088.3865356445
 20
90795.4788208008
 40
750
 41
1
 50
0
  0
TEXT
  8
LAY0_0
  1
T-92
 10
72090.3701782227
 20
68252.4719238281
 40
425
 41
1
 50
0
  0
TEXT
  8
LAY0_0
  1
N.W.L ＝ 9.76
 10
77401.0848999023
 20
47679.1648864746
 40
750
 41
1
 50
0
  0
TEXT
  8
LAY0_0
  1
T-52
 10
105136.459350586
 20
57143.5241699219
 40
425
 41
1
 50
0
  0
TEXT
  8
LAY0_0
  1
T-46
 10
60560.3179931641
 20
22480.0262451172
 40
425
 41
1
 50
0
  0
TEXT
  8
LAY0_0
  1
T-53
 10
111737.754821777
 20
65387.7487182617
 40
425
 41
1
 50
0
  0
TEXT
  8
LAY0_0
  1
T-91
 10
63944.8738098145
 20
65491.9509887695
 40
425
 41
1
 50
0
  0
TEXT
  8
LAY0_0
  1
T-48
 10
79117.1417236328
 20
27225.4447937012
 40
425
 41
1
 50
0
  0
TEXT
  8
LAY0_0
  1
8.5
 10
113178.031921387
 20
27208.776473999
 40
750
 41
1
 50
37.4363009917857
  0
TEXT
  8
LAY0_0
  1
T-54
 10
119867.111206055
 20
70191.3299560547
 40
425
 41
1
 50
0
  0
TEXT
  8
LAY0_0
  1
放　生　池
 10
76571.3729858398
 20
48848.3085632324
 40
750
 41
1
 50
0
  0
TEXT
  8
LAY0_0
  1
9.0
 10
139755.432128906
 20
54483.570098877
 40
625
 41
1
 50
-59.4898138594088
  0
TEXT
  8
LAY0_0
  1
T-87
 10
61596.4851379395
 20
32602.6039123535
 40
425
 41
1
 50
0
  0
TEXT
  8
LAY0_0
  1
T-44
 10
43901.9012451172
 20
12357.4476242065
 40
425
 41
1
 50
0
  0
TEXT
  8
LAY0_0
  1
T-47
 10
67900.3448486328
 20
26448.3795166016
 40
425
 41
1
 50
0
  0
TEXT
  8
LAY0_0
  1
T-95
 10
99087.8067016602
 20
64117.9656982422
 40
425
 41
1
 50
0
  0
TEXT
  8
LAY0_0
  1
T-89
 10
57332.2486877441
 20
51492.7711486816
 40
425
 41
1
 50
0
  0
TEXT
  8
LAY0_0
  1
T-88
 10
62353.6834716797
 20
42406.364440918
 40
425
 41
1
 50
0
  0
TEXT
  8
LAY0_0
  1
T-93
 10
81640.0451660156
 20
71536.6821289063
 40
425
 41
1
 50
0
  0
TEXT
  8
LAY0_0
  1
T-94
 10
91037.3840332031
 20
68767.5170898438
 40
425
 41
1
 50
0
  0
TEXT
  8
LAY0_0
  1
10
 10
74574.4323730469
 20
9506.25991821289
 40
500
 41
1
 50
0
  0
TEXT
  8
LAY0_0
  1
40 m
 10
104349.304199219
 20
9359.94338989258
 40
500
 41
1
 50
0
  0
TEXT
  8
LAY0_0
  1
T-106
 10
32274.1394042969
 20
29393.6309814453
 40
425
 41
1
 50
0
  0
TEXT
  8
LAY0_0
  1
10
 10
54456.2644958496
 20
9433.10928344727
 40
500
 41
1
 50
0
  0
TEXT
  8
LAY0_0
  1
0
 10
64783.1420898438
 20
9466.47930145264
 40
500
 41
1
 50
0
  0
TEXT
  8
LAY0_0
  1
30
 10
94487.9608154297
 20
9317.95597076416
 40
500
 41
1
 50
0
  0
TEXT
  8
LAY0_0
  1
20
 10
84450.6225585938
 20
9359.94338989258
 40
500
 41
1
 50
0
  0
TEXT
  8
LAY0_0
  1
T-111
 10
39239.1357421875
 20
79030.9677124023
 40
425
 41
1
 50
0
  0
TEXT
  8
LAY0_0
  1
T-56
 10
138667.404174805
 20
65384.9258422852
 40
750
 41
1
 50
0
  0
TEXT
  8
LAY0_0
  1
T-99
 10
43224.4033813477
 20
38022.5677490234
 40
750
 41
1
 50
0
  0
TEXT
  8
LAY0_0
  1
T-98
 10
42077.1255493164
 20
27913.9251708984
 40
425
 41
1
 50
0
  0
TEXT
  8
LAY0_0
  1
T-105
 10
30511.4002227783
 20
19650.4859924316
 40
425
 41
1
 50
0
  0
TEXT
  8
LAY0_0
  1
T-110
 10
37724.7314453125
 20
69147.5067138672
 40
425
 41
1
 50
0
  0
TEXT
  8
LAY0_0
  1
T-103
 10
49122.5967407227
 20
77596.2753295898
 40
425
 41
1
 50
0
  0
TEXT
  8
LAY0_0
  1
放生池現況平面図
 10
130464.385986328
 20
12900.5641937256
 40
750
 41
1
 50
0
  0
TEXT
  8
LAY0_0
  1
平成15年4月7日
 10
130811.584472656
 20
8707.86094665527
 40
750
 41
1
 50
0
  0
TEXT
  8
LAY0_0
  1
平成13年8月17日～平成15年2月23日
 10
127860.198974609
 20
10114.1147613525
 40
750
 41
1
 50
0
  0
TEXT
  8
LAY0_0
  1
大沢の池環境管理プロジェクト
 10
128652.389526367
 20
14270.1845169067
 40
750
 41
1
 50
0
  0
TEXT
  8
LAY0_0
  1
1/
 10
128724.517822266
 20
11521.1086273193
 40
750
 41
1
 50
0
  0
TEXT
  8
LAY0_0
  1
図面番号
 10
132869.506835938
 20
11521.1086273193
 40
750
 41
1
 50
0
  0
TEXT
  8
LAY0_0
  1
250
 10
129523.132324219
 20
11521.1086273193
 40
750
 41
1
 50
0
  0
TEXT
  8
LAY0_0
  1
測量・・・
 10
123534.637451172
 20
10168.8899993896
 40
750
 41
1
 50
0
  0
TEXT
  8
LAY0_0
  1
縮尺・・・
 10
123534.637451172
 20
11562.1204376221
 40
750
 41
1
 50
0
  0
TEXT
  8
LAY0_0
  1
事業名・・
 10
123534.637451172
 20
14361.5779876709
 40
750
 41
1
 50
0
  0
TEXT
  8
LAY0_0
  1
調製・・・
 10
123534.637451172
 20
8762.63236999512
 40
750
 41
1
 50
0
  0
TEXT
  8
LAY0_0
  1
ソウギョ・バスターズ
 10
129769.958496094
 20
7301.60760879517
 40
750
 41
1
 50
0
  0
TEXT
  8
LAY0_0
  1
図面名・・
 10
123534.637451172
 20
12955.3394317627
 40
750
 41
1
 50
0
  0
TEXT
  8
LAY0_0
  1
作業機関・
 10
123534.637451172
 20
7356.38284683228
 40
750
 41
1
 50
0
  0
TEXT
  8
LAY0_0
  1
8.91
 10
74303.3065795898
 20
32901.4511108398
 40
375
 41
1
 50
0
  0
TEXT
  8
LAY0_0
  1
（8.51）
 10
97467.7734375
 20
16749.2141723633
 40
375
 41
1
 50
0
  0
TEXT
  8
LAY0_0
  1
8.93
 10
69537.467956543
 20
16009.7045898438
 40
375
 41
1
 50
0
  0
TEXT
  8
LAY0_0
  1
（8.93）
 10
69180.5419921875
 20
15553.6346435547
 40
375
 41
1
 50
0
  0
TEXT
  8
LAY0_0
  1
9.05
 10
119415.130615234
 20
58933.1703186035
 40
375
 41
1
 50
0
  0
TEXT
  8
LAY0_0
  1
（8.89）
 10
119032.539367676
 20
58454.9369812012
 40
375
 41
1
 50
0
  0
TEXT
  8
LAY0_0
  1
8.58
 10
97800.5905151367
 20
17248.441696167
 40
375
 41
1
 50
0
  0
TEXT
  8
LAY0_0
  1
（9.36）
 10
79505.4702758789
 20
61825.2868652344
 40
375
 41
1
 50
0
  0
TEXT
  8
LAY0_0
  1
9.46
 10
61326.6525268555
 20
55071.159362793
 40
375
 41
1
 50
0
  0
TEXT
  8
LAY0_0
  1
（9.38）
 10
60955.7304382324
 20
54494.1673278809
 40
375
 41
1
 50
0
  0
TEXT
  8
LAY0_0
  1
9.28
 10
84696.8536376953
 20
61281.8336486816
 40
375
 41
1
 50
0
  0
TEXT
  8
LAY0_0
  1
（9.28）
 10
84353.6224365234
 20
60752.685546875
 40
375
 41
1
 50
0
  0
TEXT
  8
LAY0_0
  1
9.36
 10
79905.9066772461
 20
62311.5310668945
 40
375
 41
1
 50
0
  0
TEXT
  8
LAY0_0
  1
（9.21）
 10
87467.0867919922
 20
55723.9761352539
 40
375
 41
1
 50
0
  0
TEXT
  8
LAY0_0
  1
8.87
 10
83858.512878418
 20
35424.5872497559
 40
375
 41
1
 50
0
  0
TEXT
  8
LAY0_0
  1
（8.84）
 10
83469.9935913086
 20
35015.6211853027
 40
375
 41
1
 50
0
  0
TEXT
  8
LAY0_0
  1
8.92
 10
80508.8653564453
 20
40765.8805847168
 40
375
 41
1
 50
0
  0
TEXT
  8
LAY0_0
  1
（8.96）
 10
65338.134765625
 20
37572.1702575684
 40
375
 41
1
 50
0
  0
TEXT
  8
LAY0_0
  1
T-104
 10
50557.2929382324
 20
87479.736328125
 40
750
 41
1
 50
0
  0
TEXT
  8
LAY0_0
  1
T-107
 10
33380.7907104492
 20
39497.1160888672
 40
750
 41
1
 50
0
  0
TEXT
  8
LAY0_0
  1
8.96
 10
65704.4448852539
 20
37993.6828613281
 40
375
 41
1
 50
0
  0
TEXT
  8
LAY0_0
  1
（8.91）
 10
73928.8330078125
 20
32460.4072570801
 40
375
 41
1
 50
0
  0
TEXT
  8
LAY0_0
  1
8.85
 10
95914.2990112305
 20
27053.3657073975
 40
375
 41
1
 50
0
  0
TEXT
  8
LAY0_0
  1
（8.85）
 10
95583.8165283203
 20
26607.2101593018
 40
375
 41
1
 50
0
  0
TEXT
  8
LAY0_0
  1
9.00
 10
76194.8471069336
 20
41945.1103210449
 40
375
 41
1
 50
0
  0
TEXT
  8
LAY0_0
  1
（9.00）
 10
75850.9063720703
 20
41493.0725097656
 40
375
 41
1
 50
0
  0
TEXT
  8
LAY0_0
  1
9.10
 10
72043.6630249023
 20
45783.0085754395
 40
375
 41
1
 50
0
  0
TEXT
  8
LAY0_0
  1
（8.92）
 10
80145.2713012695
 20
40254.8789978027
 40
375
 41
1
 50
0
  0
ENDSEC
  0
EOF
