  0
SECTION
  2
HEADER
  9
$EXTMIN
 10
0
 20
0
  9
$EXTMAX
 10
84100
 20
59500
  0
ENDSEC
  0
SECTION
  2
TABLES
  0
TABLE
  2
LTYPE
 70
     6
  0
LTYPE
  2
CONTINUOUS
 70
    64
  3
CONTINUOUS
 72
    65
 73
     0
 40
0.0
  0
LTYPE
  2
DASHED1
 70
    64
  3
DASHED1
 72
    65
 73
     2
 40
2.5
 49
1.250
 49
-1.25
  0
LTYPE
  2
DASHED2
 70
    64
  3
DASHED2
 72
    65
 73
     2
 40
5.0
 49
3.750
 49
-1.25
  0
LTYPE
  2
DASHED2
 70
    64
  3
DASHED2
 72
    65
 73
     4
 40
10.0
 49
6.250
 49
-1.25
 49
1.25
 49
-1.25
  0
LTYPE
  2
CENTER
 70
    64
  3
CENTER
 72
    65
 73
     6
 40
10.0
 49
3.250
 49
-1.25
 49
1.25
 49
-1.25
 49
1.25
 49
-1.25
  0
LTYPE
  2
CENTER
 70
    64
  3
CENTER
 72
    65
 73
     2
 40
2.5
 49
0.625
 49
-1.875
  0
ENDTAB
  0
TABLE
  2
STYLE
 70
     1
  0
STYLE
  2
STANDARD
 70
    64
 40
0.0
 41
1.0
 42
0.0
 50
0.0
 71
     0
  3
TXT
  4
BIGFONT
  0
ENDTAB
  0
TABLE
  2
LAYER
 70
   256
  0
LAYER
  2
LAY0_0
 70
   64
 62
    7
  6
CONTINUOUS
  0
ENDTAB
  0
ENDSEC
  0
SECTION
  2
ENTITIES
  0
POINT
  8
LAY0_0
 62
3
 10
40212.0391845703
 20
48364.3768310547
  0
POINT
  8
LAY0_0
 62
3
 10
39976.7333984375
 20
48101.3885498047
  0
POINT
  8
LAY0_0
 62
3
 10
39962.8936767578
 20
48648.1292724609
  0
POINT
  8
LAY0_0
 62
3
 10
39513.0432128906
 20
49077.2155761719
  0
POINT
  8
LAY0_0
 62
3
 10
39429.9957275391
 20
48475.1098632813
  0
POINT
  8
LAY0_0
 62
3
 10
39852.1606445313
 20
47658.4594726563
  0
POINT
  8
LAY0_0
 62
1
 10
27769.140625
 20
48164.2211914063
  0
POINT
  8
LAY0_0
 62
3
 10
40087.4664306641
 20
47893.7652587891
  0
POINT
  8
LAY0_0
 62
3
 10
39713.7451171875
 20
48142.9138183594
  0
POINT
  8
LAY0_0
 62
3
 10
39699.9053955078
 20
47921.4508056641
  0
POINT
  8
LAY0_0
 62
3
 10
39319.2626953125
 20
49049.5330810547
  0
POINT
  8
LAY0_0
 62
2
 10
40205.1177978516
 20
47907.6080322266
  0
POINT
  8
LAY0_0
 62
2
 10
40018.2586669922
 20
47755.3527832031
  0
POINT
  8
LAY0_0
 62
2
 10
40080.5450439453
 20
48177.5177001953
  0
POINT
  8
LAY0_0
 62
2
 10
40059.7839355469
 20
48675.8117675781
  0
POINT
  8
LAY0_0
 62
2
 10
40191.2780761719
 20
48558.1604003906
  0
POINT
  8
LAY0_0
 62
3
 10
39443.8354492188
 20
49720.8465576172
  0
POINT
  8
LAY0_0
 62
3
 10
39381.5490722656
 20
49485.5407714844
  0
POINT
  8
LAY0_0
 62
2
 10
40198.1994628906
 20
47665.380859375
  0
POINT
  8
LAY0_0
 62
2
 10
39547.6470947266
 20
47679.2236328125
  0
POINT
  8
LAY0_0
 62
2
 10
39734.5092773438
 20
47748.4313964844
  0
POINT
  8
LAY0_0
 62
2
 10
27963.232421875
 20
48087.3931884766
  0
POINT
  8
LAY0_0
 62
3
 10
27720.6176757813
 20
48099.5239257813
  0
POINT
  8
LAY0_0
 62
2
 10
27728.7048339844
 20
47913.5162353516
  0
POINT
  8
LAY0_0
 62
2
 10
27854.0557861328
 20
47614.2913818359
  0
POINT
  8
LAY0_0
 62
2
 10
27886.4044189453
 20
47929.6905517578
  0
POINT
  8
LAY0_0
 62
3
 10
27862.1429443359
 20
47545.5505371094
  0
POINT
  8
LAY0_0
 62
3
 10
27854.0557861328
 20
47856.9061279297
  0
POINT
  8
LAY0_0
 62
3
 10
27943.0145263672
 20
47909.47265625
  0
POINT
  8
LAY0_0
 62
3
 10
27870.2301025391
 20
48180.3955078125
  0
POINT
  8
LAY0_0
 62
3
 10
27845.9686279297
 20
47739.6423339844
  0
POINT
  8
LAY0_0
 62
2
 10
27724.6612548828
 20
47553.6376953125
  0
POINT
  8
LAY0_0
 62
1
 10
27959.1888427734
 20
47824.5574951172
  0
POINT
  8
LAY0_0
 62
1
 10
27995.5810546875
 20
47978.2135009766
  0
POINT
  8
LAY0_0
 62
1
 10
27748.9227294922
 20
47816.4703369141
  0
POINT
  8
LAY0_0
 62
1
 10
27959.1888427734
 20
48172.3083496094
  0
POINT
  8
LAY0_0
 62
1
 10
27862.1429443359
 20
48046.9573974609
  0
POINT
  8
LAY0_0
 62
1
 10
27736.7919921875
 20
47715.380859375
  0
POINT
  8
LAY0_0
 62
1
 10
27967.2760009766
 20
47557.6812744141
  0
POINT
  8
LAY0_0
 62
1
 10
27922.7966308594
 20
47683.0322265625
  0
POINT
  8
LAY0_0
 62
1
 10
27748.9227294922
 20
48014.6057128906
  0
POINT
  8
LAY0_0
 62
1
 10
27781.2713623047
 20
47626.4221191406
  0
POINT
  8
LAY0_0
 62
2
 10
39845.2392578125
 20
48274.4079589844
  0
POINT
  8
LAY0_0
 62
1
 10
39955.9722900391
 20
48738.0981445313
  0
POINT
  8
LAY0_0
 62
1
 10
40191.2780761719
 20
48717.3370361328
  0
POINT
  8
LAY0_0
 62
1
 10
39485.3607177734
 20
48717.3370361328
  0
POINT
  8
LAY0_0
 62
1
 10
39575.3295898438
 20
48530.4748535156
  0
POINT
  8
LAY0_0
 62
1
 10
39741.4276123047
 20
48703.4942626953
  0
POINT
  8
LAY0_0
 62
1
 10
39845.2392578125
 20
48073.7060546875
  0
POINT
  8
LAY0_0
 62
1
 10
40177.4353027344
 20
48129.0710449219
  0
POINT
  8
LAY0_0
 62
1
 10
40073.6236572266
 20
48572.0001220703
  0
POINT
  8
LAY0_0
 62
1
 10
39907.5256347656
 20
48433.5845947266
  0
POINT
  8
LAY0_0
 62
1
 10
40149.7528076172
 20
48440.5059814453
  0
POINT
  8
LAY0_0
 62
1
 10
39506.1218261719
 20
49437.0941162109
  0
POINT
  8
LAY0_0
 62
1
 10
39547.6470947266
 20
49907.7056884766
  0
POINT
  8
LAY0_0
 62
1
 10
39554.5684814453
 20
49630.8776855469
  0
POINT
  8
LAY0_0
 62
1
 10
39353.8665771484
 20
49727.7679443359
  0
POINT
  8
LAY0_0
 62
1
 10
39298.5015869141
 20
49914.6270751953
  0
POINT
  8
LAY0_0
 62
1
 10
39395.3918457031
 20
49893.8659667969
  0
POINT
  8
LAY0_0
 62
1
 10
39263.8977050781
 20
49146.4233398438
  0
POINT
  8
LAY0_0
 62
1
 10
39256.9763183594
 20
49554.7485351563
  0
POINT
  8
LAY0_0
 62
1
 10
39533.8043212891
 20
49243.3135986328
  0
POINT
  8
LAY0_0
 62
1
 10
39416.1529541016
 20
49340.2038574219
  0
POINT
  8
LAY0_0
 62
1
 10
39457.6782226563
 20
48945.7214355469
  0
POINT
  8
LAY0_0
 62
2
 10
39256.9763183594
 20
49852.3406982422
  0
POINT
  8
LAY0_0
 62
2
 10
39284.6588134766
 20
49409.4116210938
  0
POINT
  8
LAY0_0
 62
2
 10
39506.1218261719
 20
49810.8154296875
  0
POINT
  8
LAY0_0
 62
1
 10
40122.0703125
 20
48357.4584960938
  0
POINT
  8
LAY0_0
 62
2
 10
39381.5490722656
 20
49575.5096435547
  0
POINT
  8
LAY0_0
 62
2
 10
39831.3995361328
 20
48592.7642822266
  0
POINT
  8
LAY0_0
 62
2
 10
39533.8043212891
 20
48129.0710449219
  0
POINT
  8
LAY0_0
 62
2
 10
39340.0238037109
 20
48468.1884765625
  0
POINT
  8
LAY0_0
 62
2
 10
39416.1529541016
 20
49056.4544677734
  0
POINT
  8
LAY0_0
 62
2
 10
39596.09375
 20
48668.8903808594
  0
POINT
  8
LAY0_0
 62
1
 10
39644.5373535156
 20
48336.6943359375
  0
POINT
  8
LAY0_0
 62
1
 10
39921.3684082031
 20
47866.0827636719
  0
POINT
  8
LAY0_0
 62
1
 10
40170.5169677734
 20
47769.1925048828
  0
POINT
  8
LAY0_0
 62
1
 10
39589.1723632813
 20
47893.7652587891
  0
POINT
  8
LAY0_0
 62
1
 10
39997.4975585938
 20
48260.5682373047
  0
POINT
  8
LAY0_0
 62
1
 10
39443.8354492188
 20
48295.1721191406
  0
POINT
  8
LAY0_0
 62
1
 10
40108.2275390625
 20
47637.6983642578
  0
POINT
  8
LAY0_0
 62
1
 10
40101.3092041016
 20
48032.1807861328
  0
POINT
  8
LAY0_0
 62
1
 10
39845.2392578125
 20
47838.4002685547
  0
POINT
  8
LAY0_0
 62
1
 10
39942.1295166016
 20
47665.380859375
  0
POINT
  8
LAY0_0
 62
1
 10
39353.8665771484
 20
47672.3022460938
  0
LINE
  8
LAY0_0
  6
CONTINUOUS
 62
5
 10
3756.52847290039
 20
17125.5432128906
 11
22452.9876708984
 21
17125.5432128906
  0
LINE
  8
LAY0_0
  6
CONTINUOUS
 62
3
 10
10539.55078125
 20
34764.2547607422
 11
4884.73663330078
 21
34764.2547607422
  0
LINE
  8
LAY0_0
  6
CONTINUOUS
 62
3
 10
15828.6407470703
 20
23108.3343505859
 11
14812.2253417969
 21
23772.9156494141
  0
LINE
  8
LAY0_0
  6
CONTINUOUS
 62
3
 10
39668.7896728516
 20
48822.4243164063
 11
39668.7896728516
 21
49992.4774169922
  0
LINE
  8
LAY0_0
  6
CONTINUOUS
 62
3
 10
39131.5521240234
 20
49992.4774169922
 11
39668.7896728516
 21
49992.4774169922
  0
LINE
  8
LAY0_0
  6
CONTINUOUS
 62
1
 10
19457.6019287109
 20
21763.8717651367
 11
19387.6007080078
 21
21763.8717651367
  0
LINE
  8
LAY0_0
  6
CONTINUOUS
 62
3
 10
21359.326171875
 20
48890.0939941406
 11
17485.1150512695
 21
48937.1704101563
  0
LINE
  8
LAY0_0
  6
CONTINUOUS
 62
1
 10
19527.6000976563
 20
21833.8714599609
 11
19317.6025390625
 21
21833.8714599609
  0
LINE
  8
LAY0_0
  6
CONTINUOUS
 62
3
 10
11549.9389648438
 20
36139.4683837891
 11
11549.9389648438
 21
34562.4389648438
  0
LINE
  8
LAY0_0
  6
CONTINUOUS
 62
3
 10
11450.6622314453
 20
34677.0904541016
 11
10539.55078125
 21
34764.2547607422
  0
LINE
  8
LAY0_0
  6
CONTINUOUS
 62
3
 10
16453.8452148438
 20
21448.5931396484
 11
22456.884765625
 21
21448.5931396484
  0
LINE
  8
LAY0_0
  6
CONTINUOUS
 62
1
 10
16454.2205810547
 20
22355.5435180664
 11
16354.2205810547
 21
22355.5435180664
  0
LINE
  8
LAY0_0
  6
CONTINUOUS
 62
3
 10
19581.2683105469
 20
22143.5302734375
 11
19430.0201416016
 21
21987.2573852539
  0
LINE
  8
LAY0_0
  6
CONTINUOUS
 62
3
 10
16354.2205810547
 20
20955.5435180664
 11
16354.2205810547
 21
22355.5435180664
  0
LINE
  8
LAY0_0
  6
CONTINUOUS
 62
1
 10
16454.2205810547
 20
21975.5432128906
 11
22452.9876708984
 21
21975.5432128906
  0
LINE
  8
LAY0_0
  6
CONTINUOUS
 62
4
 10
16404.2205810547
 20
20905.5435180664
 11
16354.2205810547
 21
20955.5435180664
  0
LINE
  8
LAY0_0
  6
CONTINUOUS
 62
4
 10
16454.2205810547
 20
20955.5435180664
 11
16404.2205810547
 21
20905.5435180664
  0
LINE
  8
LAY0_0
  6
CONTINUOUS
 62
3
 10
12838.5559082031
 20
40924.2797851563
 11
15881.0485839844
 21
40924.2797851563
  0
LINE
  8
LAY0_0
  6
CONTINUOUS
 62
3
 10
13565.1077270508
 20
23772.9156494141
 11
12323.2604980469
 21
24131.4178466797
  0
LINE
  8
LAY0_0
  6
CONTINUOUS
 62
3
 10
19266.9860839844
 20
22143.5302734375
 11
19430.0201416016
 21
21987.2573852539
  0
LINE
  8
LAY0_0
  6
CONTINUOUS
 62
3
 10
19086.8103027344
 20
49702.2552490234
 11
18935.5590820313
 21
49545.9808349609
  0
LINE
  8
LAY0_0
  6
CONTINUOUS
 62
3
 10
19086.8103027344
 20
49702.2552490234
 11
18772.5280761719
 21
49702.2552490234
  0
LINE
  8
LAY0_0
  6
CONTINUOUS
 62
1
 10
5739.41802978516
 20
47834.9975585938
 11
5559.41925048828
 21
47834.9975585938
  0
LINE
  8
LAY0_0
  6
CONTINUOUS
 62
1
 10
17057.1807861328
 20
8571.66519165039
 11
16957.1807861328
 21
8571.66519165039
  0
LINE
  8
LAY0_0
  6
CONTINUOUS
 62
3
 10
12838.5406494141
 20
13356.2042236328
 11
15881.0333251953
 21
13356.2042236328
  0
LINE
  8
LAY0_0
  6
CONTINUOUS
 62
1
 10
20584.0026855469
 20
7981.66427612305
 11
20514.0014648438
 21
7981.66427612305
  0
LINE
  8
LAY0_0
  6
CONTINUOUS
 62
3
 10
11690.2214050293
 20
9699.26681518555
 11
10918.6637878418
 21
10052.0393371582
  0
LINE
  8
LAY0_0
  6
CONTINUOUS
 62
3
 10
16698.1170654297
 20
49545.6512451172
 11
21461.8255615234
 21
49543.8354492188
  0
LINE
  8
LAY0_0
  6
CONTINUOUS
 62
3
 10
18772.5280761719
 20
49702.2552490234
 11
18935.5590820313
 21
49545.9808349609
  0
LINE
  8
LAY0_0
  6
CONTINUOUS
 62
1
 10
19348.53515625
 20
49445.9808349609
 11
18548.53515625
 21
49445.9808349609
  0
LINE
  8
LAY0_0
  6
CONTINUOUS
 62
3
 10
13337.7288818359
 20
11341.6648864746
 11
15370.3369140625
 21
11341.6648864746
  0
LINE
  8
LAY0_0
  6
CONTINUOUS
 62
4
 10
22609.3963623047
 20
8191.66488647461
 11
17055.8563232422
 21
8191.66488647461
  0
LINE
  8
LAY0_0
  6
CONTINUOUS
 62
5
 10
3106.10885620117
 20
3341.66488647461
 11
22608.4899902344
 21
3341.66488647461
  0
LINE
  8
LAY0_0
  6
CONTINUOUS
 62
3
 10
11690.2214050293
 20
9699.26681518555
 11
14947.8973388672
 21
9699.26681518555
  0
LINE
  8
LAY0_0
  6
CONTINUOUS
 62
3
 10
17057.1807861328
 20
8571.66519165039
 11
16957.1807861328
 21
8571.66519165039
  0
LINE
  8
LAY0_0
  6
CONTINUOUS
 62
3
 10
20379.4952392578
 20
8347.89810180664
 11
20542.529296875
 21
8191.62521362305
  0
LINE
  8
LAY0_0
  6
CONTINUOUS
 62
3
 10
17057.1807861328
 20
7171.66519165039
 11
17007.1807861328
 21
7121.66519165039
  0
LINE
  8
LAY0_0
  6
CONTINUOUS
 62
3
 10
20693.7774658203
 20
8347.89810180664
 11
20379.4952392578
 21
8347.89810180664
  0
LINE
  8
LAY0_0
  6
CONTINUOUS
 62
3
 10
22605.5252075195
 20
7633.19091796875
 11
19533.7799072266
 21
7775.66452026367
  0
LINE
  8
LAY0_0
  6
CONTINUOUS
 62
3
 10
17057.1807861328
 20
8571.66519165039
 11
17057.1807861328
 21
7171.66519165039
  0
LINE
  8
LAY0_0
  6
CONTINUOUS
 62
1
 10
15828.6407470703
 20
23108.3343505859
 11
16354.2205810547
 21
22355.5435180664
  0
LINE
  8
LAY0_0
  6
CONTINUOUS
 62
3
 10
27689.7552490234
 20
47193.3288574219
 11
22555.7922363281
 21
47193.3288574219
  0
LINE
  8
LAY0_0
  6
CONTINUOUS
 62
4
 10
27684.6984863281
 20
47493.3044433594
 11
22550.6591796875
 21
47493.3044433594
  0
LINE
  8
LAY0_0
  6
CONTINUOUS
 62
3
 10
42211.0534667969
 20
49707.91015625
 11
42059.8052978516
 21
49551.6387939453
  0
LINE
  8
LAY0_0
  6
CONTINUOUS
 62
3
 10
42211.0534667969
 20
49707.91015625
 11
41896.7712402344
 21
49707.91015625
  0
LINE
  8
LAY0_0
  6
CONTINUOUS
 62
3
 10
41896.7712402344
 20
49707.91015625
 11
42059.8052978516
 21
49551.6387939453
  0
LINE
  8
LAY0_0
  6
CONTINUOUS
 62
4
 10
43019.3786621094
 20
49542.7154541016
 11
39669.9951171875
 21
49542.7154541016
  0
LINE
  8
LAY0_0
  6
CONTINUOUS
 62
1
 10
42219.7998046875
 20
49350.1647949219
 11
41919.7998046875
 21
49350.1647949219
  0
LINE
  8
LAY0_0
  6
CONTINUOUS
 62
3
 10
40342.9595947266
 20
47592.724609375
 11
40342.9595947266
 21
48822.4243164063
  0
LINE
  8
LAY0_0
  6
CONTINUOUS
 62
1
 10
42119.7998046875
 20
49250.1647949219
 11
42019.7998046875
 21
49250.1647949219
  0
LINE
  8
LAY0_0
  6
CONTINUOUS
 62
3
 10
40342.9595947266
 20
48822.4243164063
 11
39668.7896728516
 21
48822.4243164063
  0
LINE
  8
LAY0_0
  6
CONTINUOUS
 62
3
 10
16155.4946899414
 20
50085.7238769531
 11
14983.3755493164
 21
50740.6005859375
  0
LINE
  8
LAY0_0
  6
CONTINUOUS
 62
1
 10
41855.8990478516
 20
35620.99609375
 11
41645.9014892578
 21
35620.99609375
  0
LINE
  8
LAY0_0
  6
CONTINUOUS
 62
3
 10
5499.84283447266
 20
48110.4858398438
 11
5807.19757080078
 21
48117.1264648438
  0
LINE
  8
LAY0_0
  6
CONTINUOUS
 62
3
 10
17485.1150512695
 20
48937.1704101563
 11
16697.4792480469
 21
49149.3682861328
  0
LINE
  8
LAY0_0
  6
CONTINUOUS
 62
3
 10
5499.84283447266
 20
48110.4858398438
 11
5655.94940185547
 21
47960.8520507813
  0
LINE
  8
LAY0_0
  6
CONTINUOUS
 62
5
 10
42879.1351318359
 20
30910.0280761719
 11
24600.6469726563
 21
30910.0280761719
  0
LINE
  8
LAY0_0
  6
CONTINUOUS
 62
4
 10
42916.3482666016
 20
35760.0280761719
 11
38740.6799316406
 21
35760.0280761719
  0
LINE
  8
LAY0_0
  6
CONTINUOUS
 62
1
 10
41785.9008789063
 20
35550.9948730469
 11
41715.8996582031
 21
35550.9948730469
  0
LINE
  8
LAY0_0
  6
CONTINUOUS
 62
3
 10
41587.8662109375
 20
35916.0705566406
 11
41750.9002685547
 21
35759.7961425781
  0
LINE
  8
LAY0_0
  6
CONTINUOUS
 62
3
 10
39131.5521240234
 20
49992.4774169922
 11
34867.6239013672
 21
51271.1059570313
  0
LINE
  8
LAY0_0
  6
CONTINUOUS
 62
3
 10
31338.4155273438
 20
51271.1059570313
 11
34867.6239013672
 21
51271.1059570313
  0
LINE
  8
LAY0_0
  6
CONTINUOUS
 62
3
 10
27684.6984863281
 20
47493.3044433594
 11
27684.6984863281
 21
48221.8231201172
  0
LINE
  8
LAY0_0
  6
CONTINUOUS
 62
3
 10
31338.4155273438
 20
51271.1059570313
 11
28004.2053222656
 21
48221.8231201172
  0
LINE
  8
LAY0_0
  6
CONTINUOUS
 62
3
 10
12838.5406494141
 20
27140.0817871094
 11
15881.0333251953
 21
27140.0817871094
  0
LINE
  8
LAY0_0
  6
CONTINUOUS
 62
3
 10
13337.744140625
 20
38909.7351074219
 11
15370.3521728516
 21
38909.7351074219
  0
LINE
  8
LAY0_0
  6
CONTINUOUS
 62
1
 10
15468.3990478516
 20
35759.7351074219
 11
23868.9086914063
 21
35759.7351074219
  0
LINE
  8
LAY0_0
  6
CONTINUOUS
 62
3
 10
16454.2205810547
 20
20955.5435180664
 11
16454.2205810547
 21
22355.5435180664
  0
LINE
  8
LAY0_0
  6
CONTINUOUS
 62
3
 10
12323.2604980469
 20
24131.4178466797
 11
3759.16976928711
 21
24131.4178466797
  0
LINE
  8
LAY0_0
  6
CONTINUOUS
 62
3
 10
13565.1077270508
 20
23772.9156494141
 11
14812.2253417969
 21
23772.9156494141
  0
LINE
  8
LAY0_0
  6
DASHED2
 62
4
 10
40342.9595947266
 20
47592.724609375
 11
40324.51171875
 21
47592.5811767578
  0
LINE
  8
LAY0_0
  6
DASHED2
 62
4
 10
27689.7552490234
 20
47193.3288574219
 11
40342.9595947266
 21
47292.7154541016
  0
LINE
  8
LAY0_0
  6
CONTINUOUS
 62
3
 10
13337.7288818359
 20
25125.5432128906
 11
15370.3369140625
 21
25125.5432128906
  0
LINE
  8
LAY0_0
  6
CONTINUOUS
 62
1
 10
42469.7998046875
 20
49450.1647949219
 11
41669.7998046875
 21
49450.1647949219
  0
LINE
  8
LAY0_0
  6
CONTINUOUS
 62
5
 10
43019.3786621094
 20
44692.7154541016
 11
22554.6264648438
 21
44692.7154541016
  0
LINE
  8
LAY0_0
  6
DASHED2
 62
4
 10
40324.51171875
 20
47592.5811767578
 11
40323.7884521484
 21
47592.5750732422
  0
LINE
  8
LAY0_0
  6
CONTINUOUS
 62
3
 10
27684.6984863281
 20
48221.8231201172
 11
28004.2053222656
 21
48221.8231201172
  0
LINE
  8
LAY0_0
  6
DASHED2
 62
4
 10
40323.7884521484
 20
47592.5750732422
 11
40323.0621337891
 21
47592.5689697266
  0
LINE
  8
LAY0_0
  6
CONTINUOUS
 62
4
 10
40342.9595947266
 20
47292.7154541016
 11
43019.3786621094
 21
47292.7154541016
  0
LINE
  8
LAY0_0
  6
DASHED2
 62
4
 10
40323.0621337891
 20
47592.5689697266
 11
27687.3992919922
 21
47493.3197021484
  0
LINE
  8
LAY0_0
  6
CONTINUOUS
 62
1
 10
20829.0008544922
 20
8121.66519165039
 11
20269.0032958984
 21
8121.66519165039
  0
LINE
  8
LAY0_0
  6
CONTINUOUS
 62
3
 10
4724.54681396484
 20
47954.9987792969
 11
6607.87963867188
 21
47954.9987792969
  0
LINE
  8
LAY0_0
  6
CONTINUOUS
 62
3
 10
3880.58624267578
 20
49506.4758300781
 11
3560.24017333984
 21
49506.4758300781
  0
LINE
  8
LAY0_0
  6
CONTINUOUS
 62
3
 10
3899.46670532227
 20
49487.2497558594
 11
4201.67388916016
 21
49487.2497558594
  0
LINE
  8
LAY0_0
  6
CONTINUOUS
 62
3
 10
7283.0810546875
 20
35919.6655273438
 11
7446.11511230469
 21
35763.3911132813
  0
LINE
  8
LAY0_0
  6
CONTINUOUS
 62
3
 10
14142.0516967773
 20
50740.6005859375
 11
14983.3755493164
 21
50740.6005859375
  0
LINE
  8
LAY0_0
  6
CONTINUOUS
 62
3
 10
8340.85540771484
 20
50077.8015136719
 11
13367.8482055664
 21
50077.8015136719
  0
LINE
  8
LAY0_0
  6
CONTINUOUS
 62
3
 10
4809.06066894531
 20
47703.5766601563
 11
4201.67388916016
 21
49487.2497558594
  0
LINE
  8
LAY0_0
  6
CONTINUOUS
 62
3
 10
12312.0086669922
 20
52686.3708496094
 11
14344.6166992188
 21
52686.3708496094
  0
LINE
  8
LAY0_0
  6
CONTINUOUS
 62
5
 10
3510.74981689453
 20
44700.6744384766
 11
21459.9792480469
 21
44693.8354492188
  0
LINE
  8
LAY0_0
  6
CONTINUOUS
 62
1
 10
5679.4189453125
 20
47774.9969482422
 11
5619.41833496094
 21
47774.9969482422
  0
LINE
  8
LAY0_0
  6
CONTINUOUS
 62
3
 10
3899.46670532227
 20
49487.2497558594
 11
3880.58624267578
 21
49506.4758300781
  0
LINE
  8
LAY0_0
  6
CONTINUOUS
 62
3
 10
16698.0316162109
 20
49925.634765625
 11
16598.0102539063
 21
49925.6713867188
  0
LINE
  8
LAY0_0
  6
CONTINUOUS
 62
1
 10
18998.53515625
 20
49245.9808349609
 11
18898.53515625
 21
49245.9808349609
  0
LINE
  8
LAY0_0
  6
CONTINUOUS
 62
3
 10
11499.9389648438
 20
34512.4389648438
 11
11549.9389648438
 21
34562.4389648438
  0
LINE
  8
LAY0_0
  6
CONTINUOUS
 62
3
 10
7597.36328125
 20
35919.6655273438
 11
7283.0810546875
 21
35919.6655273438
  0
LINE
  8
LAY0_0
  6
CONTINUOUS
 62
3
 10
19564.8956298828
 20
35915.8813476563
 11
19250.6134033203
 21
35915.8813476563
  0
LINE
  8
LAY0_0
  6
CONTINUOUS
 62
3
 10
19564.8956298828
 20
35915.8813476563
 11
19413.6474609375
 21
35759.6069335938
  0
LINE
  8
LAY0_0
  6
CONTINUOUS
 62
1
 10
19470.60546875
 20
35461.5447998047
 11
19370.60546875
 21
35461.5447998047
  0
LINE
  8
LAY0_0
  6
CONTINUOUS
 62
3
 10
11549.9389648438
 20
36139.4683837891
 11
11449.9389648438
 21
36139.4683837891
  0
LINE
  8
LAY0_0
  6
CONTINUOUS
 62
1
 10
19570.60546875
 20
35561.5447998047
 11
19270.60546875
 21
35561.5447998047
  0
LINE
  8
LAY0_0
  6
CONTINUOUS
 62
3
 10
7034.16442871094
 20
49480.224609375
 11
7507.68890380859
 21
49480.224609375
  0
LINE
  8
LAY0_0
  6
CONTINUOUS
 62
3
 10
6537.35809326172
 20
47703.5766601563
 11
4809.06066894531
 21
47703.5766601563
  0
LINE
  8
LAY0_0
  6
CONTINUOUS
 62
4
 10
16647.4685668945
 20
48475.6530761719
 11
16598.0316162109
 21
48525.1159667969
  0
LINE
  8
LAY0_0
  6
CONTINUOUS
 62
4
 10
16698.0316162109
 20
48526.1688232422
 11
16698.0316162109
 21
49925.634765625
  0
LINE
  8
LAY0_0
  6
CONTINUOUS
 62
4
 10
16698.0316162109
 20
48526.1688232422
 11
16647.4685668945
 21
48475.6530761719
  0
LINE
  8
LAY0_0
  6
CONTINUOUS
 62
3
 10
11812.8204345703
 20
54700.9155273438
 11
14855.3131103516
 21
54700.9155273438
  0
LINE
  8
LAY0_0
  6
CONTINUOUS
 62
5
 10
61396.2524414063
 20
50698.1323242188
 11
60900.48828125
 21
50698.1323242188
  0
LINE
  8
LAY0_0
  6
CONTINUOUS
 62
5
 10
62396.2524414063
 20
50698.1323242188
 11
62904.2419433594
 21
50698.1323242188
  0
LINE
  8
LAY0_0
  6
CONTINUOUS
 62
1
 10
7856.11267089844
 20
35661.9201660156
 11
7056.11267089844
 21
35661.9201660156
  0
LINE
  8
LAY0_0
  6
CONTINUOUS
 62
1
 10
7606.11267089844
 20
35561.9201660156
 11
7306.11267089844
 21
35561.9201660156
  0
LINE
  8
LAY0_0
  6
CONTINUOUS
 62
3
 10
15363.7786865234
 20
36145.0531005859
 11
15463.8031005859
 21
36145.0531005859
  0
LINE
  8
LAY0_0
  6
CONTINUOUS
 62
1
 10
5889.41802978516
 20
47894.9951171875
 11
5409.41925048828
 21
47894.9951171875
  0
LINE
  8
LAY0_0
  6
CONTINUOUS
 62
3
 10
8340.85540771484
 20
50077.8015136719
 11
7507.68890380859
 21
49480.224609375
  0
LINE
  8
LAY0_0
  6
CONTINUOUS
 62
4
 10
15463.8031005859
 20
34745.0531005859
 11
15413.7908935547
 21
34695.0531005859
  0
LINE
  8
LAY0_0
  6
CONTINUOUS
 62
4
 10
16598.0316162109
 20
48525.1159667969
 11
16598.0316162109
 21
49925.634765625
  0
LINE
  8
LAY0_0
  6
CONTINUOUS
 62
3
 10
15363.7786865234
 20
36145.0531005859
 11
14573.2482910156
 21
36362.9577636719
  0
LINE
  8
LAY0_0
  6
CONTINUOUS
 62
3
 10
14573.2482910156
 20
36362.9577636719
 11
11920.7092285156
 21
36362.9577636719
  0
LINE
  8
LAY0_0
  6
CONTINUOUS
 62
3
 10
11920.7092285156
 20
36362.9577636719
 11
11549.9389648438
 21
36139.4683837891
  0
LINE
  8
LAY0_0
  6
CONTINUOUS
 62
3
 10
23867.9748535156
 20
34847.4822998047
 11
15458.447265625
 21
34977.3010253906
  0
LINE
  8
LAY0_0
  6
CONTINUOUS
 62
1
 10
26793.0633544922
 20
7992.57965087891
 11
26723.0621337891
 21
7992.57965087891
  0
LINE
  8
LAY0_0
  6
CONTINUOUS
 62
1
 10
26863.0615234375
 20
8062.58087158203
 11
26653.0639648438
 21
8062.58087158203
  0
LINE
  8
LAY0_0
  6
CONTINUOUS
 62
3
 10
26595.0286865234
 20
8357.65686035156
 11
26758.0627441406
 21
8201.38397216797
  0
LINE
  8
LAY0_0
  6
CONTINUOUS
 62
3
 10
36293.6309814453
 20
9785.71166992188
 11
38185.1531982422
 21
10209.8114013672
  0
LINE
  8
LAY0_0
  6
CONTINUOUS
 62
3
 10
33951.7974853516
 20
9769.90051269531
 11
36293.6309814453
 21
9785.71166992188
  0
LINE
  8
LAY0_0
  6
CONTINUOUS
 62
1
 10
29289.5690917969
 20
8568.30902099609
 11
30222.6287841797
 21
8636.41967773438
  0
LINE
  8
LAY0_0
  6
CONTINUOUS
 62
3
 10
17007.1807861328
 20
7121.66519165039
 11
16957.1807861328
 21
7171.66519165039
  0
LINE
  8
LAY0_0
  6
CONTINUOUS
 62
1
 10
25023.5198974609
 20
8188.30871582031
 11
29189.5690917969
 21
8188.30871582031
  0
LINE
  8
LAY0_0
  6
CONTINUOUS
 62
3
 10
29189.5690917969
 20
7168.30902099609
 11
29189.5690917969
 21
8568.30902099609
  0
LINE
  8
LAY0_0
  6
CONTINUOUS
 62
3
 10
29289.5690917969
 20
7168.30902099609
 11
29289.5690917969
 21
8568.30902099609
  0
LINE
  8
LAY0_0
  6
CONTINUOUS
 62
3
 10
10918.6637878418
 20
10052.0393371582
 11
3140.09017944336
 21
10052.0393371582
  0
LINE
  8
LAY0_0
  6
CONTINUOUS
 62
3
 10
30222.6287841797
 20
8636.41967773438
 11
31271.5850830078
 21
9331.71691894531
  0
LINE
  8
LAY0_0
  6
CONTINUOUS
 62
3
 10
19533.7799072266
 20
7775.66452026367
 11
17052.6458740234
 21
7775.66452026367
  0
LINE
  8
LAY0_0
  6
CONTINUOUS
 62
3
 10
16957.1807861328
 20
8571.66519165039
 11
14947.8973388672
 21
9699.26681518555
  0
LINE
  8
LAY0_0
  6
CONTINUOUS
 62
1
 10
20654.0008544922
 20
8051.66397094727
 11
20444.0032958984
 21
8051.66397094727
  0
LINE
  8
LAY0_0
  6
CONTINUOUS
 62
4
 10
29289.5690917969
 20
7168.30902099609
 11
29239.5690917969
 21
7118.30902099609
  0
LINE
  8
LAY0_0
  6
CONTINUOUS
 62
3
 10
29188.6413574219
 20
7759.02862548828
 11
25022.9110717773
 21
7759.02862548828
  0
LINE
  8
LAY0_0
  6
CONTINUOUS
 62
3
 10
31271.5850830078
 20
9331.71691894531
 11
33951.7974853516
 21
9769.90051269531
  0
LINE
  8
LAY0_0
  6
CONTINUOUS
 62
3
 10
38185.1531982422
 20
10209.8114013672
 11
42815.0695800781
 21
10209.8114013672
  0
LINE
  8
LAY0_0
  6
CONTINUOUS
 62
4
 10
29239.5690917969
 20
7118.30902099609
 11
29189.5690917969
 21
7168.30902099609
  0
LINE
  8
LAY0_0
  6
CONTINUOUS
 62
4
 10
15363.8031005859
 20
34745.0286865234
 11
15363.8031005859
 21
36145.0531005859
  0
LINE
  8
LAY0_0
  6
CONTINUOUS
 62
4
 10
15413.7908935547
 20
34695.0531005859
 11
15363.8031005859
 21
34745.0286865234
  0
LINE
  8
LAY0_0
  6
CONTINUOUS
 62
4
 10
15463.8031005859
 20
34745.0531005859
 11
15463.8031005859
 21
36145.0531005859
  0
LINE
  8
LAY0_0
  6
CONTINUOUS
 62
3
 10
7597.36328125
 20
35919.6655273438
 11
7446.11511230469
 21
35763.3911132813
  0
LINE
  8
LAY0_0
  6
CONTINUOUS
 62
3
 10
11449.9389648438
 20
36139.4683837891
 11
11449.9389648438
 21
34562.4389648438
  0
LINE
  8
LAY0_0
  6
CONTINUOUS
 62
1
 10
7506.11267089844
 20
35461.9201660156
 11
7406.11267089844
 21
35461.9201660156
  0
LINE
  8
LAY0_0
  6
CONTINUOUS
 62
1
 10
4850.75378417969
 20
35759.7351074219
 11
11449.9389648438
 21
35759.7351074219
  0
LINE
  8
LAY0_0
  6
CONTINUOUS
 62
3
 10
11499.9389648438
 20
34512.4389648438
 11
11449.9389648438
 21
34562.4389648438
  0
LINE
  8
LAY0_0
  6
CONTINUOUS
 62
5
 10
4850.75378417969
 20
30909.7351074219
 11
23868.9086914063
 21
30909.7351074219
  0
LINE
  8
LAY0_0
  6
CONTINUOUS
 62
3
 10
19250.6134033203
 20
35915.8813476563
 11
19413.6474609375
 21
35759.6069335938
  0
LINE
  8
LAY0_0
  6
CONTINUOUS
 62
3
 10
33616.9891357422
 20
11338.3087158203
 11
35649.5971679688
 21
11338.3087158203
  0
LINE
  8
LAY0_0
  6
CONTINUOUS
 62
3
 10
33117.8009033203
 20
13352.8472900391
 11
36160.2935791016
 21
13352.8472900391
  0
LINE
  8
LAY0_0
  6
CONTINUOUS
 62
1
 10
27038.0645751953
 20
8132.58056640625
 11
26478.0639648438
 21
8132.58056640625
  0
LINE
  8
LAY0_0
  6
CONTINUOUS
 62
3
 10
16957.1807861328
 20
8571.66519165039
 11
16957.1807861328
 21
7171.66519165039
  0
LINE
  8
LAY0_0
  6
CONTINUOUS
 62
3
 10
20693.7774658203
 20
8347.89810180664
 11
20542.529296875
 21
8191.62521362305
  0
LINE
  8
LAY0_0
  6
CONTINUOUS
 62
5
 10
25023.5198974609
 20
3338.30871582031
 11
42660.4797363281
 21
3338.30871582031
  0
LINE
  8
LAY0_0
  6
CONTINUOUS
 62
1
 10
19820.60546875
 20
35661.5447998047
 11
19020.60546875
 21
35661.5447998047
  0
LINE
  8
LAY0_0
  6
CONTINUOUS
 62
3
 10
26909.3109130859
 20
8357.65686035156
 11
26595.0286865234
 21
8357.65686035156
  0
LINE
  8
LAY0_0
  6
CONTINUOUS
 62
1
 10
29289.5690917969
 20
8568.30902099609
 11
29189.5690917969
 21
8568.30902099609
  0
LINE
  8
LAY0_0
  6
CONTINUOUS
 62
3
 10
26909.3109130859
 20
8357.65686035156
 11
26758.0627441406
 21
8201.38397216797
  0
LINE
  8
LAY0_0
  6
CONTINUOUS
 62
1
 10
52882.7514648438
 20
48198.1384277344
 11
52882.7514648438
 21
46748.1323242188
  0
LINE
  8
LAY0_0
  6
CONTINUOUS
 62
1
 10
52882.7514648438
 20
46748.1323242188
 11
54396.2524414063
 21
46658.1359863281
  0
LINE
  8
LAY0_0
  6
CONTINUOUS
 62
1
 10
50979.2510986328
 20
48798.1353759766
 11
52882.7514648438
 21
48198.1384277344
  0
LINE
  8
LAY0_0
  6
CONTINUOUS
 62
3
 10
60540.6005859375
 20
47614.9566650391
 11
60383.4594726563
 21
47614.9566650391
  0
LINE
  8
LAY0_0
  6
CONTINUOUS
 62
3
 10
60540.6005859375
 20
47614.9566650391
 11
60464.9780273438
 21
47458.6853027344
  0
LINE
  8
LAY0_0
  6
CONTINUOUS
 62
1
 10
69396.2524414063
 20
46978.1372070313
 11
72188.2568359375
 21
47198.1384277344
  0
LINE
  8
LAY0_0
  6
CONTINUOUS
 62
1
 10
72188.2568359375
 20
47198.1384277344
 11
72188.2568359375
 21
48998.1323242188
  0
LINE
  8
LAY0_0
  6
CONTINUOUS
 62
1
 10
64396.2524414063
 20
46888.1317138672
 11
69396.2524414063
 21
46978.1372070313
  0
LINE
  8
LAY0_0
  6
CONTINUOUS
 62
1
 10
54396.2524414063
 20
46658.1359863281
 11
59396.2524414063
 21
46798.1353759766
  0
LINE
  8
LAY0_0
  6
CONTINUOUS
 62
1
 10
59396.2524414063
 20
46798.1353759766
 11
64396.2524414063
 21
46888.1317138672
  0
LINE
  8
LAY0_0
  6
CONTINUOUS
 62
1
 10
50888.7573242188
 20
9037.93640136719
 11
50888.7573242188
 21
7637.93640136719
  0
LINE
  8
LAY0_0
  6
CONTINUOUS
 62
1
 10
49923.2543945313
 20
9037.93640136719
 11
50888.7573242188
 21
9037.93640136719
  0
LINE
  8
LAY0_0
  6
DASHED1
 62
3
 10
61494.7570800781
 20
7437.93640136719
 11
64312.7563476563
 21
7337.939453125
  0
LINE
  8
LAY0_0
  6
CONTINUOUS
 62
1
 10
59327.7587890625
 20
7497.93395996094
 11
61494.7570800781
 21
7437.93640136719
  0
LINE
  8
LAY0_0
  6
DASHED1
 62
3
 10
64312.7563476563
 20
7337.939453125
 11
69328.7536621094
 21
7207.9345703125
  0
LINE
  8
LAY0_0
  6
CONTINUOUS
 62
1
 10
60496.4599609375
 20
47158.6853027344
 11
60446.4599609375
 21
47158.6853027344
  0
LINE
  8
LAY0_0
  6
CONTINUOUS
 62
1
 10
60546.4599609375
 20
47258.6853027344
 11
60396.4599609375
 21
47258.6853027344
  0
LINE
  8
LAY0_0
  6
CONTINUOUS
 62
1
 10
60671.4599609375
 20
47358.6853027344
 11
60271.4599609375
 21
47358.6853027344
  0
LINE
  8
LAY0_0
  6
CONTINUOUS
 62
5
 10
62396.2524414063
 20
50698.1323242188
 11
61396.2524414063
 21
50698.1323242188
  0
LINE
  8
LAY0_0
  6
CONTINUOUS
 62
3
 10
60383.4594726563
 20
47614.9566650391
 11
60464.9780273438
 21
47458.6853027344
  0
LINE
  8
LAY0_0
  6
CONTINUOUS
 62
5
 10
50426.3610839844
 20
30909.1125488281
 11
74396.8627929688
 21
30909.1125488281
  0
LINE
  8
LAY0_0
  6
CONTINUOUS
 62
1
 10
71984.3627929688
 20
35409.1125488281
 11
71984.3627929688
 21
36909.1125488281
  0
LINE
  8
LAY0_0
  6
CENTER
 62
5
 10
74396.8627929688
 20
33909.1125488281
 11
74396.8627929688
 21
39909.1125488281
  0
LINE
  8
LAY0_0
  6
CONTINUOUS
 62
1
 10
71984.3627929688
 20
36909.1125488281
 11
74396.8627929688
 21
36909.1125488281
  0
LINE
  8
LAY0_0
  6
CONTINUOUS
 62
5
 10
50979.2510986328
 20
42698.1323242188
 11
74397.75390625
 21
42698.1323242188
  0
LINE
  8
LAY0_0
  6
CONTINUOUS
 62
4
 10
52874.7863769531
 20
47458.1329345703
 11
72181.4575195313
 21
47458.1329345703
  0
LINE
  8
LAY0_0
  6
CENTER
 62
5
 10
74397.75390625
 20
51998.1323242188
 11
74397.75390625
 21
47998.1323242188
  0
LINE
  8
LAY0_0
  6
CONTINUOUS
 62
1
 10
72188.2568359375
 20
48998.1323242188
 11
74397.75390625
 21
48998.1323242188
  0
LINE
  8
LAY0_0
  6
CENTER
 62
5
 10
50979.2510986328
 20
47798.1353759766
 11
50979.2510986328
 21
51798.1323242188
  0
LINE
  8
LAY0_0
  6
CONTINUOUS
 62
1
 10
61494.7570800781
 20
7437.93640136719
 11
64313.2568359375
 21
7337.939453125
  0
LINE
  8
LAY0_0
  6
CONTINUOUS
 62
3
 10
71647.2595214844
 20
8697.94006347656
 11
71522.2595214844
 21
8447.94006347656
  0
LINE
  8
LAY0_0
  6
DASHED1
 62
4
 10
69328.7536621094
 20
7207.9345703125
 11
71522.2595214844
 21
7137.93640136719
  0
LINE
  8
LAY0_0
  6
CONTINUOUS
 62
1
 10
76552.8747558594
 20
5590.2515411377
 11
76552.8747558594
 21
5038.16719055176
  0
LINE
  8
LAY0_0
  6
CONTINUOUS
 62
1
 10
73042.4682617188
 20
5038.16719055176
 11
80323.7182617188
 21
5038.16719055176
  0
LINE
  8
LAY0_0
  6
CONTINUOUS
 62
1
 10
74594.5434570313
 20
6715.25421142578
 11
74594.5434570313
 21
3350.66680908203
  0
LINE
  8
LAY0_0
  6
CONTINUOUS
 62
1
 10
69326.7578125
 20
7177.93579101563
 11
71522.2595214844
 21
7137.93640136719
  0
LINE
  8
LAY0_0
  6
DASHED1
 62
4
 10
54399.755859375
 20
7797.94006347656
 11
50888.7573242188
 21
7637.93640136719
  0
LINE
  8
LAY0_0
  6
CONTINUOUS
 62
1
 10
71522.2595214844
 20
8447.94006347656
 11
71522.2595214844
 21
7137.93640136719
  0
LINE
  8
LAY0_0
  6
CENTER
 62
5
 10
49923.2543945313
 20
8037.93640136719
 11
49923.2543945313
 21
11037.9348754883
  0
LINE
  8
LAY0_0
  6
CENTER
 62
5
 10
72755.7556152344
 20
10697.9385375977
 11
72755.7556152344
 21
7697.94006347656
  0
LINE
  8
LAY0_0
  6
CONTINUOUS
 62
1
 10
73042.4682617188
 20
6152.7530670166
 11
80323.7182617188
 21
6152.7530670166
  0
LINE
  8
LAY0_0
  6
CONTINUOUS
 62
1
 10
80323.7182617188
 20
6715.25421142578
 11
80323.7182617188
 21
3350.66680908203
  0
LINE
  8
LAY0_0
  6
CONTINUOUS
 62
1
 10
73042.4682617188
 20
4475.67024230957
 11
80323.7182617188
 21
4475.67024230957
  0
LINE
  8
LAY0_0
  6
CONTINUOUS
 62
1
 10
73042.4682617188
 20
5590.2515411377
 11
80323.7182617188
 21
5590.2515411377
  0
LINE
  8
LAY0_0
  6
CONTINUOUS
 62
1
 10
73042.4682617188
 20
6715.25421142578
 11
80323.7182617188
 21
6715.25421142578
  0
LINE
  8
LAY0_0
  6
CONTINUOUS
 62
1
 10
73042.4682617188
 20
6715.25421142578
 11
73042.4682617188
 21
3350.66680908203
  0
LINE
  8
LAY0_0
  6
CONTINUOUS
 62
1
 10
73042.4682617188
 20
3913.16871643066
 11
80323.7182617188
 21
3913.16871643066
  0
LINE
  8
LAY0_0
  6
CONTINUOUS
 62
1
 10
78438.3056640625
 20
5590.2515411377
 11
78438.3056640625
 21
5038.16719055176
  0
LINE
  8
LAY0_0
  6
CONTINUOUS
 62
1
 10
73042.4682617188
 20
3350.66680908203
 11
80323.7182617188
 21
3350.66680908203
  0
LINE
  8
LAY0_0
  6
DASHED1
 62
3
 10
54399.755859375
 20
7797.94006347656
 11
59322.2595214844
 21
7497.93395996094
  0
LINE
  8
LAY0_0
  6
CONTINUOUS
 62
1
 10
60499.9694824219
 20
7798.49243164063
 11
60449.9694824219
 21
7798.49243164063
  0
LINE
  8
LAY0_0
  6
DASHED1
 62
3
 10
59322.2595214844
 20
7497.93395996094
 11
61494.7570800781
 21
7437.93640136719
  0
LINE
  8
LAY0_0
  6
CONTINUOUS
 62
3
 10
60386.962890625
 20
8254.76379394531
 11
60468.4814453125
 21
8098.49243164063
  0
LINE
  8
LAY0_0
  6
CONTINUOUS
 62
1
 10
60674.9694824219
 20
7998.49243164063
 11
60274.9694824219
 21
7998.49243164063
  0
LINE
  8
LAY0_0
  6
CONTINUOUS
 62
1
 10
54399.755859375
 20
7717.93518066406
 11
59327.7587890625
 21
7497.93395996094
  0
LINE
  8
LAY0_0
  6
CONTINUOUS
 62
1
 10
50888.7573242188
 20
7637.93640136719
 11
54399.755859375
 21
7717.93518066406
  0
LINE
  8
LAY0_0
  6
CONTINUOUS
 62
3
 10
60544.1040039063
 20
8254.76379394531
 11
60468.4814453125
 21
8098.49243164063
  0
LINE
  8
LAY0_0
  6
CONTINUOUS
 62
1
 10
60549.9694824219
 20
7898.49243164063
 11
60399.9694824219
 21
7898.49243164063
  0
LINE
  8
LAY0_0
  6
CONTINUOUS
 62
3
 10
60544.1040039063
 20
8254.76379394531
 11
60386.962890625
 21
8254.76379394531
  0
LINE
  8
LAY0_0
  6
CONTINUOUS
 62
4
 10
50888.9526367188
 20
8097.94006347656
 11
71521.7468261719
 21
8097.94006347656
  0
LINE
  8
LAY0_0
  6
CONTINUOUS
 62
1
 10
71647.2595214844
 20
8697.94006347656
 11
72755.7556152344
 21
8697.94006347656
  0
LINE
  8
LAY0_0
  6
CONTINUOUS
 62
5
 10
62901.8188476563
 20
11337.9379272461
 11
60895.4223632813
 21
11337.9379272461
  0
LINE
  8
LAY0_0
  6
CONTINUOUS
 62
1
 10
64313.2568359375
 20
7337.939453125
 11
69326.7578125
 21
7177.93579101563
  0
LINE
  8
LAY0_0
  6
CONTINUOUS
 62
5
 10
49923.2543945313
 20
3337.93830871582
 11
72755.7556152344
 21
3337.93830871582
  0
LINE
  8
LAY0_0
  6
CENTER
 62
5
 10
50426.3610839844
 20
35139.1143798828
 11
50426.3610839844
 21
39139.1143798828
  0
LINE
  8
LAY0_0
  6
CONTINUOUS
 62
3
 10
25889.1448974609
 20
47607.0404052734
 11
25783.2733154297
 21
47497.6501464844
  0
LINE
  8
LAY0_0
  6
CONTINUOUS
 62
1
 10
25825.2685546875
 20
47286.6180419922
 11
25755.2673339844
 21
47286.6180419922
  0
LINE
  8
LAY0_0
  6
CONTINUOUS
 62
3
 10
25669.1497802734
 20
47607.0404052734
 11
25783.2733154297
 21
47497.6501464844
  0
LINE
  8
LAY0_0
  6
CONTINUOUS
 62
1
 10
26070.2697753906
 20
47426.6174316406
 11
25510.2691650391
 21
47426.6174316406
  0
LINE
  8
LAY0_0
  6
CONTINUOUS
 62
3
 10
38738.4582519531
 20
34740.0268554688
 11
38690.2130126953
 21
34688.2720947266
  0
LINE
  8
LAY0_0
  6
CONTINUOUS
 62
1
 10
42030.9020996094
 20
35690.9942626953
 11
41470.9014892578
 21
35690.9942626953
  0
LINE
  8
LAY0_0
  6
CONTINUOUS
 62
3
 10
38740.6799316406
 20
34999.5300292969
 11
42879.1351318359
 21
34999.5300292969
  0
LINE
  8
LAY0_0
  6
CONTINUOUS
 62
3
 10
38638.4582519531
 20
36140.0268554688
 11
38234.5642089844
 21
36140.0268554688
  0
LINE
  8
LAY0_0
  6
CONTINUOUS
 62
3
 10
24600.6469726563
 20
37141.5863037109
 11
36538.4216308594
 21
37141.5863037109
  0
LINE
  8
LAY0_0
  6
CONTINUOUS
 62
3
 10
38638.4582519531
 20
34740.0268554688
 11
38638.4582519531
 21
36140.0268554688
  0
LINE
  8
LAY0_0
  6
CONTINUOUS
 62
1
 10
53736.7553710938
 20
22775.5462646484
 11
53736.7553710938
 21
21675.5401611328
  0
LINE
  8
LAY0_0
  6
CONTINUOUS
 62
1
 10
53736.7553710938
 20
21675.5401611328
 11
56896.2524414063
 21
21485.546875
  0
LINE
  8
LAY0_0
  6
CONTINUOUS
 62
1
 10
61366.5771484375
 20
21591.5954589844
 11
61316.5771484375
 21
21591.5954589844
  0
LINE
  8
LAY0_0
  6
CONTINUOUS
 62
3
 10
61253.5766601563
 20
22047.8668212891
 11
61335.0952148438
 21
21891.5954589844
  0
LINE
  8
LAY0_0
  6
CONTINUOUS
 62
1
 10
61541.5771484375
 20
21791.5954589844
 11
61141.5771484375
 21
21791.5954589844
  0
LINE
  8
LAY0_0
  6
CONTINUOUS
 62
1
 10
51900.2563476563
 20
23225.5462646484
 11
53736.7553710938
 21
22775.5462646484
  0
LINE
  8
LAY0_0
  6
CONTINUOUS
 62
1
 10
25895.2697753906
 20
47356.6192626953
 11
25685.2691650391
 21
47356.6192626953
  0
LINE
  8
LAY0_0
  6
CONTINUOUS
 62
5
 10
60897.2961425781
 20
25125.5432128906
 11
62881.5612792969
 21
25125.5432128906
  0
LINE
  8
LAY0_0
  6
CONTINUOUS
 62
1
 10
56896.2524414063
 20
21485.546875
 11
61896.2524414063
 21
21335.5438232422
  0
LINE
  8
LAY0_0
  6
CONTINUOUS
 62
5
 10
62396.2524414063
 20
25125.5432128906
 11
61396.2524414063
 21
25125.5432128906
  0
LINE
  8
LAY0_0
  6
CONTINUOUS
 62
3
 10
41902.1484375
 20
35916.0705566406
 11
41587.8662109375
 21
35916.0705566406
  0
LINE
  8
LAY0_0
  6
CONTINUOUS
 62
3
 10
5655.94940185547
 20
47960.8520507813
 11
5807.19757080078
 21
48117.1264648438
  0
LINE
  8
LAY0_0
  6
CONTINUOUS
 62
3
 10
33614.4592285156
 20
52692.7185058594
 11
35647.0672607422
 21
52692.7185058594
  0
LINE
  8
LAY0_0
  6
CONTINUOUS
 62
4
 10
36538.4216308594
 20
37141.5863037109
 11
38234.5642089844
 21
36140.0268554688
  0
LINE
  8
LAY0_0
  6
CONTINUOUS
 62
3
 10
33115.2709960938
 20
54707.2570800781
 11
36157.763671875
 21
54707.2570800781
  0
LINE
  8
LAY0_0
  6
CONTINUOUS
 62
3
 10
7034.16442871094
 20
49480.224609375
 11
6537.35809326172
 21
47703.5766601563
  0
LINE
  8
LAY0_0
  6
CONTINUOUS
 62
3
 10
16155.4946899414
 20
50085.7238769531
 11
16598.0102539063
 21
49925.6713867188
  0
LINE
  8
LAY0_0
  6
CONTINUOUS
 62
3
 10
14142.0516967773
 20
50740.6005859375
 11
13367.8482055664
 21
50077.8015136719
  0
LINE
  8
LAY0_0
  6
CONTINUOUS
 62
1
 10
19098.53515625
 20
49345.9808349609
 11
18798.53515625
 21
49345.9808349609
  0
LINE
  8
LAY0_0
  6
CONTINUOUS
 62
3
 10
33616.9891357422
 20
38910.0280761719
 11
35649.5971679688
 21
38910.0280761719
  0
LINE
  8
LAY0_0
  6
CONTINUOUS
 62
3
 10
33117.8009033203
 20
40924.5666503906
 11
36160.2935791016
 21
40924.5666503906
  0
LINE
  8
LAY0_0
  6
CONTINUOUS
 62
3
 10
25889.1448974609
 20
47607.0404052734
 11
25669.1497802734
 21
47607.0404052734
  0
LINE
  8
LAY0_0
  6
CONTINUOUS
 62
3
 10
38690.2130126953
 20
34688.2720947266
 11
38638.4582519531
 21
34740.0268554688
  0
LINE
  8
LAY0_0
  6
CONTINUOUS
 62
3
 10
38738.4582519531
 20
34740.0268554688
 11
38738.4582519531
 21
36140.0268554688
  0
LINE
  8
LAY0_0
  6
CONTINUOUS
 62
3
 10
41902.1484375
 20
35916.0705566406
 11
41750.9002685547
 21
35759.7961425781
  0
LINE
  8
LAY0_0
  6
CONTINUOUS
 62
1
 10
19702.6000976563
 20
21903.8726806641
 11
19142.6025390625
 21
21903.8726806641
  0
LINE
  8
LAY0_0
  6
CONTINUOUS
 62
3
 10
38738.4582519531
 20
36140.0268554688
 11
38638.4582519531
 21
36140.0268554688
  0
LINE
  8
LAY0_0
  6
CONTINUOUS
 62
3
 10
19581.2683105469
 20
22143.5302734375
 11
19266.9860839844
 21
22143.5302734375
  0
LINE
  8
LAY0_0
  6
CONTINUOUS
 62
3
 10
61410.7177734375
 20
22047.8668212891
 11
61335.0952148438
 21
21891.5954589844
  0
LINE
  8
LAY0_0
  6
CONTINUOUS
 62
3
 10
60379.0771484375
 20
35825.9368896484
 11
60460.5895996094
 21
35669.6655273438
  0
LINE
  8
LAY0_0
  6
CONTINUOUS
 62
5
 10
62875.7263183594
 20
38909.1125488281
 11
60885.2905273438
 21
38909.1125488281
  0
LINE
  8
LAY0_0
  6
CONTINUOUS
 62
3
 10
60536.2182617188
 20
35825.9368896484
 11
60460.5895996094
 21
35669.6655273438
  0
LINE
  8
LAY0_0
  6
CONTINUOUS
 62
1
 10
60542.0776367188
 20
35469.6655273438
 11
60392.0776367188
 21
35469.6655273438
  0
LINE
  8
LAY0_0
  6
DASHED1
 62
3
 10
54391.8579101563
 20
34819.1131591797
 11
59391.8579101563
 21
34829.1076660156
  0
LINE
  8
LAY0_0
  6
CONTINUOUS
 62
1
 10
59391.8579101563
 20
34829.1168212891
 11
64391.8579101563
 21
34959.1156005859
  0
LINE
  8
LAY0_0
  6
CONTINUOUS
 62
1
 10
54391.8579101563
 20
34819.1162109375
 11
59391.8579101563
 21
34829.1168212891
  0
LINE
  8
LAY0_0
  6
DASHED1
 62
3
 10
59391.8579101563
 20
34829.1076660156
 11
64391.8579101563
 21
34969.1070556641
  0
LINE
  8
LAY0_0
  6
CONTINUOUS
 62
1
 10
60492.0776367188
 20
35369.6655273438
 11
60442.0776367188
 21
35369.6655273438
  0
LINE
  8
LAY0_0
  6
CONTINUOUS
 62
1
 10
60667.0776367188
 20
35569.6655273438
 11
60267.0776367188
 21
35569.6655273438
  0
LINE
  8
LAY0_0
  6
DASHED2
 62
4
 10
51477.3559570313
 20
35939.1143798828
 11
51936.376953125
 21
35939.1143798828
  0
LINE
  8
LAY0_0
  6
DASHED2
 62
4
 10
51936.376953125
 20
36139.1143798828
 11
51936.376953125
 21
35939.1143798828
  0
LINE
  8
LAY0_0
  6
DASHED1
 62
4
 10
69391.8579101563
 20
35069.1131591797
 11
69655.8959960938
 21
35069.1131591797
  0
LINE
  8
LAY0_0
  6
CONTINUOUS
 62
3
 10
60536.2182617188
 20
35825.9368896484
 11
60379.0771484375
 21
35825.9368896484
  0
LINE
  8
LAY0_0
  6
DASHED2
 62
4
 10
51477.3559570313
 20
36139.1143798828
 11
51936.376953125
 21
36139.1143798828
  0
LINE
  8
LAY0_0
  6
CONTINUOUS
 62
4
 10
51478.7963867188
 20
35669.1131591797
 11
71983.9477539063
 21
35669.1131591797
  0
LINE
  8
LAY0_0
  6
CONTINUOUS
 62
1
 10
66896.2524414063
 20
21335.5438232422
 11
68691.259765625
 21
21375.5462646484
  0
LINE
  8
LAY0_0
  6
CONTINUOUS
 62
1
 10
68691.259765625
 20
21375.5462646484
 11
68691.259765625
 21
22355.5419921875
  0
LINE
  8
LAY0_0
  6
CONTINUOUS
 62
1
 10
61416.5771484375
 20
21691.5954589844
 11
61266.5771484375
 21
21691.5954589844
  0
LINE
  8
LAY0_0
  6
CONTINUOUS
 62
3
 10
61410.7177734375
 20
22047.8668212891
 11
61253.5766601563
 21
22047.8668212891
  0
LINE
  8
LAY0_0
  6
CONTINUOUS
 62
5
 10
51900.2563476563
 20
17125.5432128906
 11
70341.259765625
 21
17125.5432128906
  0
LINE
  8
LAY0_0
  6
CONTINUOUS
 62
4
 10
53737.6098632813
 20
21885.5438232422
 11
68681.7749023438
 21
21885.5438232422
  0
LINE
  8
LAY0_0
  6
DASHED1
 62
3
 10
64391.8579101563
 20
34969.1070556641
 11
69391.8579101563
 21
35069.1131591797
  0
LINE
  8
LAY0_0
  6
CONTINUOUS
 62
1
 10
51477.3559570313
 20
34909.1125488281
 11
54391.8579101563
 21
34819.1162109375
  0
LINE
  8
LAY0_0
  6
CONTINUOUS
 62
1
 10
50426.3610839844
 20
36139.1143798828
 11
51477.3559570313
 21
36139.1143798828
  0
LINE
  8
LAY0_0
  6
CONTINUOUS
 62
1
 10
69391.8579101563
 20
35029.1168212891
 11
71984.3627929688
 21
35409.1125488281
  0
LINE
  8
LAY0_0
  6
CONTINUOUS
 62
1
 10
64391.8579101563
 20
34959.1156005859
 11
69391.8579101563
 21
35029.1168212891
  0
LINE
  8
LAY0_0
  6
CENTER
 62
5
 10
51900.2563476563
 20
26225.5462646484
 11
51900.2563476563
 21
22225.5462646484
  0
LINE
  8
LAY0_0
  6
CONTINUOUS
 62
1
 10
61896.2524414063
 20
21335.5438232422
 11
66896.2524414063
 21
21335.5438232422
  0
LINE
  8
LAY0_0
  6
CENTER
 62
5
 10
70341.259765625
 20
25355.5419921875
 11
70341.259765625
 21
21355.5419921875
  0
LINE
  8
LAY0_0
  6
CONTINUOUS
 62
1
 10
51477.3559570313
 20
36139.1143798828
 11
51477.3559570313
 21
34909.1125488281
  0
LINE
  8
LAY0_0
  6
CONTINUOUS
 62
1
 10
68691.259765625
 20
22355.5419921875
 11
70341.259765625
 21
22355.5419921875
  0
CIRCLE
  8
LAY0_0
  6
CONTINUOUS
 62
3
 10
36606.6436767578
 20
13388.1195068359
 30
0
 40
210.252666473389
  0
CIRCLE
  8
LAY0_0
  6
CONTINUOUS
 62
3
 10
32665.6982421875
 20
13377.2369384766
 30
0
 40
211.382508277893
  0
CIRCLE
  8
LAY0_0
  6
CONTINUOUS
 62
3
 10
16327.3834228516
 20
13391.4764404297
 30
0
 40
210.252666473389
  0
CIRCLE
  8
LAY0_0
  6
CONTINUOUS
 62
3
 10
12386.4372253418
 20
13380.5938720703
 30
0
 40
211.382508277893
  0
ARC
  8
LAY0_0
  6
CONTINUOUS
 62
1
 10
6798.19793701172
 20
48747.7752685547
 30
0
 40
89.9999976158142
 50
273.848539072981
 51
54.9061319640212
  0
ARC
  8
LAY0_0
  6
CONTINUOUS
 62
1
 10
6843.84460449219
 20
48911.0137939453
 30
0
 40
89.9999976158142
 50
273.848539072981
 51
54.9061319640212
  0
ARC
  8
LAY0_0
  6
CONTINUOUS
 62
1
 10
6889.49127197266
 20
49074.2492675781
 30
0
 40
89.9999976158142
 50
273.848539072981
 51
54.9061319640212
  0
ARC
  8
LAY0_0
  6
CONTINUOUS
 62
1
 10
6623.72894287109
 20
48123.8494873047
 30
0
 40
89.9999976158142
 50
273.848539072981
 51
54.9061319640212
  0
ARC
  8
LAY0_0
  6
CONTINUOUS
 62
1
 10
6669.37561035156
 20
48287.0880126953
 30
0
 40
89.9999976158142
 50
273.848539072981
 51
54.9061319640212
  0
ARC
  8
LAY0_0
  6
CONTINUOUS
 62
1
 10
6715.02075195313
 20
48450.3265380859
 30
0
 40
89.9999976158142
 50
273.848539072981
 51
54.9061319640212
  0
ARC
  8
LAY0_0
  6
CONTINUOUS
 62
1
 10
6935.13793945313
 20
49237.4877929688
 30
0
 40
89.9999976158142
 50
273.848539072981
 51
54.9061319640212
  0
CIRCLE
  8
LAY0_0
  6
CONTINUOUS
 62
3
 10
12386.4532470703
 20
40948.6694335938
 30
0
 40
211.382508277893
  0
CIRCLE
  8
LAY0_0
  6
CONTINUOUS
 62
3
 10
16327.3986816406
 20
40959.5520019531
 30
0
 40
210.252666473389
  0
CIRCLE
  8
LAY0_0
  6
CONTINUOUS
 62
3
 10
16327.3834228516
 20
27175.3540039063
 30
0
 40
210.252666473389
  0
ARC
  8
LAY0_0
  6
CONTINUOUS
 62
1
 10
6980.78308105469
 20
49400.7263183594
 30
0
 40
89.9999976158142
 50
273.848539072981
 51
54.9061319640212
  0
CIRCLE
  8
LAY0_0
  6
CONTINUOUS
 62
3
 10
11360.7177734375
 20
54725.3051757813
 30
0
 40
211.382508277893
  0
CIRCLE
  8
LAY0_0
  6
CONTINUOUS
 62
3
 10
15301.6632080078
 20
54736.181640625
 30
0
 40
210.252666473389
  0
ARC
  8
LAY0_0
  6
CONTINUOUS
 62
1
 10
6578.08227539063
 20
47960.6109619141
 30
0
 40
89.9999976158142
 50
273.848539072981
 51
54.9061319640212
  0
ARC
  8
LAY0_0
  6
CONTINUOUS
 62
1
 10
4647.17254638672
 20
48272.0489501953
 30
0
 40
89.9999976158142
 50
128.276252839635
 51
269.333838673116
  0
ARC
  8
LAY0_0
  6
CONTINUOUS
 62
1
 10
4701.81045532227
 20
48111.5966796875
 30
0
 40
89.9999976158142
 50
128.276252839635
 51
269.333838673116
  0
ARC
  8
LAY0_0
  6
CONTINUOUS
 62
1
 10
4756.44912719727
 20
47951.1444091797
 30
0
 40
89.9999976158142
 50
128.276252839635
 51
269.333838673116
  0
ARC
  8
LAY0_0
  6
CONTINUOUS
 62
1
 10
4592.53463745117
 20
48432.5012207031
 30
0
 40
89.9999976158142
 50
128.276252839635
 51
269.333838673116
  0
ARC
  8
LAY0_0
  6
CONTINUOUS
 62
1
 10
4811.08703613281
 20
47790.6921386719
 30
0
 40
89.9999976158142
 50
128.276252839635
 51
269.333838673116
  0
ARC
  8
LAY0_0
  6
CONTINUOUS
 62
1
 10
4423.876953125
 20
48927.7893066406
 30
0
 40
89.9999976158142
 50
128.276252839635
 51
269.333838673116
  0
ARC
  8
LAY0_0
  6
CONTINUOUS
 62
1
 10
4478.51486206055
 20
48767.333984375
 30
0
 40
89.9999976158142
 50
128.276252839635
 51
269.333838673116
  0
ARC
  8
LAY0_0
  6
CONTINUOUS
 62
1
 10
6532.43560791016
 20
47797.3754882813
 30
0
 40
89.9999976158142
 50
273.848539072981
 51
54.9061319640212
  0
ARC
  8
LAY0_0
  6
CONTINUOUS
 62
1
 10
4259.96246337891
 20
49409.1430664063
 30
0
 40
89.9999976158142
 50
128.276252839635
 51
269.333838673116
  0
ARC
  8
LAY0_0
  6
CONTINUOUS
 62
1
 10
4314.60037231445
 20
49248.6938476563
 30
0
 40
89.9999976158142
 50
128.276252839635
 51
269.333838673116
  0
ARC
  8
LAY0_0
  6
CONTINUOUS
 62
1
 10
4369.23904418945
 20
49088.2385253906
 30
0
 40
89.9999976158142
 50
128.276252839635
 51
269.333838673116
  0
ARC
  8
LAY0_0
  6
CONTINUOUS
 62
1
 10
39688.7908935547
 20
49820.2972412109
 30
0
 40
60.0000023841858
 50
109.471198431838
 51
250.528797925696
  0
ARC
  8
LAY0_0
  6
CONTINUOUS
 62
1
 10
39688.7908935547
 20
49707.2967529297
 30
0
 40
60.0000023841858
 50
109.471198431838
 51
250.528797925696
  0
ARC
  8
LAY0_0
  6
CONTINUOUS
 62
1
 10
39688.7878417969
 20
49594.2962646484
 30
0
 40
60.0000023841858
 50
109.471198431838
 51
250.528797925696
  0
ARC
  8
LAY0_0
  6
CONTINUOUS
 62
1
 10
39688.7878417969
 20
48989.3585205078
 30
0
 40
60.0000023841858
 50
109.471198431838
 51
250.528797925696
  0
ARC
  8
LAY0_0
  6
CONTINUOUS
 62
1
 10
39688.7878417969
 20
48876.3580322266
 30
0
 40
60.0000023841858
 50
109.471198431838
 51
250.528797925696
  0
ARC
  8
LAY0_0
  6
CONTINUOUS
 62
1
 10
39688.7908935547
 20
49933.2946777344
 30
0
 40
60.0000023841858
 50
109.471198431838
 51
250.528797925696
  0
ARC
  8
LAY0_0
  6
CONTINUOUS
 62
1
 10
39688.7878417969
 20
49481.2957763672
 30
0
 40
60.0000023841858
 50
109.471198431838
 51
250.528797925696
  0
CIRCLE
  8
LAY0_0
  6
CONTINUOUS
 62
3
 10
32665.6982421875
 20
40948.9562988281
 30
0
 40
211.382508277893
  0
CIRCLE
  8
LAY0_0
  6
CONTINUOUS
 62
3
 10
32663.1683349609
 20
54731.6467285156
 30
0
 40
211.382508277893
  0
CIRCLE
  8
LAY0_0
  6
CONTINUOUS
 62
3
 10
36604.1137695313
 20
54742.529296875
 30
0
 40
210.252666473389
  0
CIRCLE
  8
LAY0_0
  6
CONTINUOUS
 62
3
 10
36606.6436767578
 20
40959.8388671875
 30
0
 40
210.252666473389
  0
ARC
  8
LAY0_0
  6
CONTINUOUS
 62
1
 10
39688.7908935547
 20
49102.3590087891
 30
0
 40
60.0000023841858
 50
109.471198431838
 51
250.528797925696
  0
ARC
  8
LAY0_0
  6
CONTINUOUS
 62
1
 10
40362.9608154297
 20
47861.5173339844
 30
0
 40
60.0000023841858
 50
109.471198431838
 51
250.528797925696
  0
ARC
  8
LAY0_0
  6
CONTINUOUS
 62
1
 10
40362.9577636719
 20
47748.5168457031
 30
0
 40
60.0000023841858
 50
109.471198431838
 51
250.528797925696
  0
CIRCLE
  8
LAY0_0
  6
CONTINUOUS
 62
3
 10
12386.4379882813
 20
27164.4714355469
 30
0
 40
211.382508277893
  0
ARC
  8
LAY0_0
  6
CONTINUOUS
 62
1
 10
40362.9608154297
 20
48087.5183105469
 30
0
 40
60.0000023841858
 50
109.471198431838
 51
250.528797925696
  0
ARC
  8
LAY0_0
  6
CONTINUOUS
 62
1
 10
40362.9608154297
 20
47974.5178222656
 30
0
 40
60.0000023841858
 50
109.471198431838
 51
250.528797925696
  0
ARC
  8
LAY0_0
  6
CONTINUOUS
 62
1
 10
40362.9608154297
 20
48762.8295898438
 30
0
 40
60.0000023841858
 50
109.471198431838
 51
250.528797925696
  0
ARC
  8
LAY0_0
  6
CONTINUOUS
 62
1
 10
40362.9577636719
 20
48310.8306884766
 30
0
 40
60.0000023841858
 50
109.471198431838
 51
250.528797925696
  0
ARC
  8
LAY0_0
  6
CONTINUOUS
 62
1
 10
39688.7908935547
 20
49328.3569335938
 30
0
 40
60.0000023841858
 50
109.471198431838
 51
250.528797925696
  0
ARC
  8
LAY0_0
  6
CONTINUOUS
 62
1
 10
39688.7908935547
 20
49215.3594970703
 30
0
 40
60.0000023841858
 50
109.471198431838
 51
250.528797925696
  0
ARC
  8
LAY0_0
  6
CONTINUOUS
 62
1
 10
40362.9608154297
 20
48649.8291015625
 30
0
 40
60.0000023841858
 50
109.471198431838
 51
250.528797925696
  0
ARC
  8
LAY0_0
  6
CONTINUOUS
 62
1
 10
40362.9608154297
 20
48536.8286132813
 30
0
 40
60.0000023841858
 50
109.471198431838
 51
250.528797925696
  0
ARC
  8
LAY0_0
  6
CONTINUOUS
 62
1
 10
40362.9577636719
 20
48423.828125
 30
0
 40
60.0000023841858
 50
109.471198431838
 51
250.528797925696
  0
ARC
  8
LAY0_0
  6
CONTINUOUS
 62
1
 10
40362.9577636719
 20
47635.5194091797
 30
0
 40
60.0000023841858
 50
109.471198431838
 51
250.528797925696
  0
TEXT
  8
LAY0_0
  1
T-9
 10
34338.4429931641
 20
52868.408203125
 40
300
 41
1
 50
0
  0
TEXT
  8
LAY0_0
  1
ホ
 10
32491.7846679688
 20
54533.3557128906
 40
350
 41
1
 50
0
  0
TEXT
  8
LAY0_0
  1
ハ
 10
16156.9305419922
 20
26966.1804199219
 40
350
 41
1
 50
0
  0
TEXT
  8
LAY0_0
  1
DL=　5.00
 10
24974.4445800781
 20
31088.1683349609
 40
300
 41
1
 50
0
  0
TEXT
  8
LAY0_0
  1
ホ
 10
36433.6608886719
 20
54533.3557128906
 40
350
 41
1
 50
0
  0
TEXT
  8
LAY0_0
  1
T-34
 10
34340.9729003906
 20
39085.7177734375
 40
300
 41
1
 50
0
  0
TEXT
  8
LAY0_0
  1
‘
 10
36761.9323730469
 20
13431.7901611328
 40
170
 41
1
 50
0
  0
TEXT
  8
LAY0_0
  1
ニ
 10
16156.9305419922
 20
13182.3028564453
 40
350
 41
1
 50
0
  0
TEXT
  8
LAY0_0
  1
その2
 10
16701.8432617188
 20
12962.5213623047
 40
350
 41
1
 50
0
  0
TEXT
  8
LAY0_0
  1
ロ
 10
12215.0695800781
 20
40750.3784179688
 40
350
 41
1
 50
0
  0
TEXT
  8
LAY0_0
  1
ニ
 10
12215.0535583496
 20
13182.3028564453
 40
350
 41
1
 50
0
  0
TEXT
  8
LAY0_0
  1
ヘ
 10
36436.1907958984
 20
40750.6652832031
 40
350
 41
1
 50
0
  0
TEXT
  8
LAY0_0
  1
DL=　5.00
 10
4061.376953125
 20
45105.7678222656
 40
300
 41
1
 50
0
  0
TEXT
  8
LAY0_0
  1
‘
 10
36761.9323730469
 20
41003.5095214844
 40
170
 41
1
 50
0
  0
TEXT
  8
LAY0_0
  1
イ
 10
11189.3341064453
 20
54527.0141601563
 40
350
 41
1
 50
0
  0
TEXT
  8
LAY0_0
  1
縮尺　1/100
 10
17114.8239135742
 20
54554.0344238281
 40
0
 41
1
 50
0
  0
TEXT
  8
LAY0_0
  1
大沢池
 10
19984.8083496094
 20
49697.7294921875
 40
350
 41
1
 50
0
  0
TEXT
  8
LAY0_0
  1
大沢池
 10
17540.998840332
 20
35851.5655517578
 40
350
 41
1
 50
0
  0
TEXT
  8
LAY0_0
  1
大沢池
 10
40355.8349609375
 20
49799.0173339844
 40
350
 41
1
 50
0
  0
TEXT
  8
LAY0_0
  1
放生池
 10
9149.01123046875
 20
35888.9984130859
 40
350
 41
1
 50
0
  0
TEXT
  8
LAY0_0
  1
有栖川
 10
5463.64402770996
 20
49455.8471679688
 40
350
 41
1
 50
-90.0000025044782
  0
TEXT
  8
LAY0_0
  1
縮尺　1/100
 10
38417.2760009766
 20
54560.3820800781
 40
0
 41
1
 50
0
  0
TEXT
  8
LAY0_0
  1
‘
 10
16428.2409667969
 20
40891.6748046875
 40
350
 41
1
 50
0
  0
TEXT
  8
LAY0_0
  1
T-76
 10
14061.7126464844
 20
11517.3545837402
 40
300
 41
1
 50
0
  0
TEXT
  8
LAY0_0
  1
ハ
 10
12215.0543212891
 20
26966.1804199219
 40
350
 41
1
 50
0
  0
TEXT
  8
LAY0_0
  1
縮尺　1/100
 10
18140.5578613281
 20
40777.3986816406
 40
0
 41
1
 50
0
  0
TEXT
  8
LAY0_0
  1
DL=　5.00
 10
4016.30020141602
 20
17205.3100585938
 40
300
 41
1
 50
0
  0
TEXT
  8
LAY0_0
  1
‘
 10
16482.6721191406
 20
13435.1470947266
 40
170
 41
1
 50
0
  0
TEXT
  8
LAY0_0
  1
樋門
 10
40768.2739257813
 20
47833.59375
 40
350
 41
1
 50
0
  0
TEXT
  8
LAY0_0
  1
天神島
 10
38724.6643066406
 20
10903.7368774414
 40
350
 41
1
 50
0
  0
TEXT
  8
LAY0_0
  1
ロ
 10
16156.9458007813
 20
40750.3784179688
 40
350
 41
1
 50
0
  0
TEXT
  8
LAY0_0
  1
‘
 10
15456.9534301758
 20
54779.8522949219
 40
170
 41
1
 50
0
  0
TEXT
  8
LAY0_0
  1
DL=　5.00
 10
5013.34686279297
 20
31100.4089355469
 40
300
 41
1
 50
0
  0
TEXT
  8
LAY0_0
  1
その１
 10
36981.103515625
 20
12959.1644287109
 40
350
 41
1
 50
0
  0
TEXT
  8
LAY0_0
  1
縮尺　1/100
 10
38419.8059082031
 20
13205.9722900391
 40
0
 41
1
 50
0
  0
TEXT
  8
LAY0_0
  1
DL=　5.00
 10
25175.6652832031
 20
3430.20935058594
 40
300
 41
1
 50
0
  0
TEXT
  8
LAY0_0
  1
縮尺　1/100
 10
18140.5456542969
 20
13209.3292236328
 40
0
 41
1
 50
0
  0
TEXT
  8
LAY0_0
  1
DL=　5.00
 10
3377.96173095703
 20
3516.69273376465
 40
300
 41
1
 50
0
  0
TEXT
  8
LAY0_0
  1
ニ
 10
36436.1907958984
 20
13178.9459228516
 40
350
 41
1
 50
0
  0
TEXT
  8
LAY0_0
  1
T-50
 10
14061.7279052734
 20
39085.4278564453
 40
300
 41
1
 50
0
  0
TEXT
  8
LAY0_0
  1
イ
 10
15131.2103271484
 20
54527.0141601563
 40
350
 41
1
 50
0
  0
TEXT
  8
LAY0_0
  1
縮尺　1/100
 10
18140.5456542969
 20
26993.2067871094
 40
0
 41
1
 50
0
  0
TEXT
  8
LAY0_0
  1
T-67
 10
34340.9729003906
 20
11513.9984130859
 40
300
 41
1
 50
0
  0
TEXT
  8
LAY0_0
  1
ニ
 10
32494.3145751953
 20
13178.9459228516
 40
350
 41
1
 50
0
  0
TEXT
  8
LAY0_0
  1
T-40
 10
13035.9924316406
 20
52862.060546875
 40
300
 41
1
 50
0
  0
TEXT
  8
LAY0_0
  1
N.W.L = 9.76
 10
62250.0305175781
 20
8223.20251464844
 40
0
 41
1
 50
0
  0
TEXT
  8
LAY0_0
  1
縮尺　縦 1/100　横 1/200
 10
64926.416015625
 20
11373.6114501953
 40
0
 41
1
 50
0
  0
TEXT
  8
LAY0_0
  1
A  -  A‘
 10
61364.6728515625
 20
11466.5496826172
 40
300
 41
1
 50
0
  0
TEXT
  8
LAY0_0
  1
ソウギョ・バスターズ
 10
75618.1945800781
 20
3471.11968994141
 40
0
 41
1
 50
0
  0
TEXT
  8
LAY0_0
  1
1/100,1/200
 10
74743.798828125
 20
5158.71925354004
 40
0
 41
1
 50
0
  0
TEXT
  8
LAY0_0
  1
DL=　5.00
 10
50049.31640625
 20
3427.58979797363
 40
300
 41
1
 50
0
  0
TEXT
  8
LAY0_0
  1
DL=　5.00
 10
51041.6351318359
 20
42778.7536621094
 40
300
 41
1
 50
0
  0
TEXT
  8
LAY0_0
  1
D  -  D‘
 10
61227.9296875
 20
50839.0045166016
 40
300
 41
1
 50
0
  0
TEXT
  8
LAY0_0
  1
大覚寺放生池断面図
 10
57110.986328125
 20
54101.5991210938
 40
0
 41
1
 50
0
  0
TEXT
  8
LAY0_0
  1
T-49
 10
72485.0646972656
 20
10874.2309570313
 40
300
 41
1
 50
0
  0
TEXT
  8
LAY0_0
  1
T-90
 10
49655.7373046875
 20
11168.531036377
 40
300
 41
1
 50
0
  0
TEXT
  8
LAY0_0
  1
事業名・・
 10
73124.0661621094
 20
6295.1099395752
 40
0
 41
1
 50
0
  0
TEXT
  8
LAY0_0
  1
放生池断面図
 10
75895.9655761719
 20
5710.70442199707
 40
0
 41
1
 50
0
  0
TEXT
  8
LAY0_0
  1
測量・・・
 10
73124.0661621094
 20
4618.03169250488
 40
0
 41
1
 50
0
  0
TEXT
  8
LAY0_0
  1
縮尺・・・
 10
73124.0661621094
 20
5175.32539367676
 40
0
 41
1
 50
0
  0
TEXT
  8
LAY0_0
  1
平成15年4月7日
 10
76034.8510742188
 20
4033.62159729004
 40
0
 41
1
 50
0
  0
TEXT
  8
LAY0_0
  1
大沢の池環境管理プロジェクト
 10
75186.6333007813
 20
6280.12886047363
 40
0
 41
1
 50
0
  0
TEXT
  8
LAY0_0
  1
図面名・・
 10
73124.0661621094
 20
5732.61299133301
 40
0
 41
1
 50
0
  0
TEXT
  8
LAY0_0
  1
調製・・・
 10
73124.0661621094
 20
4055.53169250488
 40
0
 41
1
 50
0
  0
TEXT
  8
LAY0_0
  1
作業機関・
 10
73124.0661621094
 20
3493.02864074707
 40
0
 41
1
 50
0
  0
TEXT
  8
LAY0_0
  1
図面番号
 10
76858.0139160156
 20
5158.92219543457
 40
0
 41
1
 50
0
  0
TEXT
  8
LAY0_0
  1
平成13年8月17日～平成15年2月23日
 10
74854.296875
 20
4596.12312316895
 40
0
 41
1
 50
0
  0
TEXT
  8
LAY0_0
  1
N.W.L = 9.76
 10
62250.1525878906
 20
22006.9427490234
 40
0
 41
1
 50
0
  0
TEXT
  8
LAY0_0
  1
B  -  B‘
 10
61249.7314453125
 20
25183.4609985352
 40
300
 41
1
 50
0
  0
TEXT
  8
LAY0_0
  1
DL=　5.00
 10
51962.59765625
 20
17194.189453125
 40
300
 41
1
 50
0
  0
TEXT
  8
LAY0_0
  1
T-50
 10
70056.8908691406
 20
25463.6566162109
 40
300
 41
1
 50
0
  0
TEXT
  8
LAY0_0
  1
T-92
 10
51621.1364746094
 20
26353.564453125
 40
300
 41
1
 50
0
  0
TEXT
  8
LAY0_0
  1
DL=　5.00
 10
22860.4614257813
 20
44862.6251220703
 40
300
 41
1
 50
0
  0
TEXT
  8
LAY0_0
  1
T-60
 10
14061.7126464844
 20
25301.2329101563
 40
300
 41
1
 50
0
  0
TEXT
  8
LAY0_0
  1
‘
 10
36759.4024658203
 20
54786.1999511719
 40
170
 41
1
 50
0
  0
TEXT
  8
LAY0_0
  1
‘
 10
16482.6721191406
 20
27219.0246582031
 40
170
 41
1
 50
0
  0
TEXT
  8
LAY0_0
  1
ヘ
 10
32494.3145751953
 20
40750.6652832031
 40
350
 41
1
 50
0
  0
TEXT
  8
LAY0_0
  1
縮尺　1/100
 10
38419.8059082031
 20
40777.6916503906
 40
0
 41
1
 50
0
  0
TEXT
  8
LAY0_0
  1
T-87
 10
50723.4100341797
 20
51926.7578125
 40
300
 41
1
 50
0
  0
TEXT
  8
LAY0_0
  1
縮尺　縦 1/100　横 1/200
 10
64862.1948242188
 20
38895.2911376953
 40
0
 41
1
 50
0
  0
TEXT
  8
LAY0_0
  1
T-94
 10
74164.4775390625
 20
52122.0703125
 40
300
 41
1
 50
0
  0
TEXT
  8
LAY0_0
  1
N.W.L = 9.76
 10
62246.5209960938
 20
47583.3953857422
 40
0
 41
1
 50
0
  0
TEXT
  8
LAY0_0
  1
縮尺　縦 1/100　横 1/200
 10
64868.9086914063
 20
50708.7524414063
 40
0
 41
1
 50
0
  0
TEXT
  8
LAY0_0
  1
T-47
 10
50139.0197753906
 20
39220.9716796875
 40
300
 41
1
 50
0
  0
TEXT
  8
LAY0_0
  1
N.W.L = 9.76
 10
62242.138671875
 20
35794.3756103516
 40
0
 41
1
 50
0
  0
TEXT
  8
LAY0_0
  1
縮尺　縦 1/100　横 1/200
 10
64895.6604003906
 20
25103.2943725586
 40
0
 41
1
 50
0
  0
TEXT
  8
LAY0_0
  1
C  -  C‘
 10
61235.5285644531
 20
39015.4235839844
 40
300
 41
1
 50
0
  0
TEXT
  8
LAY0_0
  1
T-95
 10
74144.5068359375
 20
40015.7104492188
 40
300
 41
1
 50
0
  0
TEXT
  8
LAY0_0
  1
DL=　5.00
 10
50483.4381103516
 20
30983.69140625
 40
300
 41
1
 50
0
  0
ENDSEC
  0
EOF
