  0
SECTION
  2
HEADER
  9
$ACADVER
  1
AC1009
  9
$INSBASE
 10
0
 20
0
 30
0
  9
$EXTMIN
 10
0
 20
0
  9
$EXTMAX
 10
59400
 20
42000
  9
$LIMMIN
 10
0
 20
0
  9
$LIMMAX
 10
59400
 20
42000
  9
$LTSCALE
 40
100
  0
ENDSEC
  0
SECTION
  2
TABLES
  0
TABLE
  2
LTYPE
 70
     9
  0
LTYPE
  2
CONTINUOUS
 70
    64
  3
実線
 72
    65
 73
     0
 40
0.0
  0
LTYPE
  2
DASHED1
 70
    64
  3
--  --  --  --  --  --  --  --  
 72
    65
 73
     2
 40
2.5
 49
1.25
 49
-1.25
  0
LTYPE
  2
DASHED2
 70
    64
  3
----    ----    ----    ----    
 72
    65
 73
     2
 40
5.0
 49
2.5
 49
-2.5
  0
LTYPE
  2
DASHED3
 70
    64
  3
------  ------  ------  ------  
 72
    65
 73
     2
 40
5.0
 49
3.75
 49
-1.25
  0
LTYPE
  2
CENTER1
 70
    64
  3
----- - ----- - ----- - ----- - 
 72
    65
 73
     4
 40
10.0
 49
6.25
 49
-1.25
 49
1.25
 49
-1.25
  0
LTYPE
  2
CENTER2
 70
    64
  3
----------  --  ----------  --  
 72
    65
 73
     4
 40
20.0
 49
12.5
 49
-2.5
 49
2.5
 49
-2.5
  0
LTYPE
  2
PHANTOM1
 70
    64
  3
--- - - --- - - --- - - --- - - 
 72
    65
 73
     6
 40
10.0
 49
3.25
 49
-1.25
 49
1.25
 49
-1.25
 49
1.25
 49
-1.25
  0
LTYPE
  2
PHANTOM2
 70
    64
  3
--------  -  -  --------  -  -  
 72
    65
 73
     6
 40
20.0
 49
10.0
 49
-2.5
 49
1.25
 49
-2.5
 49
1.25
 49
-2.5
  0
LTYPE
  2
DOT
 70
    64
  3
-   -   -   -   -   -   -   -   
 72
    65
 73
     2
 40
2.5
 49
0.625
 49
-1.875
  0
LTYPE
  2
DUMMY
 70
    64
  3
ダミー
 72
    65
 73
     0
 40
0.0
  0
LTYPE
  2
RAND1
 70
    64
  3
----- - ----- - ----- - ----- - 
 72
    65
 73
     4
 40
10.0
 49
6.25
 49
-1.25
 49
1.25
 49
-1.25
  0
LTYPE
  2
RAND2
 70
    64
  3
----------  --  ----------  --  
 72
    65
 73
     4
 40
20.0
 49
12.5
 49
-2.5
 49
2.5
 49
-2.5
  0
LTYPE
  2
RAND3
 70
    64
  3
--- - - --- - - --- - - --- - - 
 72
    65
 73
     6
 40
10.0
 49
3.25
 49
-1.25
 49
1.25
 49
-1.25
 49
1.25
 49
-1.25
  0
LTYPE
  2
RAND4
 70
    64
  3
--------  -  -  --------  -  -  
 72
    65
 73
     6
 40
20.0
 49
10.0
 49
-2.5
 49
1.25
 49
-2.5
 49
1.25
 49
-2.5
  0
LTYPE
  2
RAND5
 70
    64
  3
----- - ----- - ----- - ----- - 
 72
    65
 73
     4
 40
10.0
 49
6.25
 49
-1.25
 49
1.25
 49
-1.25
  0
LTYPE
  2
LONG1
 70
    64
  3
----------  --  ----------  --  
 72
    65
 73
     4
 40
20.0
 49
12.5
 49
-2.5
 49
2.5
 49
-2.5
  0
LTYPE
  2
LONG2
 70
    64
  3
--- - - --- - - --- - - --- - - 
 72
    65
 73
     6
 40
10.0
 49
3.25
 49
-1.25
 49
1.25
 49
-1.25
 49
1.25
 49
-1.25
  0
LTYPE
  2
LONG3
 70
    64
  3
--------  -  -  --------  -  -  
 72
    65
 73
     6
 40
20.0
 49
10.0
 49
-2.5
 49
1.25
 49
-2.5
 49
1.25
 49
-2.5
  0
LTYPE
  2
LONG4
 70
    64
  3
----- - ----- - ----- - ----- - 
 72
    65
 73
     4
 40
10.0
 49
6.25
 49
-1.25
 49
1.25
 49
-1.25
  0
LTYPE
  2
LONG5
 70
    64
  3
----------  --  ----------  --  
 72
    65
 73
     4
 40
20.0
 49
12.5
 49
-2.5
 49
2.5
 49
-2.5
  0
ENDTAB
  0
TABLE
  2
STYLE
  5
3
100
AcDbSymbolTable
 70
     1
  0
STYLE
  5
10
100
AcDbSymbolTableRecord
100
AcDbTextStyleTableRecord
  2
STANDARD
 70
     0
 40
0.0
 41
1.0
 50
0.0
 71
     0
 42
0.2
  3
txt
  4
bigfont.shx
  0
ENDTAB
  0
TABLE
  2
LAYER
 70
    2
  0
LAYER
  2
_0-0_通り芯
 70
   64
 62
    7
  6
CONTINUOUS
  0
LAYER
  2
ADD_LINE
 70
   64
 62
    7
  6
CONTINUOUS
  0
ENDTAB
  0
ENDSEC
  0
SECTION
  2
BLOCKS
  0
ENDSEC
  0
SECTION
  2
ENTITIES
  0
LINE
  8
ADD_LINE
  6
DOT
 62
    4
 10
55197.236
 20
3076.141
 11
49070.591
 21
3076.141
  0
LINE
  8
_0-0_通り芯
  6
CONTINUOUS
 62
    4
 10
47915.985
 20
5315.7256
 11
55197.236
 21
5315.7256
  0
LINE
  8
_0-0_通り芯
  6
CONTINUOUS
 62
    4
 10
47915.985
 20
4201.1443
 11
55197.236
 21
4201.1443
  0
LINE
  8
_0-0_通り芯
  6
CONTINUOUS
 62
    4
 10
47915.985
 20
5878.227
 11
55197.236
 21
5878.227
  0
LINE
  8
_0-0_通り芯
  6
CONTINUOUS
 62
    4
 10
55197.236
 20
6440.7289
 11
55197.236
 21
3076.141
  0
LINE
  8
_0-0_通り芯
  6
CONTINUOUS
 62
    4
 10
53311.821
 20
5315.7256
 11
53311.821
 21
4763.6413
  0
LINE
  8
_0-0_通り芯
  6
CONTINUOUS
 62
    4
 10
47915.985
 20
3076.141
 11
55197.236
 21
3076.141
  0
LINE
  8
_0-0_通り芯
  6
CONTINUOUS
 62
    4
 10
47915.985
 20
3638.6429
 11
55197.236
 21
3638.6429
  0
LINE
  8
_0-0_通り芯
  6
CONTINUOUS
 62
    4
 10
47915.985
 20
6440.7289
 11
55197.236
 21
6440.7289
  0
LINE
  8
_0-0_通り芯
  6
CONTINUOUS
 62
    4
 10
47915.985
 20
6440.7289
 11
47915.985
 21
3076.141
  0
LINE
  8
_0-0_通り芯
  6
CONTINUOUS
 62
    4
 10
47915.985
 20
4763.6413
 11
55197.236
 21
4763.6413
  0
LINE
  8
_0-0_通り芯
  6
CONTINUOUS
 62
    4
 10
49468.058
 20
6440.7289
 11
49468.058
 21
3076.141
  0
LINE
  8
_0-0_通り芯
  6
CONTINUOUS
 62
    4
 10
51426.392
 20
5315.7256
 11
51426.392
 21
4763.6413
  0
LINE
  8
_0-0_通り芯
  6
CONTINUOUS
 62
    6
 10
31666.127
 20
11923.57
 11
31666.127
 21
11523.571
  0
LINE
  8
_0-0_通り芯
  6
CONTINUOUS
 62
    6
 10
3466.1328
 20
25239.123
 11
55183.361
 21
25239.123
  0
LINE
  8
_0-0_通り芯
  6
CONTINUOUS
 62
    3
 10
6466.1331
 20
35239.119
 11
6466.1331
 21
25239.123
  0
LINE
  8
ADD_LINE
  6
DOT
 62
    6
 10
9466.1332
 20
21523.568
 11
57251.849
 21
21523.568
  0
LINE
  8
_0-0_通り芯
  6
DASHED2
 62
    2
 10
10466.134
 20
27839.12
 11
8450.224
 21
27839.12
  0
LINE
  8
_0-0_通り芯
  6
CONTINUOUS
 62
    3
 10
6449.0266
 20
30239.119
 11
4444.209
 21
30239.119
  0
LINE
  8
_0-0_通り芯
  6
CONTINUOUS
 62
    6
 10
20666.133
 20
11923.57
 11
20666.133
 21
11553.319
  0
LINE
  8
_0-0_通り芯
  6
CONTINUOUS
 62
    4
 10
9466.1332
 20
31639.104
 11
8450.224
 21
31639.104
  0
LINE
  8
_0-0_通り芯
  6
CONTINUOUS
 62
    6
 10
43066.128
 20
7923.5702
 11
43066.128
 21
7723.5691
  0
LINE
  8
_0-0_通り芯
  6
CONTINUOUS
 62
    6
 10
52465.735
 20
21923.569
 11
52465.735
 21
21523.568
  0
LINE
  8
_0-0_通り芯
  6
CONTINUOUS
 62
    6
 10
43066.128
 20
9923.5685
 11
43066.128
 21
9523.5715
  0
LINE
  8
ADD_LINE
  6
DOT
 62
    6
 10
9466.1332
 20
23923.568
 11
57251.849
 21
23923.568
  0
LINE
  8
_0-0_通り芯
  6
CONTINUOUS
 62
    6
 10
37466.131
 20
19923.568
 11
37466.131
 21
19523.569
  0
LINE
  8
_0-0_通り芯
  6
CONTINUOUS
 62
    6
 10
43066.128
 20
21923.569
 11
43066.128
 21
21523.568
  0
LINE
  8
_0-0_通り芯
  6
CONTINUOUS
 62
    6
 10
37466.131
 20
21923.569
 11
37466.131
 21
21523.568
  0
LINE
  8
ADD_LINE
  6
DOT
 62
    6
 10
9466.1332
 20
23523.571
 11
57251.849
 21
23523.571
  0
LINE
  8
_0-0_通り芯
  6
CONTINUOUS
 62
    6
 10
3465.4536
 20
21723.568
 11
55169.275
 21
21723.568
  0
LINE
  8
_0-0_通り芯
  6
CONTINUOUS
 62
    6
 10
9466.1332
 20
21923.569
 11
9466.1332
 21
21523.568
  0
LINE
  8
_0-0_通り芯
  6
CONTINUOUS
 62
    6
 10
26266.137
 20
11923.57
 11
26266.137
 21
11523.571
  0
LINE
  8
_0-0_通り芯
  6
CONTINUOUS
 62
    6
 10
20666.133
 20
21923.569
 11
20666.133
 21
21553.319
  0
LINE
  8
_0-0_通り芯
  6
CONTINUOUS
 62
    6
 10
9466.1332
 20
17923.572
 11
9466.1332
 21
17723.568
  0
LINE
  8
_0-0_通り芯
  6
CONTINUOUS
 62
    6
 10
4462.7486
 20
19723.567
 11
55169.275
 21
19723.567
  0
LINE
  8
_0-0_通り芯
  6
CONTINUOUS
 62
    6
 10
9466.1332
 20
17923.572
 11
9466.1332
 21
17523.568
  0
LINE
  8
_0-0_通り芯
  6
CONTINUOUS
 62
    6
 10
26266.137
 20
17923.572
 11
26266.137
 21
17523.568
  0
LINE
  8
_0-0_通り芯
  6
CONTINUOUS
 62
    4
 10
28567.962
 20
29889.123
 11
28267.965
 21
29889.123
  0
LINE
  8
_0-0_通り芯
  6
CONTINUOUS
 62
    6
 10
31666.127
 20
7923.5702
 11
31666.127
 21
7723.5691
  0
LINE
  8
_0-0_通り芯
  6
CONTINUOUS
 62
    6
 10
9466.1332
 20
7723.5691
 11
55188.214
 21
7723.5691
  0
LINE
  8
ADD_LINE
  6
DOT
 62
    6
 10
9466.1332
 20
17923.572
 11
57251.849
 21
17923.572
  0
LINE
  8
ADD_LINE
  6
DOT
 62
    6
 10
9466.1332
 20
17523.568
 11
57251.849
 21
17523.568
  0
LINE
  8
_0-0_通り芯
  6
CONTINUOUS
 62
    4
 10
10466.134
 20
30539.101
 11
10466.134
 21
27839.12
  0
LINE
  8
_0-0_通り芯
  6
CONTINUOUS
 62
    6
 10
43066.128
 20
17923.572
 11
43066.128
 21
17523.568
  0
LINE
  8
_0-0_通り芯
  6
CONTINUOUS
 62
    6
 10
9466.1332
 20
15923.571
 11
9466.1332
 21
15523.569
  0
LINE
  8
_0-0_通り芯
  6
CONTINUOUS
 62
    6
 10
10466.134
 20
15923.571
 11
10466.134
 21
15523.569
  0
LINE
  8
_0-0_通り芯
  6
CONTINUOUS
 62
    6
 10
3466.1328
 20
23723.568
 11
3466.1328
 21
7723.5691
  0
LINE
  8
_0-0_通り芯
  6
CONTINUOUS
 62
    6
 10
9466.1332
 20
9923.5685
 11
9466.1332
 21
9523.5715
  0
LINE
  8
_0-0_通り芯
  6
CONTINUOUS
 62
    6
 10
37466.131
 20
7923.5702
 11
37466.131
 21
7723.5691
  0
LINE
  8
_0-0_通り芯
  6
CONTINUOUS
 62
    4
 10
10466.134
 20
27839.12
 11
14666.135
 21
27829.113
  0
LINE
  8
_0-0_通り芯
  6
CONTINUOUS
 62
    4
 10
52232.14
 20
29439.094
 11
52465.735
 21
29439.094
  0
LINE
  8
_0-0_通り芯
  6
CONTINUOUS
 62
    6
 10
48666.133
 20
7923.5702
 11
48666.133
 21
7723.5691
  0
LINE
  8
_0-0_通り芯
  6
CONTINUOUS
 62
    6
 10
48666.133
 20
11923.57
 11
48666.133
 21
11523.571
  0
LINE
  8
_0-0_通り芯
  6
CONTINUOUS
 62
    6
 10
10466.134
 20
9923.5685
 11
10466.134
 21
9722.6147
  0
LINE
  8
_0-0_通り芯
  6
CONTINUOUS
 62
    6
 10
20666.133
 20
13923.571
 11
20666.133
 21
13523.569
  0
LINE
  8
_0-0_通り芯
  6
CONTINUOUS
 62
    6
 10
20666.133
 20
9923.5685
 11
20666.133
 21
9523.5715
  0
LINE
  8
_0-0_通り芯
  6
CONTINUOUS
 62
    6
 10
48666.133
 20
9923.5685
 11
48666.133
 21
9522.351
  0
LINE
  8
_0-0_通り芯
  6
CONTINUOUS
 62
    6
 10
43066.128
 20
19923.568
 11
43066.128
 21
19523.569
  0
LINE
  8
_0-0_通り芯
  6
CONTINUOUS
 62
    6
 10
14666.131
 20
9923.5685
 11
14666.131
 21
9523.5715
  0
LINE
  8
_0-0_通り芯
  6
CONTINUOUS
 62
    6
 10
9466.1332
 20
9723.57
 11
55169.275
 21
9723.57
  0
LINE
  8
_0-0_通り芯
  6
CONTINUOUS
 62
    6
 10
9466.1332
 20
9923.5685
 11
9466.1332
 21
9523.5715
  0
LINE
  8
_0-0_通り芯
  6
CONTINUOUS
 62
    6
 10
10466.134
 20
21923.569
 11
10466.134
 21
21523.568
  0
LINE
  8
_0-0_通り芯
  6
CONTINUOUS
 62
    6
 10
48666.133
 20
19923.568
 11
48666.133
 21
19522.348
  0
LINE
  8
_0-0_通り芯
  6
CONTINUOUS
 62
    6
 10
37466.131
 20
11923.57
 11
37466.131
 21
11523.571
  0
LINE
  8
_0-0_通り芯
  6
CONTINUOUS
 62
    6
 10
20666.133
 20
15923.571
 11
20666.133
 21
15553.316
  0
LINE
  8
_0-0_通り芯
  6
CONTINUOUS
 62
    6
 10
9466.1332
 20
11923.57
 11
9466.1332
 21
11523.571
  0
LINE
  8
_0-0_通り芯
  6
CONTINUOUS
 62
    6
 10
37466.131
 20
9923.5685
 11
37466.131
 21
9523.5715
  0
LINE
  8
_0-0_通り芯
  6
CONTINUOUS
 62
    6
 10
9466.1332
 20
13923.571
 11
9466.1332
 21
13523.569
  0
LINE
  8
_0-0_通り芯
  6
CONTINUOUS
 62
    6
 10
26266.137
 20
9923.5685
 11
26266.137
 21
9523.5715
  0
LINE
  8
_0-0_通り芯
  6
CONTINUOUS
 62
    6
 10
52465.735
 20
15923.571
 11
52465.735
 21
15523.569
  0
LINE
  8
_0-0_通り芯
  6
CONTINUOUS
 62
    6
 10
9466.1332
 20
11923.57
 11
9466.1332
 21
11523.571
  0
LINE
  8
_0-0_通り芯
  6
CONTINUOUS
 62
    6
 10
26266.137
 20
19923.568
 11
26266.137
 21
19523.569
  0
LINE
  8
_0-0_通り芯
  6
CONTINUOUS
 62
    6
 10
9466.1332
 20
19923.568
 11
9466.1332
 21
19523.569
  0
LINE
  8
_0-0_通り芯
  6
CONTINUOUS
 62
    6
 10
9466.1332
 20
15923.571
 11
9466.1332
 21
15523.569
  0
LINE
  8
_0-0_通り芯
  6
CONTINUOUS
 62
    6
 10
52465.735
 20
13923.571
 11
52465.735
 21
13523.569
  0
LINE
  8
_0-0_通り芯
  6
CONTINUOUS
 62
    6
 10
3479.1577
 20
17723.568
 11
55197.45
 21
17723.568
  0
LINE
  8
_0-0_通り芯
  6
CONTINUOUS
 62
    6
 10
20666.133
 20
19923.568
 11
20666.133
 21
19523.569
  0
LINE
  8
_0-0_通り芯
  6
CONTINUOUS
 62
    6
 10
31666.127
 20
21923.569
 11
31666.127
 21
21523.568
  0
LINE
  8
_0-0_通り芯
  6
CONTINUOUS
 62
    6
 10
48666.133
 20
21923.569
 11
48666.133
 21
21523.568
  0
LINE
  8
_0-0_通り芯
  6
CONTINUOUS
 62
    6
 10
31666.127
 20
23723.568
 11
31666.127
 21
23523.571
  0
LINE
  8
_0-0_通り芯
  6
CONTINUOUS
 62
    4
 10
28467.962
 20
29789.121
 11
28367.962
 21
29789.121
  0
LINE
  8
_0-0_通り芯
  6
CONTINUOUS
 62
    6
 10
5466.1326
 20
17715.787
 11
5466.1326
 21
13725.138
  0
LINE
  8
ADD_LINE
  6
DOT
 62
    6
 10
9466.1332
 20
21923.569
 11
57251.849
 21
21923.569
  0
LINE
  8
_0-0_通り芯
  6
CONTINUOUS
 62
    3
 10
6466.1331
 20
35239.119
 11
4444.209
 21
35239.119
  0
LINE
  8
ADD_LINE
  6
DOT
 62
    6
 10
9466.1332
 20
19523.569
 11
57251.849
 21
19523.569
  0
LINE
  8
_0-0_通り芯
  6
CONTINUOUS
 62
    6
 10
26266.137
 20
21923.569
 11
26266.137
 21
21523.568
  0
LINE
  8
_0-0_通り芯
  6
CONTINUOUS
 62
    6
 10
14666.131
 20
19923.568
 11
14666.131
 21
19523.569
  0
LINE
  8
_0-0_通り芯
  6
CONTINUOUS
 62
    6
 10
10466.134
 20
23723.568
 11
10466.134
 21
23523.571
  0
LINE
  8
_0-0_通り芯
  6
CONTINUOUS
 62
    4
 10
48666.133
 20
28299.112
 11
52232.14
 21
29439.094
  0
LINE
  8
ADD_LINE
  6
DOT
 62
    6
 10
9466.1332
 20
19923.568
 11
57251.849
 21
19923.568
  0
LINE
  8
_0-0_通り芯
  6
DASHED2
 62
    2
 10
10466.134
 20
28139.124
 11
8450.224
 21
28139.124
  0
LINE
  8
_0-0_通り芯
  6
CONTINUOUS
 62
    6
 10
10466.134
 20
11923.57
 11
10466.134
 21
11523.571
  0
LINE
  8
_0-0_通り芯
  6
CONTINUOUS
 62
    6
 10
9466.1332
 20
17923.572
 11
9466.1332
 21
17523.568
  0
LINE
  8
_0-0_通り芯
  6
CONTINUOUS
 62
    6
 10
31666.127
 20
9923.5685
 11
31666.127
 21
9523.5715
  0
LINE
  8
_0-0_通り芯
  6
CONTINUOUS
 62
    6
 10
43066.128
 20
11923.57
 11
43066.128
 21
11523.571
  0
LINE
  8
_0-0_通り芯
  6
CONTINUOUS
 62
    6
 10
14666.131
 20
11923.57
 11
14666.131
 21
11523.571
  0
LINE
  8
_0-0_通り芯
  6
CONTINUOUS
 62
    6
 10
31666.127
 20
19923.568
 11
31666.127
 21
19523.569
  0
LINE
  8
_0-0_通り芯
  6
CONTINUOUS
 62
    5
 10
52460.419
 20
30089.12
 11
10462.084
 21
30089.12
  0
LINE
  8
_0-0_通り芯
  6
CONTINUOUS
 62
    4
 10
28617.963
 20
30313.816
 11
28417.962
 21
30089.12
  0
LINE
  8
_0-0_通り芯
  6
CONTINUOUS
 62
    6
 10
3469.6933
 20
23723.568
 11
55197.45
 21
23723.568
  0
LINE
  8
_0-0_通り芯
  6
CONTINUOUS
 62
    4
 10
28817.963
 20
29989.118
 11
28017.969
 21
29989.118
  0
LINE
  8
_0-0_通り芯
  6
CONTINUOUS
 62
    4
 10
28417.962
 20
30089.12
 11
28217.962
 21
30313.816
  0
LINE
  8
_0-0_通り芯
  6
DASHED1
 62
    6
 10
45741.896
 20
33118.034
 11
48034.983
 21
33118.034
  0
LINE
  8
_0-0_通り芯
  6
CONTINUOUS
 62
    6
 10
4466.1326
 20
23723.568
 11
4466.1326
 21
7721.0118
  0
LINE
  8
_0-0_通り芯
  6
CONTINUOUS
 62
    6
 10
52465.735
 20
11923.57
 11
52465.735
 21
11523.571
  0
LINE
  8
_0-0_通り芯
  6
CONTINUOUS
 62
    6
 10
48666.133
 20
23723.568
 11
48666.133
 21
23523.571
  0
LINE
  8
_0-0_通り芯
  6
CONTINUOUS
 62
    6
 10
9466.1332
 20
7923.5702
 11
9466.1332
 21
7726.975
  0
LINE
  8
_0-0_通り芯
  6
CONTINUOUS
 62
    4
 10
14666.135
 20
27829.113
 11
20666.133
 21
27709.115
  0
LINE
  8
_0-0_通り芯
  6
CONTINUOUS
 62
    6
 10
37466.131
 20
23723.568
 11
37466.131
 21
23523.571
  0
LINE
  8
_0-0_通り芯
  6
CONTINUOUS
 62
    6
 10
52465.735
 20
23723.568
 11
52465.735
 21
23523.571
  0
LINE
  8
_0-0_通り芯
  6
CONTINUOUS
 62
    6
 10
31666.127
 20
17923.572
 11
31666.127
 21
17523.568
  0
LINE
  8
_0-0_通り芯
  6
CONTINUOUS
 62
    6
 10
52465.735
 20
35205.664
 11
52465.735
 21
25239.123
  0
LINE
  8
_0-0_通り芯
  6
CONTINUOUS
 62
    6
 10
14666.131
 20
17923.572
 11
14666.131
 21
17523.568
  0
LINE
  8
_0-0_通り芯
  6
CONTINUOUS
 62
    3
 10
52465.735
 20
35205.664
 11
56001.262
 21
38741.197
  0
LINE
  8
_0-0_通り芯
  6
CONTINUOUS
 62
    6
 10
10466.134
 20
35287.223
 11
10466.134
 21
25240.542
  0
LINE
  8
_0-0_通り芯
  6
CONTINUOUS
 62
    6
 10
52465.735
 20
19923.568
 11
52465.735
 21
19523.569
  0
LINE
  8
_0-0_通り芯
  6
CONTINUOUS
 62
    4
 10
26266.137
 20
27939.095
 11
31666.127
 21
28189.098
  0
LINE
  8
_0-0_通り芯
  6
DASHED1
 62
    3
 10
10466.134
 20
27839.12
 11
14666.135
 21
28329.11
  0
LINE
  8
_0-0_通り芯
  6
CONTINUOUS
 62
    3
 10
10466.134
 20
35287.223
 11
14001.666
 21
38822.76
  0
LINE
  8
ADD_LINE
  6
DOT
 62
    4
 10
6354.8777
 20
16723.569
 11
58376.177
 21
16723.569
  0
LINE
  8
_0-0_通り芯
  6
CONTINUOUS
 62
    6
 10
9466.1332
 20
23723.568
 11
9466.1332
 21
23523.571
  0
LINE
  8
ADD_LINE
  6
DOT
 62
    4
 10
5668.3634
 20
10723.57
 11
57887.443
 21
10723.57
  0
LINE
  8
_0-0_通り芯
  6
CONTINUOUS
 62
    4
 10
28217.962
 20
30313.816
 11
28617.963
 21
30313.816
  0
LINE
  8
ADD_LINE
  6
DOT
 62
    4
 10
5664.8814
 20
12723.57
 11
58158.042
 21
12723.57
  0
LINE
  8
_0-0_通り芯
  6
CONTINUOUS
 62
    6
 10
52465.735
 20
7923.5702
 11
52465.735
 21
7721.6618
  0
LINE
  8
_0-0_通り芯
  6
CONTINUOUS
 62
    6
 10
9466.1332
 20
17723.568
 11
55197.45
 21
17723.568
  0
LINE
  8
_0-0_通り芯
  6
CONTINUOUS
 62
    4
 10
43066.128
 20
28529.126
 11
48666.133
 21
28299.112
  0
LINE
  8
_0-0_通り芯
  6
CONTINUOUS
 62
    6
 10
10466.134
 20
17923.572
 11
10466.134
 21
17523.568
  0
LINE
  8
_0-0_通り芯
  6
DASHED1
 62
    3
 10
20666.133
 20
28329.11
 11
26266.137
 21
28429.117
  0
LINE
  8
_0-0_通り芯
  6
CONTINUOUS
 62
    6
 10
37466.131
 20
15923.571
 11
37466.131
 21
15523.569
  0
LINE
  8
_0-0_通り芯
  6
CONTINUOUS
 62
    6
 10
31666.127
 20
13923.571
 11
31666.127
 21
13523.569
  0
LINE
  8
ADD_LINE
  6
DOT
 62
    6
 10
9466.1332
 20
15923.571
 11
57251.849
 21
15923.571
  0
LINE
  8
_0-0_通り芯
  6
CONTINUOUS
 62
    6
 10
14666.131
 20
13923.571
 11
14666.131
 21
13523.569
  0
LINE
  8
ADD_LINE
  6
DOT
 62
    6
 10
9466.1332
 20
15523.569
 11
57251.849
 21
15523.569
  0
LINE
  8
_0-0_通り芯
  6
CONTINUOUS
 62
    6
 10
26266.137
 20
23723.568
 11
26266.137
 21
23523.571
  0
LINE
  8
_0-0_通り芯
  6
CONTINUOUS
 62
    6
 10
48666.133
 20
15923.571
 11
48666.133
 21
15523.569
  0
LINE
  8
_0-0_通り芯
  6
CONTINUOUS
 62
    6
 10
48666.133
 20
13923.571
 11
48666.133
 21
13522.349
  0
LINE
  8
_0-0_通り芯
  6
CONTINUOUS
 62
    6
 10
10466.134
 20
13923.571
 11
10466.134
 21
13523.569
  0
LINE
  8
_0-0_通り芯
  6
CONTINUOUS
 62
    6
 10
31666.127
 20
15923.571
 11
31666.127
 21
15523.569
  0
LINE
  8
_0-0_通り芯
  6
CONTINUOUS
 62
    6
 10
37466.131
 20
13923.571
 11
37466.131
 21
13523.569
  0
LINE
  8
_0-0_通り芯
  6
CONTINUOUS
 62
    6
 10
9466.1332
 20
13723.57
 11
55183.361
 21
13723.57
  0
LINE
  8
ADD_LINE
  6
DOT
 62
    6
 10
9466.1332
 20
13923.571
 11
57251.849
 21
13923.571
  0
LINE
  8
ADD_LINE
  6
DOT
 62
    6
 10
9466.1332
 20
13523.569
 11
57251.849
 21
13523.569
  0
LINE
  8
_0-0_通り芯
  6
CONTINUOUS
 62
    6
 10
9466.1332
 20
15723.569
 11
55169.275
 21
15723.569
  0
LINE
  8
_0-0_通り芯
  6
CONTINUOUS
 62
    6
 10
14666.131
 20
15923.571
 11
14666.131
 21
15523.569
  0
LINE
  8
ADD_LINE
  6
DOT
 62
    6
 10
9466.1332
 20
7923.5702
 11
57251.849
 21
7923.5702
  0
LINE
  8
_0-0_通り芯
  6
CONTINUOUS
 62
    4
 10
31666.127
 20
28189.098
 11
37464.728
 21
28139.111
  0
LINE
  8
_0-0_通り芯
  6
CONTINUOUS
 62
    6
 10
26266.137
 20
15923.571
 11
26266.137
 21
15523.569
  0
LINE
  8
_0-0_通り芯
  6
CONTINUOUS
 62
    6
 10
9466.1332
 20
13923.571
 11
9466.1332
 21
13523.569
  0
LINE
  8
_0-0_通り芯
  6
CONTINUOUS
 62
    6
 10
26266.137
 20
13923.571
 11
26266.137
 21
13523.569
  0
LINE
  8
_0-0_通り芯
  6
CONTINUOUS
 62
    6
 10
43066.128
 20
15923.571
 11
43066.128
 21
15523.569
  0
LINE
  8
ADD_LINE
  6
DOT
 62
    6
 10
9466.1332
 20
11923.57
 11
57251.849
 21
11923.57
  0
LINE
  8
_0-0_通り芯
  6
CONTINUOUS
 62
    6
 10
26266.137
 20
7923.5702
 11
26266.137
 21
7723.5691
  0
LINE
  8
_0-0_通り芯
  6
DASHED1
 62
    3
 10
14666.135
 20
28329.11
 11
20666.133
 21
28329.11
  0
LINE
  8
_0-0_通り芯
  6
CONTINUOUS
 62
    6
 10
3499.3929
 20
11723.57
 11
55169.275
 21
11723.57
  0
LINE
  8
_0-0_通り芯
  6
DASHED1
 62
    3
 10
37464.728
 20
28459.115
 11
43066.128
 21
28649.117
  0
LINE
  8
ADD_LINE
  6
DOT
 62
    6
 10
9466.1332
 20
9523.5715
 11
57251.849
 21
9523.5715
  0
LINE
  8
ADD_LINE
  6
DOT
 62
    6
 10
9466.1332
 20
9923.5685
 11
57251.849
 21
9923.5685
  0
LINE
  8
_0-0_通り芯
  6
CONTINUOUS
 62
    4
 10
9466.1332
 20
31639.104
 11
10360.731
 21
30539.101
  0
LINE
  8
_0-0_通り芯
  6
CONTINUOUS
 62
    4
 10
20666.133
 20
27709.115
 11
26266.137
 21
27939.095
  0
LINE
  8
_0-0_通り芯
  6
CONTINUOUS
 62
    6
 10
37466.131
 20
17923.572
 11
37466.131
 21
17523.568
  0
LINE
  8
_0-0_通り芯
  6
DASHED1
 62
    3
 10
43066.128
 20
28649.117
 11
49470.323
 21
28569.057
  0
LINE
  8
_0-0_通り芯
  6
CONTINUOUS
 62
    6
 10
9466.1332
 20
19923.568
 11
9466.1332
 21
19523.569
  0
LINE
  8
_0-0_通り芯
  6
CONTINUOUS
 62
    6
 10
45623.284
 20
32287.776
 11
48034.983
 21
32287.776
  0
LINE
  8
_0-0_通り芯
  6
CONTINUOUS
 62
    6
 10
43066.128
 20
13923.571
 11
43066.128
 21
13523.569
  0
LINE
  8
_0-0_通り芯
  6
CONTINUOUS
 62
    6
 10
20666.133
 20
7923.5702
 11
20666.133
 21
7723.5691
  0
LINE
  8
ADD_LINE
  6
DOT
 62
    6
 10
9466.1332
 20
11523.571
 11
57251.849
 21
11523.571
  0
LINE
  8
_0-0_通り芯
  6
CONTINUOUS
 62
    6
 10
14666.131
 20
7923.5702
 11
14666.131
 21
7723.5691
  0
LINE
  8
_0-0_通り芯
  6
CONTINUOUS
 62
    6
 10
9466.1332
 20
7923.5702
 11
9466.1332
 21
7723.5691
  0
LINE
  8
_0-0_通り芯
  6
CONTINUOUS
 62
    6
 10
4463.1466
 20
15723.569
 11
55155.186
 21
15723.569
  0
LINE
  8
_0-0_通り芯
  6
CONTINUOUS
 62
    6
 10
43066.128
 20
23723.568
 11
43066.128
 21
23523.571
  0
LINE
  8
_0-0_通り芯
  6
CONTINUOUS
 62
    6
 10
14666.131
 20
23723.568
 11
14666.131
 21
23523.571
  0
LINE
  8
_0-0_通り芯
  6
CONTINUOUS
 62
    6
 10
9466.1332
 20
11723.57
 11
55169.275
 21
11723.57
  0
LINE
  8
_0-0_通り芯
  6
CONTINUOUS
 62
    6
 10
20666.133
 20
23723.568
 11
20666.133
 21
23523.571
  0
LINE
  8
_0-0_通り芯
  6
CONTINUOUS
 62
    6
 10
9466.1332
 20
21923.569
 11
9466.1332
 21
21523.568
  0
LINE
  8
_0-0_通り芯
  6
CONTINUOUS
 62
    4
 10
10360.731
 20
30539.101
 11
10466.134
 21
30539.101
  0
LINE
  8
_0-0_通り芯
  6
CONTINUOUS
 62
    4
 10
37464.728
 20
28139.111
 11
43066.128
 21
28529.126
  0
LINE
  8
_0-0_通り芯
  6
CONTINUOUS
 62
    6
 10
3466.1328
 20
7723.5691
 11
55197.453
 21
7723.5691
  0
LINE
  8
_0-0_通り芯
  6
CONTINUOUS
 62
    6
 10
52465.735
 20
9923.5685
 11
52465.735
 21
9523.5715
  0
LINE
  8
_0-0_通り芯
  6
CONTINUOUS
 62
    6
 10
3463.8248
 20
13723.57
 11
55211.535
 21
13723.57
  0
LINE
  8
_0-0_通り芯
  6
CONTINUOUS
 62
    6
 10
52465.735
 20
17949.911
 11
52465.735
 21
17523.568
  0
LINE
  8
_0-0_通り芯
  6
CONTINUOUS
 62
    6
 10
20666.133
 20
17923.572
 11
20666.133
 21
17523.568
  0
LINE
  8
_0-0_通り芯
  6
CONTINUOUS
 62
    6
 10
10466.134
 20
19923.568
 11
10466.134
 21
19523.569
  0
LINE
  8
_0-0_通り芯
  6
CONTINUOUS
 62
    6
 10
48666.133
 20
17923.572
 11
48666.133
 21
17522.348
  0
LINE
  8
_0-0_通り芯
  6
DASHED1
 62
    3
 10
26266.137
 20
28429.117
 11
31666.127
 21
28489.116
  0
LINE
  8
_0-0_通り芯
  6
CONTINUOUS
 62
    6
 10
5574.3597
 20
29714.484
 11
5574.3597
 21
26714.483
  0
LINE
  8
_0-0_通り芯
  6
CONTINUOUS
 62
    6
 10
3468.4916
 20
9723.57
 11
55197.45
 21
9723.57
  0
LINE
  8
_0-0_通り芯
  6
CONTINUOUS
 62
    6
 10
14666.131
 20
21923.569
 11
14666.131
 21
21523.568
  0
LINE
  8
_0-0_通り芯
  6
DASHED1
 62
    3
 10
31666.127
 20
28489.116
 11
37464.728
 21
28459.115
  0
LINE
  8
_0-0_通り芯
  6
CONTINUOUS
 62
    3
 10
3574.3598
 20
26714.483
 11
5574.3597
 21
26714.483
  0
LINE
  8
_0-0_通り芯
  6
CONTINUOUS
 62
    3
 10
3574.3598
 20
26714.483
 11
5574.3597
 21
29714.484
  0
LINE
  8
ADD_LINE
  6
DOT
 62
    3
 10
55186.265
 20
25258.124
 11
55186.265
 21
1946.6827
  0
TEXT
  8
_0-0_通り芯
 62
    3
 10
47972.583
 20
4900.7997
 40
300
 41
1
 50
0
  1
縮尺・・・
  0
TEXT
  8
_0-0_通り芯
 62
    6
 10
26619.38
 20
38090.366
 40
600
 41
1
 50
0
  1
大覚寺大沢の池縦断図
  0
TEXT
  8
_0-0_通り芯
 62
    3
 10
50998.367
 20
3759.0959
 40
300
 41
1
 50
0
  1
平成15年4月7日
  0
TEXT
  8
_0-0_通り芯
 62
    3
 10
47972.583
 20
4343.5059
 40
300
 41
1
 50
0
  1
測量・・・
  0
TEXT
  8
_0-0_通り芯
 62
    3
 10
47972.583
 20
6020.5839
 40
300
 41
1
 50
0
  1
事業名・・
  0
TEXT
  8
_0-0_通り芯
 62
    3
 10
50859.482
 20
5436.1786
 40
300
 41
1
 50
0
  1
大沢の池縦断図
  0
TEXT
  8
_0-0_通り芯
 62
    7
 10
10611.412
 20
14395.306
 40
250
 41
1
 50
90
  1
(7.60）
  0
TEXT
  8
_0-0_通り芯
 62
    3
 10
50255.151
 20
6005.6029
 40
300
 41
1
 50
0
  1
大沢の池環境管理プロジェクト
  0
TEXT
  8
_0-0_通り芯
 62
    3
 10
51776.533
 20
4884.3962
 40
300
 41
1
 50
0
  1
図面番号
  0
TEXT
  8
_0-0_通り芯
 62
    7
 10
48823.418
 20
14493.087
 40
250
 41
1
 50
90
  1
8.06
  0
TEXT
  8
_0-0_通り芯
 62
    3
 10
49952.813
 20
4321.5973
 40
300
 41
1
 50
0
  1
平成13年8月17日～平成15年2月23日
  0
TEXT
  8
_0-0_通り芯
 62
    3
 10
47972.583
 20
3218.5027
 40
300
 41
1
 50
0
  1
作業機関・
  0
TEXT
  8
_0-0_通り芯
 62
    3
 10
5511.8725
 20
35439.676
 40
300
 41
1
 50
0
  1
15.00
  0
TEXT
  8
_0-0_通り芯
 62
    3
 10
47972.583
 20
5458.0873
 40
300
 41
1
 50
0
  1
図面名・・
  0
TEXT
  8
_0-0_通り芯
 62
    3
 10
47972.583
 20
3781.0058
 40
300
 41
1
 50
0
  1
調製・・・
  0
TEXT
  8
_0-0_通り芯
 62
    7
 10
43197.647
 20
8067.0363
 40
250
 41
1
 50
90
  1
No.6
  0
TEXT
  8
_0-0_通り芯
 62
    7
 10
52646.789
 20
14270.956
 40
250
 41
1
 50
90
  1
(9.20)
  0
TEXT
  8
_0-0_通り芯
 62
    3
 10
50626.71
 20
3196.594
 40
300
 41
1
 50
0
  1
ソウギョ・バスターズ
  0
TEXT
  8
_0-0_通り芯
 62
    3
 10
4559.5836
 20
25385.079
 40
300
 41
1
 50
0
  1
DL=　5.00
  0
TEXT
  8
_0-0_通り芯
 62
    7
 10
9626.1578
 20
12466.734
 40
250
 41
1
 50
90
  1
0.00
  0
TEXT
  8
_0-0_通り芯
 62
    7
 10
31809.88
 20
14493.087
 40
250
 41
1
 50
90
  1
7.95
  0
TEXT
  8
_0-0_通り芯
 62
    7
 10
14796.35
 20
16487.777
 40
250
 41
1
 50
90
  1
8.09
  0
TEXT
  8
_0-0_通り芯
 62
    7
 10
26391.614
 20
8030.5907
 40
250
 41
1
 50
90
  1
No.3
  0
TEXT
  8
_0-0_通り芯
 62
    7
 10
48784.307
 20
16507.333
 40
250
 41
1
 50
90
  1
8.34
  0
TEXT
  8
_0-0_通り芯
 62
    7
 10
31794.041
 20
10400.296
 40
250
 41
1
 50
90
  1
27.00
  0
TEXT
  8
_0-0_通り芯
 62
    7
 10
31786.975
 20
8088.2936
 40
250
 41
1
 50
90
  1
No.4
  0
TEXT
  8
_0-0_通り芯
 62
    3
 10
49617.316
 20
4884.1932
 40
300
 41
1
 50
0
  1
1/100,1/500
  0
TEXT
  8
_0-0_通り芯
 62
    7
 10
26392.928
 20
16507.333
 40
250
 41
1
 50
90
  1
8.19
  0
TEXT
  8
_0-0_通り芯
 62
    7
 10
37602.875
 20
8036.0534
 40
250
 41
1
 50
90
  1
No.5
  0
TEXT
  8
_0-0_通り芯
 62
    7
 10
14815.906
 20
14473.532
 40
250
 41
1
 50
90
  1
7.59
  0
TEXT
  8
_0-0_通り芯
 62
    7
 10
10588.41
 20
12426.64
 40
250
 41
1
 50
90
  1
5.00
  0
TEXT
  8
_0-0_通り芯
 62
    2
 10
4153.2986
 20
10057.851
 40
400
 41
1
 50
90
  1
単距離
  0
TEXT
  8
_0-0_通り芯
 62
    3
 10
4139.9969
 20
26230.899
 40
300
 41
1
 50
0
  1
1：500
  0
TEXT
  8
_0-0_通り芯
 62
    7
 10
14807.108
 20
8105.2352
 40
250
 41
1
 50
90
  1
No.1
  0
TEXT
  8
_0-0_通り芯
 62
    7
 10
20792.28
 20
12386.546
 40
250
 41
1
 50
90
  1
56.00
  0
TEXT
  8
_0-0_通り芯
 62
    7
 10
14798.258
 20
12386.546
 40
250
 41
1
 50
90
  1
26.00
  0
TEXT
  8
_0-0_通り芯
 62
    7
 10
9597.0629
 20
8045.5218
 40
250
 41
1
 50
90
  1
No.0
  0
TEXT
  8
_0-0_通り芯
 62
    3
 10
6052.5672
 20
27589.724
 40
300
 41
1
 50
90
  1
1：100
  0
TEXT
  8
_0-0_通り芯
 62
    7
 10
43183.936
 20
10418.232
 40
250
 41
1
 50
90
  1
28.00
  0
TEXT
  8
_0-0_通り芯
 62
    3
 10
29710.705
 20
30156.916
 40
350
 41
1
 50
0
  1
N.W.L　＝　9.85
  0
TEXT
  8
_0-0_通り芯
 62
    7
 10
43210.907
 20
16507.333
 40
250
 41
1
 50
90
  1
8.41
  0
TEXT
  8
_0-0_通り芯
 62
    7
 10
37611.63
 20
16456.067
 40
250
 41
1
 50
90
  1
8.22
  0
TEXT
  8
_0-0_通り芯
 62
    7
 10
43250.02
 20
14473.532
 40
250
 41
1
 50
90
  1
8.29
  0
TEXT
  8
_0-0_通り芯
 62
    3
 10
11512.79
 20
36522.028
 40
350
 41
1
 50
45.00005
  1
管底高　EL= 7.60
  0
TEXT
  8
_0-0_通り芯
 62
    3
 10
52752.255
 20
35574.874
 40
350
 41
1
 50
45.000047
  1
余水吐　EL=　9.20
  0
TEXT
  8
_0-0_通り芯
 62
    7
 10
37731.898
 20
14491.472
 40
250
 41
1
 50
90
  1
7.90
  0
TEXT
  8
_0-0_通り芯
 62
    3
 10
10724.226
 20
35707.332
 40
350
 41
1
 50
45.139349
  1
樋門
  0
TEXT
  8
_0-0_通り芯
 62
    7
 10
52726.984
 20
10281.622
 40
250
 41
1
 50
90
  1
19.00
  0
TEXT
  8
_0-0_通り芯
 62
    7
 10
52586.657
 20
8056.4166
 40
250
 41
1
 50
90
  1
No.8
  0
TEXT
  8
_0-0_通り芯
 62
    7
 10
48652.735
 20
12366.499
 40
250
 41
1
 50
180
  1
196.00
  7
TATEGAKI
  0
TEXT
  8
_0-0_通り芯
 62
    2
 10
4177.5812
 20
19076.104
 40
400
 41
1
 50
90
  1
計画高
  0
TEXT
  8
_0-0_通り芯
 62
    7
 10
37466.578
 20
12346.452
 40
250
 41
1
 50
180
  1
140.00
  7
TATEGAKI
  0
TEXT
  8
_0-0_通り芯
 62
    3
 10
5431.2435
 20
30353.543
 40
300
 41
1
 50
0
  1
10.00
  0
TEXT
  8
_0-0_通り芯
 62
    7
 10
31790.324
 20
16487.777
 40
250
 41
1
 50
90
  1
8.25
  0
TEXT
  8
_0-0_通り芯
 62
    7
 10
52646.789
 20
12366.499
 40
250
 41
1
 50
90
  1
215.00
  0
TEXT
  8
_0-0_通り芯
 62
    2
 10
4168.2415
 20
8389.2048
 40
400
 41
1
 50
90
  1
測点
  0
TEXT
  8
_0-0_通り芯
 62
    7
 10
48780.227
 20
10400.296
 40
250
 41
1
 50
90
  1
28.00
  0
TEXT
  8
_0-0_通り芯
 62
    7
 10
43099.754
 20
12366.499
 40
250
 41
1
 50
180
  1
168.00
  7
TATEGAKI
  0
TEXT
  8
_0-0_通り芯
 62
    2
 10
5129.8686
 20
15806.444
 40
400
 41
1
 50
90
  1
ヘドロ上
  0
TEXT
  8
_0-0_通り芯
 62
    7
 10
9653.1783
 20
14258.416
 40
250
 41
1
 50
90
  1
(11.40）
  0
TEXT
  8
_0-0_通り芯
 62
    3
 10
48282.599
 20
32142.844
 40
350
 41
1
 50
0
  1
池底
  0
TEXT
  8
_0-0_通り芯
 62
    2
 10
4171.6653
 20
15087.789
 40
400
 41
1
 50
90
  1
地盤高
  0
TEXT
  8
_0-0_通り芯
 62
    7
 10
9588.231
 20
10525.854
 40
250
 41
1
 50
90
  1
0.00
  0
TEXT
  8
_0-0_通り芯
 62
    2
 10
4168.2428
 20
11873.393
 40
400
 41
1
 50
90
  1
追加距離
  0
TEXT
  8
_0-0_通り芯
 62
    7
 10
14789.916
 20
10418.234
 40
250
 41
1
 50
90
  1
21.00
  0
TEXT
  8
_0-0_通り芯
 62
    7
 10
10628.569
 20
10507.917
 40
250
 41
1
 50
90
  1
5.00
  0
TEXT
  8
_0-0_通り芯
 62
    7
 10
20839.087
 20
16487.777
 40
250
 41
1
 50
90
  1
8.09
  0
TEXT
  8
_0-0_通り芯
 62
    7
 10
26395.05
 20
10418.232
 40
250
 41
1
 50
90
  1
28.00
  0
TEXT
  8
_0-0_通り芯
 62
    7
 10
48810.757
 20
8051.1385
 40
250
 41
1
 50
90
  1
No.7
  0
TEXT
  8
_0-0_通り芯
 62
    7
 10
20793.433
 20
8150.0183
 40
250
 41
1
 50
90
  1
No.2
  0
TEXT
  8
_0-0_通り芯
 62
    7
 10
31673.027
 20
12326.405
 40
250
 41
1
 50
180
  1
111.00
  7
TATEGAKI
  0
TEXT
  8
_0-0_通り芯
 62
    7
 10
26373.373
 20
14453.973
 40
250
 41
1
 50
90
  1
7.70
  0
TEXT
  8
_0-0_通り芯
 62
    3
 10
48232.662
 20
32920.353
 40
350
 41
1
 50
0
  1
ヘドロ上
  0
TEXT
  8
_0-0_通り芯
 62
    7
 10
26300.457
 20
12386.546
 40
250
 41
1
 50
180
  1
84.00
  7
TATEGAKI
  0
TEXT
  8
_0-0_通り芯
 62
    7
 10
37605.587
 20
10382.359
 40
250
 41
1
 50
90
  1
29.00
  0
TEXT
  8
_0-0_通り芯
 62
    2
 10
5180.3022
 20
14280.88
 40
400
 41
1
 50
90
  1
池底
  0
TEXT
  8
_0-0_通り芯
 62
    7
 10
20799.973
 20
14493.087
 40
250
 41
1
 50
90
  1
7.47
  0
TEXT
  8
_0-0_通り芯
 62
    7
 10
20762.886
 20
10418.234
 40
250
 41
1
 50
90
  1
30.00
  0
ENDSEC
  0
EOF
