  0
SECTION
  2
HEADER
  9
$ACADVER
  1
AC1009
  9
$INSBASE
 10
0
 20
0
 30
0
  9
$EXTMIN
 10
0
 20
0
  9
$EXTMAX
 10
84100
 20
59400
  9
$LIMMIN
 10
0
 20
0
  9
$LIMMAX
 10
84100
 20
59400
  9
$LTSCALE
 40
100
  0
ENDSEC
  0
SECTION
  2
TABLES
  0
TABLE
  2
LTYPE
 70
     9
  0
LTYPE
  2
CONTINUOUS
 70
    64
  3
実線
 72
    65
 73
     0
 40
0.0
  0
LTYPE
  2
DASHED1
 70
    64
  3
--  --  --  --  --  --  --  --  
 72
    65
 73
     2
 40
2.5
 49
1.25
 49
-1.25
  0
LTYPE
  2
DASHED2
 70
    64
  3
----    ----    ----    ----    
 72
    65
 73
     2
 40
5.0
 49
2.5
 49
-2.5
  0
LTYPE
  2
DASHED3
 70
    64
  3
------  ------  ------  ------  
 72
    65
 73
     2
 40
5.0
 49
3.75
 49
-1.25
  0
LTYPE
  2
CENTER1
 70
    64
  3
----- - ----- - ----- - ----- - 
 72
    65
 73
     4
 40
10.0
 49
6.25
 49
-1.25
 49
1.25
 49
-1.25
  0
LTYPE
  2
CENTER2
 70
    64
  3
----------  --  ----------  --  
 72
    65
 73
     4
 40
20.0
 49
12.5
 49
-2.5
 49
2.5
 49
-2.5
  0
LTYPE
  2
PHANTOM1
 70
    64
  3
--- - - --- - - --- - - --- - - 
 72
    65
 73
     6
 40
10.0
 49
3.25
 49
-1.25
 49
1.25
 49
-1.25
 49
1.25
 49
-1.25
  0
LTYPE
  2
PHANTOM2
 70
    64
  3
--------  -  -  --------  -  -  
 72
    65
 73
     6
 40
20.0
 49
10.0
 49
-2.5
 49
1.25
 49
-2.5
 49
1.25
 49
-2.5
  0
LTYPE
  2
DOT
 70
    64
  3
-   -   -   -   -   -   -   -   
 72
    65
 73
     2
 40
2.5
 49
0.625
 49
-1.875
  0
LTYPE
  2
DUMMY
 70
    64
  3
ダミー
 72
    65
 73
     0
 40
0.0
  0
LTYPE
  2
RAND1
 70
    64
  3
----- - ----- - ----- - ----- - 
 72
    65
 73
     4
 40
10.0
 49
6.25
 49
-1.25
 49
1.25
 49
-1.25
  0
LTYPE
  2
RAND2
 70
    64
  3
----------  --  ----------  --  
 72
    65
 73
     4
 40
20.0
 49
12.5
 49
-2.5
 49
2.5
 49
-2.5
  0
LTYPE
  2
RAND3
 70
    64
  3
--- - - --- - - --- - - --- - - 
 72
    65
 73
     6
 40
10.0
 49
3.25
 49
-1.25
 49
1.25
 49
-1.25
 49
1.25
 49
-1.25
  0
LTYPE
  2
RAND4
 70
    64
  3
--------  -  -  --------  -  -  
 72
    65
 73
     6
 40
20.0
 49
10.0
 49
-2.5
 49
1.25
 49
-2.5
 49
1.25
 49
-2.5
  0
LTYPE
  2
RAND5
 70
    64
  3
----- - ----- - ----- - ----- - 
 72
    65
 73
     4
 40
10.0
 49
6.25
 49
-1.25
 49
1.25
 49
-1.25
  0
LTYPE
  2
LONG1
 70
    64
  3
----------  --  ----------  --  
 72
    65
 73
     4
 40
20.0
 49
12.5
 49
-2.5
 49
2.5
 49
-2.5
  0
LTYPE
  2
LONG2
 70
    64
  3
--- - - --- - - --- - - --- - - 
 72
    65
 73
     6
 40
10.0
 49
3.25
 49
-1.25
 49
1.25
 49
-1.25
 49
1.25
 49
-1.25
  0
LTYPE
  2
LONG3
 70
    64
  3
--------  -  -  --------  -  -  
 72
    65
 73
     6
 40
20.0
 49
10.0
 49
-2.5
 49
1.25
 49
-2.5
 49
1.25
 49
-2.5
  0
LTYPE
  2
LONG4
 70
    64
  3
----- - ----- - ----- - ----- - 
 72
    65
 73
     4
 40
10.0
 49
6.25
 49
-1.25
 49
1.25
 49
-1.25
  0
LTYPE
  2
LONG5
 70
    64
  3
----------  --  ----------  --  
 72
    65
 73
     4
 40
20.0
 49
12.5
 49
-2.5
 49
2.5
 49
-2.5
  0
ENDTAB
  0
TABLE
  2
STYLE
  5
3
100
AcDbSymbolTable
 70
     1
  0
STYLE
  5
10
100
AcDbSymbolTableRecord
100
AcDbTextStyleTableRecord
  2
STANDARD
 70
     0
 40
0.0
 41
1.0
 50
0.0
 71
     0
 42
0.2
  3
txt
  4
bigfont.shx
  0
ENDTAB
  0
TABLE
  2
LAYER
 70
    2
  0
LAYER
  2
_0-0_通り芯
 70
   64
 62
    7
  6
CONTINUOUS
  0
LAYER
  2
ADD_LINE
 70
   64
 62
    7
  6
CONTINUOUS
  0
ENDTAB
  0
ENDSEC
  0
SECTION
  2
BLOCKS
  0
ENDSEC
  0
SECTION
  2
ENTITIES
  0
LINE
  8
_0-0_通り芯
  6
CONTINUOUS
 62
    6
 10
25386.158
 20
44087.214
 11
6386.1554
 21
44087.214
  0
LINE
  8
_0-0_通り芯
  6
DASHED2
 62
    5
 10
24886.156
 20
46687.196
 11
22886.156
 21
46687.196
  0
LINE
  8
_0-0_通り芯
  6
DASHED2
 62
    5
 10
24886.156
 20
46987.192
 11
22886.156
 21
46987.192
  0
LINE
  8
_0-0_通り芯
  6
CONTINUOUS
 62
    4
 10
21676.952
 20
47547.211
 11
22731.756
 21
47587.19
  0
LINE
  8
_0-0_通り芯
  6
CONTINUOUS
 62
    4
 10
17676.958
 20
47307.191
 11
19676.959
 21
47257.203
  0
LINE
  8
_0-0_通り芯
  6
CONTINUOUS
 62
    4
 10
22731.756
 20
47587.19
 11
22731.756
 21
49387.208
  0
LINE
  8
_0-0_通り芯
  6
CONTINUOUS
 62
    4
 10
23386.156
 20
50487.214
 11
23886.156
 21
50487.214
  0
LINE
  8
_0-0_通り芯
  6
CONTINUOUS
 62
    3
 10
22731.756
 20
49387.208
 11
22751.758
 21
49387.208
  0
LINE
  8
_0-0_通り芯
  6
CONTINUOUS
 62
    4
 10
9676.9593
 20
48157.197
 11
10567.956
 21
48037.2
  0
LINE
  8
_0-0_通り芯
  6
CONTINUOUS
 62
    4
 10
23744.761
 20
50487.214
 11
23886.156
 21
50487.214
  0
LINE
  8
_0-0_通り芯
  6
DASHED1
 62
    3
 10
15676.556
 20
47637.208
 11
17677.157
 21
47567.198
  0
LINE
  8
_0-0_通り芯
  6
CONTINUOUS
 62
    4
 10
8891.1558
 20
48687.195
 11
9676.9593
 21
48157.197
  0
LINE
  8
_0-0_通り芯
  6
CONTINUOUS
 62
    5
 10
8888.1712
 20
48937.214
 11
10627.557
 21
48937.214
  0
LINE
  8
_0-0_通り芯
  6
CONTINUOUS
 62
    4
 10
18607.034
 20
48834.473
 11
17807.04
 21
48834.473
  0
LINE
  8
_0-0_通り芯
  6
CENTER1
 62
    6
 10
23886.156
 20
51177.104
 11
23886.156
 21
49557.526
  0
LINE
  8
_0-0_通り芯
  6
CONTINUOUS
 62
    5
 10
12454.754
 20
48937.214
 11
22723.385
 21
48937.214
  0
LINE
  8
_0-0_通り芯
  6
CENTER1
 62
    6
 10
7828.3566
 20
51929.389
 11
7828.3566
 21
50234.515
  0
LINE
  8
_0-0_通り芯
  6
CONTINUOUS
 62
    4
 10
15676.354
 20
47507.202
 11
17676.958
 21
47307.191
  0
LINE
  8
_0-0_通り芯
  6
CONTINUOUS
 62
    4
 10
12632.158
 20
47687.196
 11
13676.958
 21
47587.19
  0
LINE
  8
_0-0_通り芯
  6
CONTINUOUS
 62
    4
 10
17680.157
 20
33600.064
 11
19680.16
 21
33470.058
  0
LINE
  8
_0-0_通り芯
  6
CONTINUOUS
 62
    4
 10
21680.158
 20
33180.08
 11
23386.156
 21
32960.085
  0
LINE
  8
_0-0_通り芯
  6
CONTINUOUS
 62
    4
 10
15680.157
 20
33750.062
 11
17680.157
 21
33600.064
  0
LINE
  8
_0-0_通り芯
  6
CONTINUOUS
 62
    4
 10
13680.157
 20
34290.066
 11
15680.157
 21
33750.062
  0
LINE
  8
_0-0_通り芯
  6
CONTINUOUS
 62
    4
 10
10567.956
 20
48037.2
 11
10627.557
 21
48937.194
  0
LINE
  8
_0-0_通り芯
  6
CONTINUOUS
 62
    4
 10
12454.754
 20
48937.194
 11
12632.158
 21
47687.196
  0
LINE
  8
_0-0_通り芯
  6
CONTINUOUS
 62
    4
 10
19676.959
 20
47257.203
 11
21676.952
 21
47547.211
  0
LINE
  8
_0-0_通り芯
  6
CONTINUOUS
 62
    4
 10
18007.033
 20
49159.179
 11
18407.034
 21
49159.179
  0
LINE
  8
_0-0_通り芯
  6
CONTINUOUS
 62
    3
 10
8891.1558
 20
49387.208
 11
8871.1562
 21
49387.208
  0
LINE
  8
_0-0_通り芯
  6
CONTINUOUS
 62
    4
 10
13676.958
 20
47587.19
 11
15676.354
 21
47507.202
  0
LINE
  8
_0-0_通り芯
  6
CONTINUOUS
 62
    3
 10
8871.1562
 20
49387.208
 11
8777.5572
 21
50787.2
  0
LINE
  8
_0-0_通り芯
  6
CONTINUOUS
 62
    3
 10
22751.758
 20
49387.208
 11
23386.156
 21
50487.214
  0
LINE
  8
_0-0_通り芯
  6
DASHED1
 62
    3
 10
17677.157
 20
47567.198
 11
19677.157
 21
47427.213
  0
LINE
  8
_0-0_通り芯
  6
CONTINUOUS
 62
    3
 10
14503.893
 20
52249.68
 11
15903.894
 21
54349.68
  0
LINE
  8
_0-0_通り芯
  6
CONTINUOUS
 62
    6
 10
15903.894
 20
54349.68
 11
15903.894
 21
52249.68
  0
LINE
  8
_0-0_通り芯
  6
CONTINUOUS
 62
    6
 10
13218.25
 20
49779.773
 11
15629.944
 21
49779.773
  0
LINE
  8
_0-0_通り芯
  6
CONTINUOUS
 62
    6
 10
24378.528
 20
53083.312
 11
22379.688
 21
53083.921
  0
LINE
  8
_0-0_通り芯
  6
CONTINUOUS
 62
    3
 10
14503.893
 20
52249.68
 11
15903.894
 21
52249.68
  0
LINE
  8
_0-0_通り芯
  6
CONTINUOUS
 62
    4
 10
18257.033
 20
48634.472
 11
18157.034
 21
48634.472
  0
LINE
  8
_0-0_通り芯
  6
CONTINUOUS
 62
    4
 10
18357.034
 20
48734.483
 11
18057.034
 21
48734.483
  0
LINE
  8
_0-0_通り芯
  6
DASHED1
 62
    6
 10
13336.865
 20
50610.035
 11
15629.944
 21
50610.035
  0
LINE
  8
_0-0_通り芯
  6
CONTINUOUS
 62
    4
 10
31636.559
 20
4965.799
 11
33636.56
 21
4885.8124
  0
LINE
  8
_0-0_通り芯
  6
CONTINUOUS
 62
    4
 10
33636.56
 20
4885.8124
 11
35636.56
 21
6085.8245
  0
LINE
  8
_0-0_通り芯
  6
CONTINUOUS
 62
    4
 10
29636.559
 20
4975.8087
 11
31636.559
 21
4965.799
  0
LINE
  8
_0-0_通り芯
  6
CONTINUOUS
 62
    4
 10
25636.56
 20
5415.8113
 11
27636.56
 21
5115.8233
  0
LINE
  8
_0-0_通り芯
  6
CONTINUOUS
 62
    4
 10
27636.56
 20
5115.8233
 11
29636.559
 21
4975.8087
  0
LINE
  8
_0-0_通り芯
  6
CONTINUOUS
 62
    6
 10
41386.156
 20
2935.8123
 11
8386.1572
 21
2935.8123
  0
LINE
  8
_0-0_通り芯
  6
CONTINUOUS
 62
    5
 10
38281.945
 20
7785.8126
 11
10239.416
 21
7785.8126
  0
LINE
  8
_0-0_通り芯
  6
CONTINUOUS
 62
    4
 10
23389.171
 20
47143.443
 11
23386.939
 21
47143.458
  0
LINE
  8
_0-0_通り芯
  6
CENTER2
 62
    6
 10
23388.207
 20
52070.276
 11
23386.156
 21
44087.214
  0
LINE
  8
_0-0_通り芯
  6
CONTINUOUS
 62
    3
 10
7468.3564
 20
50987.201
 11
7668.3561
 21
50787.2
  0
LINE
  8
_0-0_通り芯
  6
DASHED1
 62
    3
 10
19677.157
 20
47427.213
 11
21677.158
 21
47547.211
  0
LINE
  8
_0-0_通り芯
  6
CONTINUOUS
 62
    6
 10
24378.528
 20
53083.629
 11
22379.688
 21
53084.238
  0
LINE
  8
_0-0_通り芯
  6
DASHED1
 62
    3
 10
13677.157
 20
47787.201
 11
15676.556
 21
47637.208
  0
LINE
  8
_0-0_通り芯
  6
CONTINUOUS
 62
    4
 10
8891.1558
 20
49387.208
 11
8891.1558
 21
48687.195
  0
LINE
  8
_0-0_通り芯
  6
CONTINUOUS
 62
    6
 10
24378.528
 20
52083.644
 11
22379.688
 21
52084.238
  0
LINE
  8
_0-0_通り芯
  6
CONTINUOUS
 62
    4
 10
7828.3566
 20
50787.2
 11
8777.5572
 21
50787.2
  0
LINE
  8
_0-0_通り芯
  6
CONTINUOUS
 62
    6
 10
24378.528
 20
52083.327
 11
22379.688
 21
52083.921
  0
LINE
  8
_0-0_通り芯
  6
CONTINUOUS
 62
    4
 10
18207.034
 20
48934.474
 11
18007.033
 21
49159.179
  0
LINE
  8
_0-0_通り芯
  6
CONTINUOUS
 62
    4
 10
18407.034
 20
49159.179
 11
18207.034
 21
48934.474
  0
LINE
  8
_0-0_通り芯
  6
DASHED1
 62
    3
 10
23386.156
 20
47177.22
 11
23386.156
 21
46677.222
  0
LINE
  8
_0-0_通り芯
  6
DASHED1
 62
    3
 10
23386.156
 20
47337.231
 11
23386.156
 21
47037.22
  0
LINE
  8
_0-0_通り芯
  6
DASHED1
 62
    3
 10
23386.156
 20
47277.21
 11
23386.156
 21
46787.221
  0
LINE
  8
_0-0_通り芯
  6
CONTINUOUS
 62
    6
 10
24388.72
 20
54083.911
 11
22388.72
 21
54082.509
  0
LINE
  8
_0-0_通り芯
  6
DASHED1
 62
    3
 10
23386.156
 20
33460.084
 11
23386.156
 21
32960.085
  0
LINE
  8
_0-0_通り芯
  6
CONTINUOUS
 62
    6
 10
33386.16
 20
30370.081
 11
8386.1572
 21
30370.081
  0
LINE
  8
_0-0_通り芯
  6
CONTINUOUS
 62
    3
 10
11606.356
 20
37170.07
 11
11446.355
 21
37170.07
  0
LINE
  8
_0-0_通り芯
  6
DASHED1
 62
    3
 10
13677.157
 20
47787.201
 11
12605.299
 21
47787.201
  0
LINE
  8
_0-0_通り芯
  6
CONTINUOUS
 62
    5
 10
32191.622
 20
35220.084
 11
11737.682
 21
35220.084
  0
LINE
  8
_0-0_通り芯
  6
DASHED1
 62
    3
 10
23386.156
 20
33460.084
 11
23680.157
 21
33440.09
  0
LINE
  8
_0-0_通り芯
  6
DASHED1
 62
    3
 10
15680.157
 20
34000.088
 11
17680.157
 21
33870.082
  0
LINE
  8
_0-0_通り芯
  6
CONTINUOUS
 62
    3
 10
11246.356
 20
37370.071
 11
11446.355
 21
37170.07
  0
LINE
  8
_0-0_通り芯
  6
DASHED1
 62
    6
 10
27621.188
 20
37028.946
 11
29914.267
 21
37028.946
  0
LINE
  8
_0-0_通り芯
  6
CONTINUOUS
 62
    3
 10
7468.3564
 20
50987.201
 11
6762.2162
 21
50987.201
  0
LINE
  8
_0-0_通り芯
  6
CONTINUOUS
 62
    6
 10
27502.573
 20
36198.684
 11
29914.267
 21
36198.684
  0
LINE
  8
_0-0_通り芯
  6
CONTINUOUS
 62
    4
 10
32193.356
 20
33270.082
 11
32193.356
 21
35670.071
  0
LINE
  8
_0-0_通り芯
  6
CONTINUOUS
 62
    4
 10
7828.3566
 20
50787.2
 11
7962.3568
 21
50787.2
  0
LINE
  8
_0-0_通り芯
  6
CONTINUOUS
 62
    3
 10
28788.218
 20
38668.593
 11
30188.217
 21
40768.593
  0
LINE
  8
_0-0_通り芯
  6
CONTINUOUS
 62
    3
 10
7828.3566
 20
50787.2
 11
7668.3561
 21
50787.2
  0
LINE
  8
_0-0_通り芯
  6
CONTINUOUS
 62
    4
 10
23720.952
 20
50487.214
 11
23886.156
 21
50487.214
  0
LINE
  8
_0-0_通り芯
  6
CONTINUOUS
 62
    3
 10
11246.356
 20
37370.071
 11
10540.216
 21
37370.071
  0
LINE
  8
_0-0_通り芯
  6
CONTINUOUS
 62
    4
 10
60564.172
 20
46707.228
 11
62564.171
 21
46617.201
  0
LINE
  8
_0-0_通り芯
  6
CONTINUOUS
 62
    4
 10
56564.173
 20
46937.205
 11
58564.172
 21
46917.217
  0
LINE
  8
_0-0_通り芯
  6
CONTINUOUS
 62
    4
 10
58564.172
 20
46917.217
 11
60564.172
 21
46707.228
  0
LINE
  8
_0-0_通り芯
  6
CONTINUOUS
 62
    4
 10
64564.171
 20
46387.219
 11
66564.17
 21
46467.203
  0
LINE
  8
_0-0_通り芯
  6
DASHED1
 62
    3
 10
58564.172
 20
47287.214
 11
60564.172
 21
47237.226
  0
LINE
  8
_0-0_通り芯
  6
DASHED1
 62
    3
 10
60564.172
 20
47237.226
 11
62564.171
 21
47137.22
  0
LINE
  8
_0-0_通り芯
  6
CONTINUOUS
 62
    4
 10
62564.171
 20
46617.201
 11
64564.171
 21
46387.219
  0
LINE
  8
_0-0_通り芯
  6
DASHED1
 62
    3
 10
15680.157
 20
34000.088
 11
14752.557
 21
34000.088
  0
LINE
  8
_0-0_通り芯
  6
CONTINUOUS
 62
    4
 10
23680.157
 20
32900.088
 11
25680.157
 21
32780.093
  0
LINE
  8
_0-0_通り芯
  6
CONTINUOUS
 62
    4
 10
23386.156
 20
32960.085
 11
23680.157
 21
32900.088
  0
LINE
  8
_0-0_通り芯
  6
CONTINUOUS
 62
    6
 10
30188.217
 20
40768.593
 11
30188.217
 21
38668.593
  0
LINE
  8
_0-0_通り芯
  6
DASHED1
 62
    3
 10
27680.156
 20
33300.075
 11
29680.158
 21
33390.077
  0
LINE
  8
_0-0_通り芯
  6
CONTINUOUS
 62
    6
 10
24388.72
 20
40366.776
 11
22388.72
 21
40365.371
  0
LINE
  8
_0-0_通り芯
  6
CONTINUOUS
 62
    3
 10
28788.218
 20
38668.593
 11
30188.217
 21
38668.593
  0
LINE
  8
_0-0_通り芯
  6
DASHED1
 62
    3
 10
29680.158
 20
33390.077
 11
32172.495
 21
33390.077
  0
LINE
  8
_0-0_通り芯
  6
DASHED1
 62
    3
 10
25680.157
 20
33400.088
 11
27680.156
 21
33300.075
  0
LINE
  8
_0-0_通り芯
  6
DASHED1
 62
    3
 10
23386.156
 20
33620.096
 11
23386.156
 21
33320.082
  0
LINE
  8
_0-0_通り芯
  6
CONTINUOUS
 62
    4
 10
22957.301
 20
35017.154
 11
22657.299
 21
35017.154
  0
LINE
  8
_0-0_通り芯
  6
DASHED1
 62
    3
 10
23386.156
 20
33560.072
 11
23386.156
 21
33070.084
  0
LINE
  8
_0-0_通り芯
  6
CONTINUOUS
 62
    6
 10
24378.528
 20
38366.506
 11
22379.688
 21
38367.106
  0
LINE
  8
_0-0_通り芯
  6
CONTINUOUS
 62
    3
 10
32213.356
 20
35670.071
 11
32860.951
 21
36770.083
  0
LINE
  8
_0-0_通り芯
  6
CENTER2
 62
    6
 10
23388.207
 20
38353.141
 11
23386.156
 21
30370.081
  0
LINE
  8
_0-0_通り芯
  6
CONTINUOUS
 62
    4
 10
23207.299
 20
35117.14
 11
22407.305
 21
35117.14
  0
LINE
  8
_0-0_通り芯
  6
CENTER1
 62
    6
 10
33026.155
 20
37459.977
 11
33026.155
 21
35840.396
  0
LINE
  8
_0-0_通り芯
  6
CENTER1
 62
    6
 10
11606.356
 20
38312.257
 11
11606.356
 21
36617.385
  0
LINE
  8
_0-0_通り芯
  6
CONTINUOUS
 62
    4
 10
19680.16
 20
33470.058
 11
21680.158
 21
33180.08
  0
LINE
  8
_0-0_通り芯
  6
CONTINUOUS
 62
    4
 10
11606.356
 20
37170.07
 11
11740.355
 21
37170.07
  0
LINE
  8
_0-0_通り芯
  6
DASHED1
 62
    3
 10
19680.157
 20
33710.086
 11
21680.158
 21
33540.103
  0
LINE
  8
_0-0_通り芯
  6
CONTINUOUS
 62
    4
 10
22857.3
 20
34917.142
 11
22757.3
 21
34917.142
  0
LINE
  8
_0-0_通り芯
  6
DASHED1
 62
    3
 10
17680.157
 20
33870.082
 11
19680.157
 21
33710.086
  0
LINE
  8
_0-0_通り芯
  6
DASHED1
 62
    3
 10
21680.158
 20
33540.103
 11
23386.156
 21
33460.084
  0
LINE
  8
_0-0_通り芯
  6
CONTINUOUS
 62
    6
 10
24378.528
 20
39366.493
 11
22379.688
 21
39367.105
  0
LINE
  8
_0-0_通り芯
  6
CONTINUOUS
 62
    4
 10
29680.158
 20
32840.089
 11
32193.356
 21
33270.082
  0
LINE
  8
_0-0_通り芯
  6
CONTINUOUS
 62
    4
 10
32884.761
 20
36770.083
 11
33026.155
 21
36770.083
  0
LINE
  8
_0-0_通り芯
  6
CONTINUOUS
 62
    4
 10
23389.171
 20
33426.308
 11
23386.939
 21
33426.321
  0
LINE
  8
_0-0_通り芯
  6
CONTINUOUS
 62
    4
 10
25680.157
 20
32780.093
 11
27680.156
 21
32670.072
  0
LINE
  8
_0-0_通り芯
  6
DASHED1
 62
    3
 10
23680.157
 20
33440.09
 11
25680.157
 21
33400.088
  0
LINE
  8
_0-0_通り芯
  6
CONTINUOUS
 62
    4
 10
32860.951
 20
36770.083
 11
33026.155
 21
36770.083
  0
LINE
  8
_0-0_通り芯
  6
CONTINUOUS
 62
    4
 10
27680.156
 20
32670.072
 11
29680.158
 21
32840.089
  0
LINE
  8
_0-0_通り芯
  6
CONTINUOUS
 62
    6
 10
24378.528
 20
38366.189
 11
22379.688
 21
38366.786
  0
LINE
  8
_0-0_通り芯
  6
CONTINUOUS
 62
    4
 10
11740.957
 20
35670.071
 11
11740.957
 21
34870.082
  0
LINE
  8
_0-0_通り芯
  6
CONTINUOUS
 62
    4
 10
23007.298
 20
35441.848
 11
22807.3
 21
35217.141
  0
LINE
  8
_0-0_通り芯
  6
CONTINUOUS
 62
    6
 10
24378.528
 20
39366.176
 11
22379.688
 21
39366.788
  0
LINE
  8
_0-0_通り芯
  6
CONTINUOUS
 62
    4
 10
11740.957
 20
34870.082
 11
13680.157
 21
34290.066
  0
LINE
  8
_0-0_通り芯
  6
CONTINUOUS
 62
    4
 10
22607.299
 20
35441.848
 11
23007.298
 21
35441.848
  0
LINE
  8
_0-0_通り芯
  6
CONTINUOUS
 62
    4
 10
22807.3
 20
35217.141
 11
22607.299
 21
35441.848
  0
LINE
  8
_0-0_通り芯
  6
CONTINUOUS
 62
    4
 10
11740.355
 20
37170.07
 11
11740.957
 21
35670.071
  0
LINE
  8
_0-0_通り芯
  6
CONTINUOUS
 62
    4
 10
37479.964
 20
22952.933
 11
37621.358
 21
22952.933
  0
LINE
  8
_0-0_通り芯
  6
CONTINUOUS
 62
    4
 10
24122.356
 20
18982.931
 11
26122.358
 21
19022.939
  0
LINE
  8
_0-0_通り芯
  6
CONTINUOUS
 62
    6
 10
34133.414
 20
26936.673
 11
34133.414
 21
24836.673
  0
LINE
  8
_0-0_通り芯
  6
DASHED1
 62
    3
 10
16122.357
 20
20022.94
 11
18122.356
 21
20022.94
  0
LINE
  8
_0-0_通り芯
  6
CONTINUOUS
 62
    4
 10
12043.958
 20
23552.938
 11
12280.755
 21
23552.938
  0
LINE
  8
_0-0_通り芯
  6
CENTER1
 62
    6
 10
12043.958
 20
24695.125
 11
12043.958
 21
23000.253
  0
LINE
  8
_0-0_通り芯
  6
DASHED1
 62
    3
 10
14122.356
 20
20232.962
 11
16122.357
 21
20022.94
  0
LINE
  8
_0-0_通り芯
  6
CONTINUOUS
 62
    6
 10
31447.768
 20
22366.764
 11
33859.462
 21
22366.764
  0
LINE
  8
_0-0_通り芯
  6
CONTINUOUS
 62
    4
 10
22122.557
 20
19342.947
 11
23386.156
 21
19122.946
  0
LINE
  8
_0-0_通り芯
  6
CONTINUOUS
 62
    3
 10
32733.413
 20
24836.673
 11
34133.414
 21
26936.673
  0
LINE
  8
_0-0_通り芯
  6
CONTINUOUS
 62
    6
 10
24378.528
 20
24649.369
 11
22379.688
 21
24649.966
  0
LINE
  8
_0-0_通り芯
  6
CONTINUOUS
 62
    4
 10
20122.558
 20
19442.953
 11
22122.557
 21
19342.947
  0
LINE
  8
_0-0_通り芯
  6
DASHED1
 62
    6
 10
31566.385
 20
23197.023
 11
33859.462
 21
23197.023
  0
LINE
  8
_0-0_通り芯
  6
CONTINUOUS
 62
    3
 10
32733.413
 20
24836.673
 11
34133.414
 21
24836.673
  0
LINE
  8
_0-0_通り芯
  6
DASHED1
 62
    3
 10
23386.156
 20
19742.941
 11
24122.356
 21
19752.95
  0
LINE
  8
_0-0_通り芯
  6
DASHED1
 62
    3
 10
23386.156
 20
19742.941
 11
23386.156
 21
19122.946
  0
LINE
  8
_0-0_通り芯
  6
DASHED1
 62
    3
 10
23386.156
 20
19842.935
 11
23386.156
 21
19352.945
  0
LINE
  8
_0-0_通り芯
  6
CONTINUOUS
 62
    4
 10
22957.301
 20
21300.014
 11
22657.299
 21
21300.014
  0
LINE
  8
_0-0_通り芯
  6
CONTINUOUS
 62
    4
 10
37479.159
 20
22952.933
 11
37621.358
 21
22952.933
  0
LINE
  8
_0-0_通り芯
  6
CONTINUOUS
 62
    4
 10
22857.3
 20
21200.002
 11
22757.3
 21
21200.002
  0
LINE
  8
_0-0_通り芯
  6
CONTINUOUS
 62
    4
 10
12280.755
 20
23552.938
 11
12487.557
 21
21952.933
  0
LINE
  8
_0-0_通り芯
  6
CONTINUOUS
 62
    4
 10
23386.156
 20
19122.946
 11
24122.356
 21
18982.931
  0
LINE
  8
_0-0_通り芯
  6
CONTINUOUS
 62
    4
 10
23007.298
 20
21724.71
 11
22807.3
 21
21500.003
  0
LINE
  8
_0-0_通り芯
  6
CONTINUOUS
 62
    6
 10
38386.154
 20
16652.945
 11
8386.1554
 21
16652.945
  0
LINE
  8
_0-0_通り芯
  6
CONTINUOUS
 62
    3
 10
11683.956
 20
23752.939
 11
10977.817
 21
23752.939
  0
LINE
  8
_0-0_通り芯
  6
CONTINUOUS
 62
    4
 10
36821.359
 20
20752.95
 11
36821.359
 21
22002.951
  0
LINE
  8
_0-0_通り芯
  6
CENTER1
 62
    6
 10
37621.358
 20
23642.824
 11
37621.358
 21
22023.245
  0
LINE
  8
_0-0_通り芯
  6
CONTINUOUS
 62
    3
 10
12043.958
 20
23552.938
 11
11883.956
 21
23552.938
  0
LINE
  8
_0-0_通り芯
  6
CONTINUOUS
 62
    3
 10
11683.956
 20
23752.939
 11
11883.956
 21
23552.938
  0
LINE
  8
_0-0_通り芯
  6
CONTINUOUS
 62
    5
 10
36820.247
 20
21502.944
 11
12488.482
 21
21502.944
  0
LINE
  8
_0-0_通り芯
  6
CONTINUOUS
 62
    3
 10
32193.356
 20
35670.071
 11
32213.356
 21
35670.071
  0
LINE
  8
_0-0_通り芯
  6
CONTINUOUS
 62
    3
 10
36821.359
 20
22002.951
 11
36841.359
 21
22002.951
  0
LINE
  8
ADD_LINE
  6
DOT
 62
    4
 10
55425.17
 20
1256.5598
 11
55425.17
 21
58189.246
  0
LINE
  8
ADD_LINE
  6
DOT
 62
    4
 10
28386.157
 20
1096.1861
 11
28386.157
 21
57996.796
  0
LINE
  8
ADD_LINE
  6
DOT
 62
    4
 10
1347.1395
 20
57804.346
 11
82945.305
 21
57804.346
  0
LINE
  8
_0-0_通り芯
  6
CONTINUOUS
 62
    4
 10
14122.554
 20
19902.945
 11
16122.555
 21
19702.933
  0
LINE
  8
_0-0_通り芯
  6
CONTINUOUS
 62
    4
 10
12487.557
 20
21952.933
 11
12487.557
 21
19902.945
  0
LINE
  8
_0-0_通り芯
  6
CONTINUOUS
 62
    4
 10
16122.555
 20
19702.933
 11
18122.558
 21
19702.933
  0
LINE
  8
_0-0_通り芯
  6
CONTINUOUS
 62
    4
 10
18122.558
 20
19702.933
 11
20122.558
 21
19442.953
  0
LINE
  8
ADD_LINE
  6
DOT
 62
    4
 10
1347.1395
 20
2935.8123
 11
82752.864
 21
2935.8123
  0
LINE
  8
ADD_LINE
  6
DOT
 62
    4
 10
82464.189
 20
1416.9335
 11
82464.189
 21
58381.696
  0
LINE
  8
ADD_LINE
  6
DOT
 62
    4
 10
1347.1395
 20
935.81241
 11
1347.1395
 21
57804.346
  0
LINE
  8
ADD_LINE
  6
DOT
 62
    4
 10
23386.156
 20
1096.1861
 11
23386.156
 21
57996.796
  0
LINE
  8
ADD_LINE
  6
DOT
 62
    4
 10
1347.1395
 20
935.81241
 11
82752.864
 21
935.81241
  0
LINE
  8
ADD_LINE
  6
DOT
 62
    4
 10
1347.1395
 20
16652.945
 11
82800.974
 21
16652.945
  0
LINE
  8
ADD_LINE
  6
DOT
 62
    4
 10
1347.1395
 20
30370.081
 11
82849.084
 21
30370.081
  0
LINE
  8
ADD_LINE
  6
DOT
 62
    4
 10
1347.1395
 20
44087.214
 11
82897.19
 21
44087.214
  0
LINE
  8
_0-0_通り芯
  6
DASHED1
 62
    3
 10
26122.358
 20
19652.945
 11
28122.357
 21
19452.933
  0
LINE
  8
_0-0_通り芯
  6
CENTER2
 62
    6
 10
23388.207
 20
24636.001
 11
23386.156
 21
16652.945
  0
LINE
  8
_0-0_通り芯
  6
CONTINUOUS
 62
    4
 10
34122.358
 20
19902.945
 11
36821.359
 21
20752.95
  0
LINE
  8
_0-0_通り芯
  6
CONTINUOUS
 62
    4
 10
30122.356
 20
18642.934
 11
32122.356
 21
18302.939
  0
LINE
  8
_0-0_通り芯
  6
CONTINUOUS
 62
    6
 10
24388.72
 20
26649.635
 11
22388.72
 21
26648.233
  0
LINE
  8
_0-0_通り芯
  6
CONTINUOUS
 62
    3
 10
36841.359
 20
22002.951
 11
37479.159
 21
22952.933
  0
LINE
  8
_0-0_通り芯
  6
DASHED1
 62
    3
 10
23386.156
 20
19902.963
 11
23386.156
 21
19602.945
  0
LINE
  8
_0-0_通り芯
  6
CONTINUOUS
 62
    6
 10
24378.528
 20
25649.356
 11
22379.688
 21
25649.965
  0
LINE
  8
_0-0_通り芯
  6
CONTINUOUS
 62
    4
 10
26122.358
 20
19022.939
 11
28122.357
 21
18792.96
  0
LINE
  8
_0-0_通り芯
  6
CONTINUOUS
 62
    4
 10
28122.357
 20
18792.96
 11
30122.356
 21
18642.934
  0
LINE
  8
_0-0_通り芯
  6
CONTINUOUS
 62
    4
 10
12487.557
 20
19902.945
 11
14122.554
 21
19902.945
  0
LINE
  8
_0-0_通り芯
  6
DASHED1
 62
    3
 10
24122.356
 20
19752.95
 11
26122.358
 21
19652.945
  0
LINE
  8
_0-0_通り芯
  6
DASHED1
 62
    3
 10
30122.356
 20
19412.955
 11
32122.356
 21
19122.946
  0
LINE
  8
_0-0_通り芯
  6
CONTINUOUS
 62
    4
 10
32122.356
 20
18302.939
 11
34122.358
 21
19902.945
  0
LINE
  8
_0-0_通り芯
  6
DASHED1
 62
    3
 10
32122.356
 20
19122.946
 11
34122.358
 21
19902.945
  0
LINE
  8
_0-0_通り芯
  6
DASHED1
 62
    3
 10
28122.357
 20
19452.933
 11
30122.356
 21
19412.955
  0
LINE
  8
_0-0_通り芯
  6
CONTINUOUS
 62
    4
 10
22807.3
 20
21500.003
 11
22607.299
 21
21724.71
  0
LINE
  8
_0-0_通り芯
  6
DASHED1
 62
    3
 10
29636.559
 20
5865.8233
 11
31636.559
 21
5855.8136
  0
LINE
  8
_0-0_通り芯
  6
DASHED1
 62
    3
 10
27636.56
 20
5935.8003
 11
29636.559
 21
5865.8233
  0
LINE
  8
_0-0_通り芯
  6
CONTINUOUS
 62
    4
 10
23386.156
 20
5635.8125
 11
23636.559
 21
5615.8234
  0
LINE
  8
_0-0_通り芯
  6
CONTINUOUS
 62
    4
 10
23636.559
 20
5615.8234
 11
25636.56
 21
5415.8113
  0
LINE
  8
_0-0_通り芯
  6
CONTINUOUS
 62
    4
 10
21636.559
 20
5815.8051
 11
23386.156
 21
5635.8125
  0
LINE
  8
_0-0_通り芯
  6
CONTINUOUS
 62
    4
 10
17636.559
 20
5985.8184
 11
19636.56
 21
6015.8172
  0
LINE
  8
_0-0_通り芯
  6
CONTINUOUS
 62
    4
 10
19636.56
 20
6015.8172
 11
21636.559
 21
5815.8051
  0
LINE
  8
_0-0_通り芯
  6
CONTINUOUS
 62
    6
 10
24388.72
 20
12932.504
 11
22388.72
 21
12931.099
  0
LINE
  8
_0-0_通り芯
  6
CONTINUOUS
 62
    4
 10
10248.956
 20
7535.8065
 11
11636.56
 21
7035.806
  0
LINE
  8
_0-0_通り芯
  6
CONTINUOUS
 62
    4
 10
22857.3
 20
7482.8706
 11
22757.3
 21
7482.8706
  0
LINE
  8
_0-0_通り芯
  6
CONTINUOUS
 62
    4
 10
9831.3598
 20
8635.8122
 11
9563.5558
 21
8635.8122
  0
LINE
  8
_0-0_通り芯
  6
CONTINUOUS
 62
    4
 10
22957.301
 20
7582.8828
 11
22657.299
 21
7582.8828
  0
LINE
  8
_0-0_通り芯
  6
CONTINUOUS
 62
    4
 10
23007.298
 20
8007.5776
 11
22807.3
 21
7782.8707
  0
LINE
  8
_0-0_通り芯
  6
CONTINUOUS
 62
    4
 10
22807.3
 20
7782.8707
 11
22607.299
 21
8007.5776
  0
LINE
  8
_0-0_通り芯
  6
DASHED1
 62
    3
 10
11636.56
 20
7035.806
 11
13636.559
 21
6645.7915
  0
LINE
  8
_0-0_通り芯
  6
DASHED1
 62
    3
 10
25636.56
 20
6015.8172
 11
27636.56
 21
5935.8003
  0
LINE
  8
_0-0_通り芯
  6
DASHED1
 62
    3
 10
23386.156
 20
6185.8305
 11
23386.156
 21
5885.8124
  0
LINE
  8
_0-0_通り芯
  6
CONTINUOUS
 62
    6
 10
24378.528
 20
11932.223
 11
22379.688
 21
11932.834
  0
LINE
  8
_0-0_通り芯
  6
CONTINUOUS
 62
    6
 10
24378.528
 20
10932.235
 11
22379.688
 21
10932.833
  0
LINE
  8
_0-0_通り芯
  6
CONTINUOUS
 62
    6
 10
24378.528
 20
10931.918
 11
22379.688
 21
10932.516
  0
LINE
  8
_0-0_通り芯
  6
CENTER2
 62
    6
 10
23388.207
 20
10918.868
 11
23386.156
 21
2935.8123
  0
LINE
  8
_0-0_通り芯
  6
CONTINUOUS
 62
    4
 10
23389.171
 20
5992.0378
 11
23386.939
 21
5992.0502
  0
LINE
  8
_0-0_通り芯
  6
CONTINUOUS
 62
    4
 10
22607.299
 20
8007.5776
 11
23007.298
 21
8007.5776
  0
LINE
  8
_0-0_通り芯
  6
CONTINUOUS
 62
    6
 10
35273.731
 20
13473.514
 11
35273.731
 21
11373.513
  0
LINE
  8
_0-0_通り芯
  6
DASHED1
 62
    3
 10
33636.56
 20
5785.8064
 11
35636.56
 21
6085.8245
  0
LINE
  8
_0-0_通り芯
  6
DASHED1
 62
    3
 10
31636.559
 20
5855.8136
 11
33636.56
 21
5785.8064
  0
LINE
  8
_0-0_通り芯
  6
CONTINUOUS
 62
    4
 10
38782.958
 20
9235.8187
 11
39093.555
 21
9235.8187
  0
LINE
  8
_0-0_通り芯
  6
CONTINUOUS
 62
    4
 10
35636.56
 20
6085.8245
 11
38281.749
 21
7035.806
  0
LINE
  8
_0-0_通り芯
  6
CONTINUOUS
 62
    4
 10
38281.749
 20
7035.806
 11
38281.749
 21
8235.8184
  0
LINE
  8
_0-0_通り芯
  6
DASHED1
 62
    3
 10
23636.559
 20
6115.8233
 11
25636.56
 21
6015.8172
  0
LINE
  8
_0-0_通り芯
  6
DASHED1
 62
    3
 10
23386.156
 20
6125.8026
 11
23636.559
 21
6115.8233
  0
LINE
  8
_0-0_通り芯
  6
DASHED1
 62
    3
 10
13636.559
 20
6645.7915
 11
15636.56
 21
6545.8159
  0
LINE
  8
_0-0_通り芯
  6
DASHED1
 62
    3
 10
15636.56
 20
6545.8159
 11
17636.559
 21
6365.7928
  0
LINE
  8
_0-0_通り芯
  6
DASHED1
 62
    3
 10
17636.559
 20
6365.7928
 11
19636.56
 21
6315.805
  0
LINE
  8
_0-0_通り芯
  6
DASHED1
 62
    3
 10
14122.356
 20
20232.962
 11
12482.316
 21
20232.962
  0
LINE
  8
_0-0_通り芯
  6
DASHED1
 62
    3
 10
19636.56
 20
6315.805
 11
21636.559
 21
6235.8184
  0
LINE
  8
_0-0_通り芯
  6
CONTINUOUS
 62
    4
 10
11636.56
 20
7035.806
 11
13636.559
 21
6335.8244
  0
LINE
  8
_0-0_通り芯
  6
CONTINUOUS
 62
    4
 10
10248.956
 20
8235.8184
 11
10248.956
 21
7535.8065
  0
LINE
  8
_0-0_通り芯
  6
CONTINUOUS
 62
    4
 10
13636.559
 20
6335.8244
 11
15636.56
 21
6145.822
  0
LINE
  8
_0-0_通り芯
  6
CONTINUOUS
 62
    4
 10
23207.299
 20
21400.002
 11
22407.305
 21
21400.002
  0
LINE
  8
_0-0_通り芯
  6
DASHED1
 62
    3
 10
18122.356
 20
20022.94
 11
20122.357
 21
19852.957
  0
LINE
  8
_0-0_通り芯
  6
DASHED1
 62
    3
 10
20122.357
 20
19852.957
 11
22122.356
 21
19732.962
  0
LINE
  8
_0-0_通り芯
  6
CONTINUOUS
 62
    6
 10
24378.528
 20
24649.051
 11
22379.688
 21
24649.648
  0
LINE
  8
_0-0_通り芯
  6
DASHED1
 62
    3
 10
22122.356
 20
19732.962
 11
23386.156
 21
19742.941
  0
LINE
  8
_0-0_通り芯
  6
CONTINUOUS
 62
    4
 10
23389.171
 20
19709.169
 11
23386.939
 21
19709.182
  0
LINE
  8
_0-0_通り芯
  6
CONTINUOUS
 62
    6
 10
24378.528
 20
25649.039
 11
22379.688
 21
25649.648
  0
LINE
  8
_0-0_通り芯
  6
CONTINUOUS
 62
    4
 10
22607.299
 20
21724.71
 11
23007.298
 21
21724.71
  0
LINE
  8
_0-0_通り芯
  6
CONTINUOUS
 62
    4
 10
15636.56
 20
6145.822
 11
17636.559
 21
5985.8184
  0
LINE
  8
_0-0_通り芯
  6
CONTINUOUS
 62
    4
 10
38952.16
 20
9235.8187
 11
39093.555
 21
9235.8187
  0
LINE
  8
_0-0_通り芯
  6
CENTER1
 62
    6
 10
9563.5558
 20
9777.9997
 11
9563.5558
 21
8083.1267
  0
LINE
  8
_0-0_通り芯
  6
CENTER1
 62
    6
 10
39093.555
 20
9925.7113
 11
39093.555
 21
8306.131
  0
LINE
  8
_0-0_通り芯
  6
CONTINUOUS
 62
    3
 10
10228.954
 20
8235.8184
 11
9831.3598
 21
8635.8122
  0
LINE
  8
_0-0_通り芯
  6
CONTINUOUS
 62
    3
 10
10248.956
 20
8235.8184
 11
10228.954
 21
8235.8184
  0
LINE
  8
_0-0_通り芯
  6
CONTINUOUS
 62
    3
 10
38281.749
 20
8235.8184
 11
38301.746
 21
8235.8184
  0
LINE
  8
_0-0_通り芯
  6
CONTINUOUS
 62
    3
 10
38301.746
 20
8235.8184
 11
38782.958
 21
9235.8187
  0
LINE
  8
_0-0_通り芯
  6
DASHED1
 62
    6
 10
32706.702
 20
9733.8652
 11
34999.781
 21
9733.8652
  0
LINE
  8
_0-0_通り芯
  6
CONTINUOUS
 62
    6
 10
32588.087
 20
8903.6038
 11
34999.781
 21
8903.6038
  0
LINE
  8
_0-0_通り芯
  6
CONTINUOUS
 62
    3
 10
33873.729
 20
11373.513
 11
35273.731
 21
11373.513
  0
LINE
  8
_0-0_通り芯
  6
DASHED1
 62
    3
 10
23386.156
 20
6125.8026
 11
23386.156
 21
5635.8125
  0
LINE
  8
_0-0_通り芯
  6
CONTINUOUS
 62
    6
 10
24378.528
 20
11931.906
 11
22379.688
 21
11932.516
  0
LINE
  8
_0-0_通り芯
  6
CONTINUOUS
 62
    4
 10
23207.299
 20
7682.8703
 11
22407.305
 21
7682.8703
  0
LINE
  8
_0-0_通り芯
  6
DASHED1
 62
    3
 10
21636.559
 20
6235.8184
 11
23386.156
 21
6125.8026
  0
LINE
  8
_0-0_通り芯
  6
CONTINUOUS
 62
    3
 10
33873.729
 20
11373.513
 11
35273.731
 21
13473.514
  0
LINE
  8
_0-0_通り芯
  6
CONTINUOUS
 62
    4
 10
61129.17
 20
19663.589
 11
63129.169
 21
19603.591
  0
LINE
  8
_0-0_通り芯
  6
DASHED1
 62
    4
 10
63129.169
 20
19953.592
 11
65129.169
 21
20233.596
  0
LINE
  8
_0-0_通り芯
  6
CONTINUOUS
 62
    4
 10
55425.17
 20
19943.582
 11
57129.166
 21
19683.572
  0
LINE
  8
_0-0_通り芯
  6
CONTINUOUS
 62
    4
 10
51129.371
 20
20243.606
 11
53129.37
 21
20053.603
  0
LINE
  8
_0-0_通り芯
  6
CONTINUOUS
 62
    6
 10
64487.784
 20
22134.56
 11
66899.478
 21
22134.56
  0
LINE
  8
_0-0_通り芯
  6
CONTINUOUS
 62
    3
 10
65773.432
 20
24604.469
 11
67173.433
 21
26704.472
  0
LINE
  8
_0-0_通り芯
  6
DASHED1
 62
    6
 10
64606.389
 20
22964.822
 11
66899.478
 21
22964.822
  0
LINE
  8
_0-0_通り芯
  6
DASHED1
 62
    4
 10
57129.166
 20
19903.579
 11
59129.17
 21
19953.592
  0
LINE
  8
_0-0_通り芯
  6
CONTINUOUS
 62
    4
 10
63129.169
 20
19603.591
 11
65129.169
 21
20233.596
  0
LINE
  8
_0-0_通り芯
  6
CONTINUOUS
 62
    4
 10
69397.171
 20
20753.579
 11
69397.171
 21
22003.58
  0
LINE
  8
_0-0_通り芯
  6
DASHED1
 62
    4
 10
55425.17
 20
20063.613
 11
55425.17
 21
19943.582
  0
LINE
  8
_0-0_通り芯
  6
CONTINUOUS
 62
    4
 10
65129.169
 20
20233.596
 11
69397.171
 21
20753.579
  0
LINE
  8
_0-0_通り芯
  6
CONTINUOUS
 62
    4
 10
59129.17
 20
19703.592
 11
61129.17
 21
19663.589
  0
LINE
  8
_0-0_通り芯
  6
DASHED1
 62
    4
 10
61129.17
 20
19953.592
 11
63129.169
 21
19953.592
  0
LINE
  8
_0-0_通り芯
  6
CONTINUOUS
 62
    4
 10
69862.773
 20
22853.591
 11
70004.17
 21
22853.591
  0
LINE
  8
_0-0_通り芯
  6
CONTINUOUS
 62
    6
 10
56417.549
 20
24649.086
 11
54418.709
 21
24649.686
  0
LINE
  8
_0-0_通り芯
  6
DASHED1
 62
    4
 10
54984.752
 20
6262.8202
 11
55425.957
 21
6272.7995
  0
LINE
  8
_0-0_通り芯
  6
CONTINUOUS
 62
    4
 10
48984.754
 20
6632.8152
 11
50984.753
 21
6442.8128
  0
LINE
  8
_0-0_通り芯
  6
CONTINUOUS
 62
    4
 10
47516.754
 20
6632.8152
 11
48984.754
 21
6632.8152
  0
LINE
  8
_0-0_通り芯
  6
CONTINUOUS
 62
    4
 10
52984.753
 20
6082.7972
 11
54984.752
 21
6002.8106
  0
LINE
  8
_0-0_通り芯
  6
CONTINUOUS
 62
    4
 10
54984.752
 20
6002.8106
 11
55425.957
 21
5992.8008
  0
LINE
  8
_0-0_通り芯
  6
DASHED1
 62
    4
 10
48984.754
 20
6752.8103
 11
47518.489
 21
6753.1863
  0
LINE
  8
_0-0_通り芯
  6
CONTINUOUS
 62
    4
 10
54646.312
 20
8008.322
 11
55046.314
 21
8008.322
  0
LINE
  8
_0-0_通り芯
  6
CONTINUOUS
 62
    6
 10
56417.549
 20
25649.076
 11
54418.709
 21
25649.685
  0
LINE
  8
_0-0_通り芯
  6
CONTINUOUS
 62
    3
 10
65773.432
 20
24604.469
 11
67173.433
 21
24604.469
  0
LINE
  8
_0-0_通り芯
  6
CONTINUOUS
 62
    6
 10
56427.726
 20
26649.673
 11
54427.726
 21
26648.268
  0
LINE
  8
_0-0_通り芯
  6
CENTER2
 62
    6
 10
55425.957
 20
19708.902
 11
55425.17
 21
16652.945
  0
LINE
  8
_0-0_通り芯
  6
CONTINUOUS
 62
    4
 10
45299.373
 20
20903.58
 11
47129.367
 21
20583.596
  0
LINE
  8
_0-0_通り芯
  6
CONTINUOUS
 62
    4
 10
55046.314
 20
21724.428
 11
54846.313
 21
21499.723
  0
LINE
  8
_0-0_通り芯
  6
CENTER1
 62
    6
 10
45051.569
 20
23245.78
 11
45051.569
 21
21550.905
  0
LINE
  8
_0-0_通り芯
  6
CONTINUOUS
 62
    4
 10
47129.367
 20
20583.596
 11
49129.371
 21
20403.579
  0
LINE
  8
_0-0_通り芯
  6
CONTINUOUS
 62
    4
 10
53129.37
 20
20053.603
 11
55129.37
 21
19973.586
  0
LINE
  8
_0-0_通り芯
  6
CONTINUOUS
 62
    3
 10
45299.373
 20
21903.592
 11
45197.356
 21
21903.592
  0
LINE
  8
_0-0_通り芯
  6
CONTINUOUS
 62
    5
 10
45299.175
 20
21503.58
 11
69396.235
 21
21503.58
  0
LINE
  8
_0-0_通り芯
  6
CONTINUOUS
 62
    3
 10
44499.369
 20
20703.591
 11
42543.754
 21
20703.591
  0
LINE
  8
_0-0_通り芯
  6
CONTINUOUS
 62
    6
 10
70425.165
 20
16653.582
 11
40425.172
 21
16653.582
  0
LINE
  8
_0-0_通り芯
  6
CONTINUOUS
 62
    4
 10
57129.166
 20
19683.572
 11
59129.17
 21
19703.592
  0
LINE
  8
_0-0_通り芯
  6
CONTINUOUS
 62
    3
 10
44499.369
 20
21903.592
 11
44499.369
 21
20703.591
  0
LINE
  8
_0-0_通り芯
  6
CONTINUOUS
 62
    3
 10
44599.37
 20
22103.59
 11
45051.569
 21
22103.59
  0
LINE
  8
_0-0_通り芯
  6
DASHED1
 62
    3
 10
55425.957
 20
19708.902
 11
55425.957
 21
19988.906
  0
LINE
  8
_0-0_通り芯
  6
CONTINUOUS
 62
    4
 10
49129.371
 20
20403.579
 11
51129.371
 21
20243.606
  0
LINE
  8
_0-0_通り芯
  6
CENTER1
 62
    6
 10
70004.17
 20
23543.485
 11
70004.17
 21
21923.904
  0
LINE
  8
_0-0_通り芯
  6
CENTER2
 62
    6
 10
55425.645
 20
18513.211
 11
55427.221
 21
24649.703
  0
LINE
  8
_0-0_通り芯
  6
CONTINUOUS
 62
    4
 10
55246.315
 20
21399.723
 11
54446.321
 21
21399.723
  0
LINE
  8
_0-0_通り芯
  6
CONTINUOUS
 62
    6
 10
67173.433
 20
26704.472
 11
67173.433
 21
24604.469
  0
LINE
  8
_0-0_通り芯
  6
CONTINUOUS
 62
    4
 10
54996.312
 20
21299.734
 11
54696.32
 21
21299.734
  0
LINE
  8
_0-0_通り芯
  6
CONTINUOUS
 62
    4
 10
54846.313
 20
21499.723
 11
54646.312
 21
21724.428
  0
LINE
  8
_0-0_通り芯
  6
DASHED1
 62
    4
 10
55129.176
 20
20083.596
 11
55425.17
 21
20063.613
  0
LINE
  8
_0-0_通り芯
  6
DASHED1
 62
    4
 10
59129.17
 20
19953.592
 11
61129.17
 21
19953.592
  0
LINE
  8
_0-0_通り芯
  6
DASHED1
 62
    4
 10
51129.168
 20
20293.593
 11
53129.172
 21
20153.604
  0
LINE
  8
_0-0_通り芯
  6
DASHED1
 62
    4
 10
55425.17
 20
20063.577
 11
57129.166
 21
19903.579
  0
LINE
  8
_0-0_通り芯
  6
DASHED1
 62
    4
 10
53129.172
 20
20153.604
 11
55129.176
 21
20083.596
  0
LINE
  8
_0-0_通り芯
  6
DASHED1
 62
    4
 10
49129.168
 20
20453.591
 11
51129.168
 21
20293.593
  0
LINE
  8
_0-0_通り芯
  6
CONTINUOUS
 62
    4
 10
45299.373
 20
21903.592
 11
45299.373
 21
20903.58
  0
LINE
  8
_0-0_通り芯
  6
DASHED1
 62
    4
 10
47129.169
 20
20583.596
 11
49129.168
 21
20453.591
  0
LINE
  8
_0-0_通り芯
  6
CONTINUOUS
 62
    4
 10
55129.37
 20
19973.586
 11
55425.17
 21
19943.582
  0
LINE
  8
_0-0_通り芯
  6
CONTINUOUS
 62
    3
 10
44499.369
 20
21903.592
 11
44599.37
 21
21903.592
  0
LINE
  8
_0-0_通り芯
  6
CONTINUOUS
 62
    5
 10
44499.369
 20
21503.58
 11
42545.176
 21
21503.58
  0
LINE
  8
_0-0_通り芯
  6
CONTINUOUS
 62
    4
 10
45197.356
 20
22103.59
 11
45051.569
 21
22103.59
  0
LINE
  8
_0-0_通り芯
  6
CONTINUOUS
 62
    3
 10
45197.356
 20
22103.59
 11
45197.356
 21
21903.592
  0
LINE
  8
_0-0_通り芯
  6
CONTINUOUS
 62
    3
 10
69497.172
 20
22003.58
 11
69862.773
 21
22853.591
  0
LINE
  8
_0-0_通り芯
  6
CONTINUOUS
 62
    3
 10
69397.171
 20
22003.58
 11
69497.172
 21
22003.58
  0
LINE
  8
_0-0_通り芯
  6
CONTINUOUS
 62
    3
 10
44599.37
 20
21903.592
 11
44599.37
 21
22103.59
  0
LINE
  8
_0-0_通り芯
  6
CENTER1
 62
    6
 10
47103.315
 20
7461.0898
 11
47099.902
 21
9342.4529
  0
LINE
  8
_0-0_通り芯
  6
CONTINUOUS
 62
    3
 10
63931.987
 20
8232.7911
 11
63951.984
 21
8232.7911
  0
LINE
  8
_0-0_通り芯
  6
DASHED1
 62
    3
 10
62021.306
 20
6492.5356
 11
62018.046
 21
6492.5356
  0
LINE
  8
_0-0_通り芯
  6
CONTINUOUS
 62
    3
 10
47448.36
 20
8432.8032
 11
47496.752
 21
8232.7973
  0
LINE
  8
_0-0_通り芯
  6
CONTINUOUS
 62
    4
 10
75400.251
 20
5172.2153
 11
75400.251
 21
4620.1309
  0
LINE
  8
_0-0_通り芯
  6
CONTINUOUS
 62
    4
 10
77285.679
 20
5172.2153
 11
77285.679
 21
4620.1309
  0
LINE
  8
_0-0_通り芯
  6
CONTINUOUS
 62
    4
 10
79171.091
 20
6297.2181
 11
79171.091
 21
2932.6308
  0
LINE
  8
_0-0_通り芯
  6
CONTINUOUS
 62
    4
 10
71889.845
 20
5734.7167
 11
79171.091
 21
5734.7167
  0
LINE
  8
_0-0_通り芯
  6
CONTINUOUS
 62
    3
 10
64119.953
 20
9132.8157
 11
63951.984
 21
8232.7911
  0
LINE
  8
_0-0_通り芯
  6
CENTER2
 62
    6
 10
55425.957
 20
5992.8008
 11
55425.17
 21
2935.8123
  0
LINE
  8
_0-0_通り芯
  6
CONTINUOUS
 62
    6
 10
56427.726
 20
12933.572
 11
54427.726
 21
12932.158
  0
LINE
  8
_0-0_通り芯
  6
CONTINUOUS
 62
    6
 10
65425.176
 20
2935.0007
 11
45425.173
 21
2934.0974
  0
LINE
  8
_0-0_通り芯
  6
CENTER1
 62
    6
 10
64688.31
 20
8162.8934
 11
64684.733
 21
10140.237
  0
LINE
  8
_0-0_通り芯
  6
DASHED1
 62
    3
 10
60984.76
 20
6492.8007
 11
62142.854
 21
6492.5047
  0
LINE
  8
_0-0_通り芯
  6
CONTINUOUS
 62
    6
 10
56417.549
 20
10932.977
 11
54418.709
 21
10933.581
  0
LINE
  8
_0-0_通り芯
  6
CONTINUOUS
 62
    5
 10
47511.834
 20
7784.8328
 11
63934.881
 21
7780.6151
  0
LINE
  8
ADD_LINE
  6
DOT
 62
    4
 10
79171.091
 20
2932.6308
 11
73044.451
 21
2932.6308
  0
LINE
  8
_0-0_通り芯
  6
CONTINUOUS
 62
    4
 10
43831.626
 20
21727.297
 11
44231.623
 21
21727.297
  0
LINE
  8
_0-0_通り芯
  6
CONTINUOUS
 62
    4
 10
44081.625
 20
21202.59
 11
43981.624
 21
21202.59
  0
LINE
  8
_0-0_通り芯
  6
CONTINUOUS
 62
    5
 10
44255.371
 20
35221.003
 11
71066.074
 21
35221.003
  0
LINE
  8
_0-0_通り芯
  6
CONTINUOUS
 62
    4
 10
44181.625
 20
21302.591
 11
43881.629
 21
21302.591
  0
LINE
  8
_0-0_通り芯
  6
CONTINUOUS
 62
    4
 10
44231.623
 20
21727.297
 11
44031.627
 21
21502.589
  0
LINE
  8
_0-0_通り芯
  6
CONTINUOUS
 62
    4
 10
44431.624
 20
21402.591
 11
43631.635
 21
21402.591
  0
LINE
  8
_0-0_通り芯
  6
CONTINUOUS
 62
    4
 10
44031.627
 20
21502.589
 11
43831.626
 21
21727.297
  0
LINE
  8
_0-0_通り芯
  6
CONTINUOUS
 62
    4
 10
71889.845
 20
6297.2181
 11
79171.091
 21
6297.2181
  0
LINE
  8
_0-0_通り芯
  6
CONTINUOUS
 62
    4
 10
71889.845
 20
6297.2181
 11
71889.845
 21
2932.6308
  0
LINE
  8
_0-0_通り芯
  6
CONTINUOUS
 62
    4
 10
71889.845
 20
4057.6338
 11
79171.091
 21
4057.6338
  0
LINE
  8
_0-0_通り芯
  6
CONTINUOUS
 62
    4
 10
71889.845
 20
5172.2153
 11
79171.091
 21
5172.2153
  0
LINE
  8
_0-0_通り芯
  6
CONTINUOUS
 62
    4
 10
71889.845
 20
4620.1309
 11
79171.091
 21
4620.1309
  0
LINE
  8
_0-0_通り芯
  6
CONTINUOUS
 62
    4
 10
71889.845
 20
3495.1325
 11
79171.091
 21
3495.1325
  0
LINE
  8
_0-0_通り芯
  6
CONTINUOUS
 62
    4
 10
71889.845
 20
2932.6308
 11
79171.091
 21
2932.6308
  0
LINE
  8
_0-0_通り芯
  6
CONTINUOUS
 62
    4
 10
73441.921
 20
6297.2181
 11
73441.921
 21
2932.6308
  0
LINE
  8
_0-0_通り芯
  6
DASHED1
 62
    4
 10
50984.753
 20
6442.8128
 11
52984.753
 21
6282.8093
  0
LINE
  8
_0-0_通り芯
  6
DASHED1
 62
    6
 10
59660.184
 20
9572.5585
 11
61953.278
 21
9572.5585
  0
LINE
  8
_0-0_通り芯
  6
DASHED1
 62
    4
 10
52984.753
 20
6282.8093
 11
54984.752
 21
6262.8202
  0
LINE
  8
_0-0_通り芯
  6
CONTINUOUS
 62
    4
 10
47101.556
 20
8432.8032
 11
47448.36
 21
8432.8032
  0
LINE
  8
_0-0_通り芯
  6
CONTINUOUS
 62
    4
 10
50984.753
 20
6442.8128
 11
52984.753
 21
6082.7972
  0
LINE
  8
_0-0_通り芯
  6
CONTINUOUS
 62
    4
 10
55428.187
 20
5992.7885
 11
55425.957
 21
5992.8008
  0
LINE
  8
_0-0_通り芯
  6
CONTINUOUS
 62
    3
 10
60827.226
 20
11212.209
 11
62227.228
 21
13312.209
  0
LINE
  8
_0-0_通り芯
  6
CONTINUOUS
 62
    4
 10
55246.315
 20
7683.6209
 11
54446.321
 21
7683.6209
  0
LINE
  8
_0-0_通り芯
  6
CONTINUOUS
 62
    4
 10
47516.754
 20
8232.7911
 11
47516.754
 21
6632.8152
  0
LINE
  8
_0-0_通り芯
  6
CONTINUOUS
 62
    4
 10
54896.311
 20
7483.6212
 11
54796.311
 21
7483.6212
  0
LINE
  8
_0-0_通り芯
  6
CONTINUOUS
 62
    6
 10
56417.549
 20
11932.974
 11
54418.709
 21
11933.578
  0
LINE
  8
_0-0_通り芯
  6
CONTINUOUS
 62
    4
 10
54996.312
 20
7583.6242
 11
54696.32
 21
7583.6242
  0
LINE
  8
_0-0_通り芯
  6
DASHED1
 62
    4
 10
55425.957
 20
6272.7995
 11
55425.957
 21
5992.8008
  0
LINE
  8
_0-0_通り芯
  6
CONTINUOUS
 62
    4
 10
55046.314
 20
8008.322
 11
54846.313
 21
7783.6214
  0
LINE
  8
_0-0_通り芯
  6
CONTINUOUS
 62
    4
 10
54846.313
 20
7783.6214
 11
54646.312
 21
8008.322
  0
LINE
  8
_0-0_通り芯
  6
CONTINUOUS
 62
    6
 10
59541.579
 20
8742.3002
 11
61953.278
 21
8742.3002
  0
LINE
  8
_0-0_通り芯
  6
CONTINUOUS
 62
    3
 10
47516.754
 20
8232.7911
 11
47496.752
 21
8232.7973
  0
LINE
  8
_0-0_通り芯
  6
DASHED1
 62
    3
 10
55425.957
 20
6272.7995
 11
56984.757
 21
6282.8093
  0
LINE
  8
_0-0_通り芯
  6
DASHED1
 62
    3
 10
58984.761
 20
6362.7959
 11
60984.76
 21
6492.8007
  0
LINE
  8
_0-0_通り芯
  6
DASHED1
 62
    3
 10
56984.757
 20
6282.8093
 11
58984.761
 21
6362.7959
  0
LINE
  8
_0-0_通り芯
  6
DASHED1
 62
    3
 10
55425.957
 20
5992.8008
 11
55425.957
 21
6272.7995
  0
LINE
  8
_0-0_通り芯
  6
DASHED1
 62
    4
 10
48984.754
 20
6752.8103
 11
50984.753
 21
6442.8128
  0
LINE
  8
_0-0_通り芯
  6
CONTINUOUS
 62
    6
 10
62227.228
 20
13312.209
 11
62227.228
 21
11212.209
  0
LINE
  8
_0-0_通り芯
  6
CONTINUOUS
 62
    3
 10
60827.226
 20
11212.209
 11
62227.228
 21
11212.209
  0
LINE
  8
_0-0_通り芯
  6
DASHED1
 62
    3
 10
55425.957
 20
5992.8008
 11
55425.724
 21
6272.7934
  0
LINE
  8
_0-0_通り芯
  6
CENTER2
 62
    6
 10
55425.645
 20
4797.1068
 11
55427.226
 21
10944.323
  0
LINE
  8
_0-0_通り芯
  6
CONTINUOUS
 62
    4
 10
60984.76
 20
6202.7923
 11
63929.753
 21
6932.803
  0
LINE
  8
_0-0_通り芯
  6
CONTINUOUS
 62
    4
 10
63929.753
 20
6932.803
 11
63929.753
 21
8232.7911
  0
LINE
  8
_0-0_通り芯
  6
CONTINUOUS
 62
    4
 10
64119.953
 20
9132.8157
 11
64686.551
 21
9132.8157
  0
LINE
  8
_0-0_通り芯
  6
CONTINUOUS
 62
    4
 10
58984.761
 20
5822.7875
 11
60984.76
 21
6202.7923
  0
LINE
  8
_0-0_通り芯
  6
CONTINUOUS
 62
    4
 10
56984.757
 20
5982.7911
 11
58984.761
 21
5822.7875
  0
LINE
  8
_0-0_通り芯
  6
CONTINUOUS
 62
    4
 10
55425.957
 20
5992.8008
 11
56984.757
 21
5982.7911
  0
LINE
  8
_0-0_通り芯
  6
DASHED1
 62
    6
 10
65394.809
 20
50698.863
 11
67687.888
 21
50698.863
  0
LINE
  8
_0-0_通り芯
  6
CONTINUOUS
 62
    6
 10
65276.194
 20
49868.601
 11
67687.888
 21
49868.601
  0
LINE
  8
_0-0_通り芯
  6
CONTINUOUS
 62
    6
 10
67961.838
 20
54438.513
 11
67961.838
 21
52338.513
  0
LINE
  8
_0-0_通り芯
  6
CONTINUOUS
 62
    3
 10
66561.841
 20
52338.513
 11
67961.838
 21
54438.513
  0
LINE
  8
_0-0_通り芯
  6
CONTINUOUS
 62
    6
 10
56427.736
 20
54083.906
 11
54427.736
 21
54082.499
  0
LINE
  8
_0-0_通り芯
  6
CONTINUOUS
 62
    6
 10
56417.539
 20
52083.317
 11
54418.699
 21
52083.916
  0
LINE
  8
_0-0_通り芯
  6
CONTINUOUS
 62
    6
 10
56417.539
 20
53083.307
 11
54418.699
 21
53083.916
  0
LINE
  8
_0-0_通り芯
  6
CONTINUOUS
 62
    3
 10
66561.841
 20
52338.513
 11
67961.838
 21
52338.513
  0
LINE
  8
_0-0_通り芯
  6
CONTINUOUS
 62
    4
 10
72087.78
 20
50287.213
 11
72229.177
 21
50287.213
  0
LINE
  8
_0-0_通り芯
  6
CONTINUOUS
 62
    6
 10
56417.539
 20
52083.634
 11
54418.699
 21
52084.233
  0
LINE
  8
_0-0_通り芯
  6
CONTINUOUS
 62
    4
 10
42564.172
 20
47847.212
 11
44564.172
 21
47657.21
  0
LINE
  8
_0-0_通り芯
  6
CENTER1
 62
    6
 10
38382.17
 20
50979.388
 11
38382.17
 21
49284.513
  0
LINE
  8
_0-0_通り芯
  6
CONTINUOUS
 62
    4
 10
54896.311
 20
48634.269
 11
54796.311
 21
48634.269
  0
LINE
  8
_0-0_通り芯
  6
CONTINUOUS
 62
    4
 10
54996.312
 20
48734.285
 11
54696.315
 21
48734.285
  0
LINE
  8
_0-0_通り芯
  6
CENTER1
 62
    6
 10
72229.177
 20
50977.103
 11
72229.177
 21
49357.525
  0
LINE
  8
_0-0_通り芯
  6
CENTER2
 62
    6
 10
55427.221
 20
52070.271
 11
55425.17
 21
44087.214
  0
LINE
  8
_0-0_通り芯
  6
CONTINUOUS
 62
    4
 10
44042.968
 20
35871.008
 11
44255.371
 21
35571.019
  0
LINE
  8
_0-0_通り芯
  6
DASHED1
 62
    3
 10
53945.566
 20
33651.006
 11
55425.17
 21
33591.01
  0
LINE
  8
_0-0_通り芯
  6
CONTINUOUS
 62
    4
 10
44255.371
 20
35571.019
 11
44255.371
 21
34221.013
  0
LINE
  8
_0-0_通り芯
  6
CONTINUOUS
 62
    6
 10
56417.539
 20
38366.504
 11
54418.699
 21
38367.101
  0
LINE
  8
_0-0_通り芯
  6
DASHED1
 62
    3
 10
51945.567
 20
33751.014
 11
53945.566
 21
33651.006
  0
LINE
  8
_0-0_通り芯
  6
DASHED1
 62
    3
 10
49945.567
 20
33761.022
 11
51945.567
 21
33751.014
  0
LINE
  8
_0-0_通り芯
  6
DASHED1
 62
    3
 10
47945.568
 20
33951.025
 11
49945.567
 21
33761.022
  0
LINE
  8
_0-0_通り芯
  6
CONTINUOUS
 62
    3
 10
38831.969
 20
49387.189
 11
38634.57
 21
49837.198
  0
LINE
  8
_0-0_通り芯
  6
CONTINUOUS
 62
    4
 10
54846.313
 20
48934.271
 11
54646.312
 21
49158.976
  0
LINE
  8
_0-0_通り芯
  6
CONTINUOUS
 62
    4
 10
55046.314
 20
49158.976
 11
54846.313
 21
48934.271
  0
LINE
  8
_0-0_通り芯
  6
CONTINUOUS
 62
    6
 10
56417.539
 20
53083.624
 11
54418.699
 21
53084.233
  0
LINE
  8
_0-0_通り芯
  6
CONTINUOUS
 62
    4
 10
55246.315
 20
48834.27
 11
54446.321
 21
48834.27
  0
LINE
  8
_0-0_通り芯
  6
CONTINUOUS
 62
    3
 10
38851.971
 20
49387.189
 11
38831.969
 21
49387.189
  0
LINE
  8
_0-0_通り芯
  6
CONTINUOUS
 62
    4
 10
54646.312
 20
49158.976
 11
55046.314
 21
49158.976
  0
LINE
  8
_0-0_通り芯
  6
CONTINUOUS
 62
    4
 10
55428.187
 20
47143.438
 11
55425.952
 21
47143.448
  0
LINE
  8
_0-0_通り芯
  6
CONTINUOUS
 62
    4
 10
44564.172
 20
47657.21
 11
46564.171
 21
47367.197
  0
LINE
  8
_0-0_通り芯
  6
CONTINUOUS
 62
    6
 10
73425.169
 20
44087.214
 11
35425.171
 21
44087.214
  0
LINE
  8
_0-0_通り芯
  6
CONTINUOUS
 62
    4
 10
71357.969
 20
49387.218
 11
71895.766
 21
50287.213
  0
LINE
  8
_0-0_通り芯
  6
CONTINUOUS
 62
    4
 10
66564.17
 20
46467.203
 11
71357.969
 21
48187.208
  0
LINE
  8
_0-0_通り芯
  6
CONTINUOUS
 62
    4
 10
71895.766
 20
50287.213
 11
72229.177
 21
50287.213
  0
LINE
  8
_0-0_通り芯
  6
DASHED1
 62
    3
 10
50564.17
 20
47537.212
 11
52564.174
 21
47467.207
  0
LINE
  8
_0-0_通り芯
  6
DASHED1
 62
    3
 10
52564.174
 20
47467.207
 11
54564.174
 21
47377.211
  0
LINE
  8
_0-0_通り芯
  6
DASHED1
 62
    3
 10
56564.173
 20
47287.214
 11
58564.172
 21
47287.214
  0
LINE
  8
_0-0_通り芯
  6
CONTINUOUS
 62
    4
 10
71357.969
 20
48187.208
 11
71357.969
 21
49387.218
  0
LINE
  8
_0-0_通り芯
  6
DASHED1
 62
    3
 10
64564.171
 20
47137.22
 11
66564.17
 21
47087.203
  0
LINE
  8
_0-0_通り芯
  6
CONTINUOUS
 62
    4
 10
55425.17
 20
47037.215
 11
56564.173
 21
46937.205
  0
LINE
  8
_0-0_通り芯
  6
DASHED1
 62
    3
 10
62564.171
 20
47137.22
 11
64564.171
 21
47137.22
  0
LINE
  8
_0-0_通り芯
  6
DASHED1
 62
    3
 10
40564.173
 20
48137.22
 11
38853.113
 21
48137.22
  0
LINE
  8
_0-0_通り芯
  6
CONTINUOUS
 62
    4
 10
35426.647
 20
49837.198
 11
38382.17
 21
49837.198
  0
LINE
  8
_0-0_通り芯
  6
DASHED1
 62
    3
 10
66564.17
 20
47087.203
 11
68287.876
 21
47087.203
  0
LINE
  8
_0-0_通り芯
  6
CONTINUOUS
 62
    5
 10
38850.646
 20
48937.214
 11
71358.361
 21
48937.214
  0
LINE
  8
_0-0_通り芯
  6
DASHED1
 62
    3
 10
54564.174
 20
47377.211
 11
55425.17
 21
47337.231
  0
LINE
  8
_0-0_通り芯
  6
DASHED1
 62
    3
 10
55425.17
 20
47337.201
 11
56564.173
 21
47287.214
  0
LINE
  8
_0-0_通り芯
  6
CONTINUOUS
 62
    4
 10
52564.174
 20
47187.208
 11
54564.174
 21
47107.19
  0
LINE
  8
_0-0_通り芯
  6
CONTINUOUS
 62
    4
 10
46564.171
 20
47367.197
 11
48564.17
 21
47307.201
  0
LINE
  8
_0-0_通り芯
  6
CONTINUOUS
 62
    4
 10
54564.174
 20
47107.19
 11
55425.17
 21
47037.215
  0
LINE
  8
_0-0_通り芯
  6
CONTINUOUS
 62
    4
 10
40564.173
 20
47977.213
 11
42564.172
 21
47847.212
  0
LINE
  8
_0-0_通り芯
  6
CONTINUOUS
 62
    4
 10
38851.971
 20
49387.189
 11
38851.971
 21
47987.192
  0
LINE
  8
_0-0_通り芯
  6
CONTINUOUS
 62
    4
 10
38851.971
 20
47987.192
 11
40564.173
 21
47977.213
  0
LINE
  8
_0-0_通り芯
  6
CONTINUOUS
 62
    4
 10
48564.17
 20
47307.201
 11
52564.174
 21
47187.208
  0
LINE
  8
_0-0_通り芯
  6
DASHED1
 62
    3
 10
42564.172
 20
47987.227
 11
44564.172
 21
47887.216
  0
LINE
  8
_0-0_通り芯
  6
DASHED1
 62
    3
 10
55425.17
 20
47337.231
 11
55425.17
 21
47037.215
  0
LINE
  8
_0-0_通り芯
  6
CONTINUOUS
 62
    4
 10
38382.17
 20
49837.198
 11
38634.57
 21
49837.198
  0
LINE
  8
_0-0_通り芯
  6
DASHED1
 62
    3
 10
40564.173
 20
48137.22
 11
42564.172
 21
47987.227
  0
LINE
  8
_0-0_通り芯
  6
DASHED1
 62
    3
 10
46564.171
 20
47737.223
 11
48564.17
 21
47677.227
  0
LINE
  8
_0-0_通り芯
  6
DASHED1
 62
    3
 10
48564.17
 20
47677.227
 11
50564.17
 21
47537.212
  0
LINE
  8
_0-0_通り芯
  6
DASHED1
 62
    3
 10
44564.172
 20
47887.216
 11
46564.171
 21
47737.223
  0
LINE
  8
_0-0_通り芯
  6
DASHED1
 62
    3
 10
57945.57
 20
33621.008
 11
59945.569
 21
33491.004
  0
LINE
  8
_0-0_通り芯
  6
CONTINUOUS
 62
    3
 10
43555.258
 20
35871.008
 11
43455.372
 21
35571.019
  0
LINE
  8
_0-0_通り芯
  6
CONTINUOUS
 62
    3
 10
43455.372
 20
34371.001
 11
43455.372
 21
35571.019
  0
LINE
  8
_0-0_通り芯
  6
CONTINUOUS
 62
    5
 10
38426.416
 20
35221.003
 11
43455.372
 21
35221.003
  0
LINE
  8
_0-0_通り芯
  6
CONTINUOUS
 62
    3
 10
43455.372
 20
34371.001
 11
38421.142
 21
34371.001
  0
LINE
  8
_0-0_通り芯
  6
CONTINUOUS
 62
    4
 10
63945.568
 20
33121.008
 11
65945.567
 21
33161.017
  0
LINE
  8
_0-0_通り芯
  6
CONTINUOUS
 62
    3
 10
44042.968
 20
35871.008
 11
43555.258
 21
35871.008
  0
LINE
  8
_0-0_通り芯
  6
CONTINUOUS
 62
    4
 10
71509.375
 20
36570.989
 11
72004.576
 21
36570.989
  0
LINE
  8
_0-0_通り芯
  6
CONTINUOUS
 62
    6
 10
38425.17
 20
30371.002
 11
72425.169
 21
30371.002
  0
LINE
  8
_0-0_通り芯
  6
CONTINUOUS
 62
    6
 10
56427.736
 20
40366.773
 11
54427.736
 21
40365.368
  0
LINE
  8
_0-0_通り芯
  6
CENTER1
 62
    6
 10
44042.968
 20
37013.195
 11
44042.968
 21
35318.323
  0
LINE
  8
_0-0_通り芯
  6
CONTINUOUS
 62
    4
 10
42518.862
 20
35449.761
 11
42918.859
 21
35449.761
  0
LINE
  8
_0-0_通り芯
  6
CONTINUOUS
 62
    6
 10
56417.539
 20
38366.187
 11
54418.699
 21
38366.784
  0
LINE
  8
_0-0_通り芯
  6
CONTINUOUS
 62
    3
 10
71069.374
 20
35771.003
 11
71089.366
 21
35771.003
  0
LINE
  8
_0-0_通り芯
  6
CONTINUOUS
 62
    3
 10
71089.366
 20
35771.003
 11
71509.375
 21
36570.989
  0
LINE
  8
_0-0_通り芯
  6
CONTINUOUS
 62
    6
 10
56417.539
 20
39366.174
 11
54418.699
 21
39366.783
  0
LINE
  8
_0-0_通り芯
  6
DASHED1
 62
    3
 10
63945.568
 20
33471.014
 11
65945.567
 21
33610.999
  0
LINE
  8
_0-0_通り芯
  6
DASHED1
 62
    4
 10
55425.957
 20
19988.906
 11
55425.957
 21
19708.902
  0
LINE
  8
_0-0_通り芯
  6
DASHED1
 62
    4
 10
55425.17
 20
19943.582
 11
55425.17
 21
20063.577
  0
LINE
  8
_0-0_通り芯
  6
CONTINUOUS
 62
    4
 10
67945.567
 20
34051
 11
71069.374
 21
34471.014
  0
LINE
  8
_0-0_通り芯
  6
CONTINUOUS
 62
    4
 10
55428.187
 20
19708.889
 11
55425.957
 21
19708.902
  0
LINE
  8
_0-0_通り芯
  6
DASHED1
 62
    3
 10
55425.957
 20
19708.902
 11
55425.724
 21
19988.894
  0
LINE
  8
_0-0_通り芯
  6
CONTINUOUS
 62
    4
 10
54896.311
 20
21199.722
 11
54796.311
 21
21199.722
  0
LINE
  8
_0-0_通り芯
  6
CONTINUOUS
 62
    4
 10
54646.312
 20
21724.428
 11
55046.314
 21
21724.428
  0
LINE
  8
_0-0_通り芯
  6
CONTINUOUS
 62
    4
 10
59945.569
 20
33200.994
 11
61945.568
 21
33080.999
  0
LINE
  8
_0-0_通り芯
  6
CONTINUOUS
 62
    4
 10
55945.57
 20
33221.013
 11
57945.57
 21
33281.012
  0
LINE
  8
_0-0_通り芯
  6
CONTINUOUS
 62
    4
 10
55425.17
 20
33271.001
 11
55945.57
 21
33221.013
  0
LINE
  8
_0-0_通り芯
  6
DASHED1
 62
    3
 10
65945.567
 20
33610.999
 11
67945.567
 21
34051
  0
LINE
  8
_0-0_通り芯
  6
CONTINUOUS
 62
    4
 10
57945.57
 20
33281.012
 11
59945.569
 21
33200.994
  0
LINE
  8
_0-0_通り芯
  6
CONTINUOUS
 62
    4
 10
71069.374
 20
34471.014
 11
71069.374
 21
35771.003
  0
LINE
  8
_0-0_通り芯
  6
CONTINUOUS
 62
    4
 10
61945.568
 20
33080.999
 11
63945.568
 21
33121.008
  0
LINE
  8
_0-0_通り芯
  6
CONTINUOUS
 62
    4
 10
65945.567
 20
33161.017
 11
67945.567
 21
34051
  0
LINE
  8
_0-0_通り芯
  6
CONTINUOUS
 62
    4
 10
54646.312
 20
35441.846
 11
55046.314
 21
35441.846
  0
LINE
  8
_0-0_通り芯
  6
CONTINUOUS
 62
    4
 10
54896.311
 20
34917.139
 11
54796.311
 21
34917.139
  0
LINE
  8
_0-0_通り芯
  6
CONTINUOUS
 62
    6
 10
68899.156
 20
40952.43
 11
68899.156
 21
38852.43
  0
LINE
  8
_0-0_通り芯
  6
CONTINUOUS
 62
    4
 10
71863.184
 20
36570.989
 11
72004.576
 21
36570.989
  0
LINE
  8
_0-0_通り芯
  6
CONTINUOUS
 62
    4
 10
54996.312
 20
35017.15
 11
54696.315
 21
35017.15
  0
LINE
  8
_0-0_通り芯
  6
CONTINUOUS
 62
    3
 10
67499.159
 20
38852.43
 11
68899.156
 21
38852.43
  0
LINE
  8
_0-0_通り芯
  6
CONTINUOUS
 62
    3
 10
67499.159
 20
38852.43
 11
68899.156
 21
40952.43
  0
LINE
  8
_0-0_通り芯
  6
CONTINUOUS
 62
    4
 10
54846.313
 20
35217.138
 11
54646.312
 21
35441.846
  0
LINE
  8
_0-0_通り芯
  6
DASHED1
 62
    3
 10
55945.57
 20
33570.99
 11
57945.57
 21
33621.008
  0
LINE
  8
_0-0_通り芯
  6
CONTINUOUS
 62
    4
 10
53945.566
 20
33371.009
 11
55425.17
 21
33271.001
  0
LINE
  8
_0-0_通り芯
  6
DASHED1
 62
    3
 10
61945.568
 20
33471.014
 11
63945.568
 21
33471.014
  0
LINE
  8
_0-0_通り芯
  6
DASHED1
 62
    3
 10
55425.17
 20
33591.01
 11
55945.57
 21
33570.99
  0
LINE
  8
_0-0_通り芯
  6
DASHED1
 62
    3
 10
59945.569
 20
33491.004
 11
61945.568
 21
33471.014
  0
LINE
  8
_0-0_通り芯
  6
DASHED1
 62
    3
 10
45945.568
 20
34221.013
 11
47945.568
 21
33951.025
  0
LINE
  8
_0-0_通り芯
  6
CENTER2
 62
    6
 10
55427.221
 20
38353.136
 11
55425.17
 21
30370.081
  0
LINE
  8
_0-0_通り芯
  6
CENTER1
 62
    6
 10
72004.576
 20
37260.882
 11
72004.576
 21
35641.301
  0
LINE
  8
_0-0_通り芯
  6
CONTINUOUS
 62
    6
 10
66213.512
 20
36382.518
 11
68625.206
 21
36382.518
  0
LINE
  8
_0-0_通り芯
  6
CONTINUOUS
 62
    4
 10
51945.567
 20
33401.007
 11
53945.566
 21
33371.009
  0
LINE
  8
_0-0_通り芯
  6
CONTINUOUS
 62
    4
 10
49945.567
 20
33721.013
 11
51945.567
 21
33401.007
  0
LINE
  8
_0-0_通り芯
  6
CONTINUOUS
 62
    4
 10
47945.568
 20
33881.017
 11
49945.567
 21
33721.013
  0
LINE
  8
_0-0_通り芯
  6
CONTINUOUS
 62
    4
 10
42768.86
 20
34925.054
 11
42668.86
 21
34925.054
  0
LINE
  8
_0-0_通り芯
  6
CONTINUOUS
 62
    4
 10
55246.315
 20
35117.138
 11
54446.321
 21
35117.138
  0
LINE
  8
_0-0_通り芯
  6
CONTINUOUS
 62
    4
 10
55428.187
 20
33426.306
 11
55425.952
 21
33426.318
  0
LINE
  8
_0-0_通り芯
  6
CONTINUOUS
 62
    4
 10
42868.861
 20
35025.067
 11
42568.859
 21
35025.067
  0
LINE
  8
_0-0_通り芯
  6
CONTINUOUS
 62
    4
 10
45945.568
 20
34221.013
 11
47945.568
 21
33881.017
  0
LINE
  8
_0-0_通り芯
  6
CONTINUOUS
 62
    6
 10
56417.539
 20
39366.491
 11
54418.699
 21
39367.1
  0
LINE
  8
_0-0_通り芯
  6
CONTINUOUS
 62
    4
 10
42718.858
 20
35225.053
 11
42518.862
 21
35449.761
  0
LINE
  8
_0-0_通り芯
  6
CONTINUOUS
 62
    4
 10
55046.314
 20
35441.846
 11
54846.313
 21
35217.138
  0
LINE
  8
_0-0_通り芯
  6
CONTINUOUS
 62
    4
 10
43118.859
 20
35125.055
 11
42318.866
 21
35125.055
  0
LINE
  8
_0-0_通り芯
  6
CONTINUOUS
 62
    4
 10
44255.371
 20
34221.013
 11
45945.568
 21
34221.013
  0
LINE
  8
_0-0_通り芯
  6
CONTINUOUS
 62
    4
 10
42918.859
 20
35449.761
 11
42718.858
 21
35225.053
  0
LINE
  8
_0-0_通り芯
  6
DASHED1
 62
    6
 10
66332.127
 20
37212.78
 11
68625.206
 21
37212.78
  0
ARC
  8
_0-0_通り芯
  6
CONTINUOUS
 62
    4
 10
11541.153
 20
49025.269
 40
917.83402
 50
354.49354
 51
185.50648
  0
TEXT
  8
_0-0_通り芯
 62
    7
 10
23474.267
 20
51271.184
 40
250
 41
1
 50
0
  1
(T-9）
  0
TEXT
  8
_0-0_通り芯
 62
    3
 10
15877.563
 20
49634.839
 40
350
 41
1
 50
0
  1
池底
  0
TEXT
  8
_0-0_通り芯
 62
    3
 10
15827.624
 20
50412.353
 40
350
 41
1
 50
0
  1
ヘドロ上
  0
TEXT
  8
_0-0_通り芯
 62
    3
 10
22367.431
 20
38515.969
 40
300
 41
1
 50
0
  1
GH=　7.59（池底）
  0
TEXT
  8
_0-0_通り芯
 62
    3
 10
22490.05
 20
39546.046
 40
300
 41
1
 50
0
  1
(T-63～T-14)
  0
TEXT
  8
_0-0_通り芯
 62
    3
 10
23697.461
 20
35278.019
 40
350
 41
1
 50
0
  1
N.W.L　＝　9.85
  0
TEXT
  8
_0-0_通り芯
 62
    3
 10
6460.2354
 20
44176.234
 40
300
 41
1
 50
0
  1
DL=　5.00
  0
TEXT
  8
_0-0_通り芯
 62
    3
 10
23041.882
 20
54219.679
 40
300
 41
1
 50
0
  1
No.0
  0
TEXT
  8
_0-0_通り芯
 62
    3
 10
19097.195
 20
48995.347
 40
350
 41
1
 50
0
  1
N.W.L　＝　9.85
  0
TEXT
  8
_0-0_通り芯
 62
    3
 10
16305.481
 20
52825.291
 40
300
 41
1
 50
90
  1
1：100
  0
TEXT
  8
_0-0_通り芯
 62
    3
 10
11506.726
 20
49314.824
 40
350
 41
1
 50
0
  1
菊ヶ島
  7
TATEGAKI
  0
TEXT
  8
_0-0_通り芯
 62
    7
 10
7498.6939
 20
51975.676
 40
250
 41
1
 50
0
  1
(T-82)
  0
TEXT
  8
_0-0_通り芯
 62
    3
 10
22490.051
 20
53263.182
 40
300
 41
1
 50
0
  1
(T-82～T-9)
  0
TEXT
  8
_0-0_通り芯
 62
    3
 10
22342.907
 20
38883.852
 40
300
 41
1
 50
0
  1
GH=　8.09（ヘドロ上）
  0
TEXT
  8
_0-0_通り芯
 62
    7
 10
38052.508
 20
51025.679
 40
250
 41
1
 50
0
  1
(T-54)
  0
TEXT
  8
_0-0_通り芯
 62
    3
 10
67935.51
 20
49723.666
 40
350
 41
1
 50
0
  1
池底
  0
TEXT
  8
_0-0_通り芯
 62
    3
 10
30161.885
 20
36053.75
 40
350
 41
1
 50
0
  1
池底
  0
TEXT
  8
_0-0_通り芯
 62
    3
 10
66824.011
 20
51950.318
 40
300
 41
1
 50
0
  1
1：500
  0
TEXT
  8
_0-0_通り芯
 62
    3
 10
68363.425
 20
52914.123
 40
300
 41
1
 50
90
  1
1：100
  0
TEXT
  8
_0-0_通り芯
 62
    3
 10
67885.571
 20
50501.186
 40
350
 41
1
 50
0
  1
ヘドロ上
  0
TEXT
  8
_0-0_通り芯
 62
    3
 10
29050.387
 20
38280.399
 40
300
 41
1
 50
0
  1
1：500
  0
TEXT
  8
_0-0_通り芯
 62
    3
 10
8486.3891
 20
30479.523
 40
300
 41
1
 50
0
  1
DL=　5.00
  0
TEXT
  8
_0-0_通り芯
 62
    7
 10
32614.267
 20
37554.056
 40
250
 41
1
 50
0
  1
(T-14）
  0
TEXT
  8
_0-0_通り芯
 62
    7
 10
11276.693
 20
38358.546
 40
250
 41
1
 50
0
  1
(T-63)
  0
TEXT
  8
_0-0_通り芯
 62
    3
 10
30111.947
 20
36831.264
 40
350
 41
1
 50
0
  1
ヘドロ上
  0
TEXT
  8
_0-0_通り芯
 62
    3
 10
30589.804
 20
39244.204
 40
300
 41
1
 50
90
  1
1：100
  0
TEXT
  8
_0-0_通り芯
 62
    3
 10
23041.882
 20
40502.541
 40
300
 41
1
 50
0
  1
No.1
  0
TEXT
  8
_0-0_通り芯
 62
    3
 10
14766.064
 20
51861.485
 40
300
 41
1
 50
0
  1
1：500
  0
TEXT
  8
_0-0_通り芯
 62
    3
 10
23697.461
 20
21560.879
 40
350
 41
1
 50
0
  1
N.W.L　＝　9.85
  0
TEXT
  8
_0-0_通り芯
 62
    3
 10
22490.05
 20
25828.909
 40
300
 41
1
 50
0
  1
(T-60～T-18)
  0
TEXT
  8
_0-0_通り芯
 62
    3
 10
34107.083
 20
22221.829
 40
350
 41
1
 50
0
  1
池底
  0
TEXT
  8
_0-0_通り芯
 62
    3
 10
22342.907
 20
25166.715
 40
300
 41
1
 50
0
  1
GH=　8.09（ヘドロ上）
  0
TEXT
  8
_0-0_通り芯
 62
    3
 10
8534.4759
 20
16766.347
 40
300
 41
1
 50
0
  1
DL=　5.00
  0
TEXT
  8
_0-0_通り芯
 62
    3
 10
22367.431
 20
24798.832
 40
300
 41
1
 50
0
  1
GH=　7.47（池底）
  0
TEXT
  8
_0-0_通り芯
 62
    3
 10
32995.583
 20
24448.476
 40
300
 41
1
 50
0
  1
1：500
  0
TEXT
  8
_0-0_通り芯
 62
    3
 10
34057.144
 20
22999.344
 40
350
 41
1
 50
0
  1
ヘドロ上
  0
TEXT
  8
_0-0_通り芯
 62
    3
 10
41204.695
 20
35414.721
 40
300
 41
1
 50
0
  1
放生池
  0
TEXT
  8
_0-0_通り芯
 62
    3
 10
42628.682
 20
21552.59
 40
300
 41
1
 50
0
  1
放生池
  0
TEXT
  8
_0-0_通り芯
 62
    3
 10
34534.999
 20
25412.284
 40
300
 41
1
 50
90
  1
1：100
  0
TEXT
  8
_0-0_通り芯
 62
    7
 10
11714.294
 20
24741.414
 40
250
 41
1
 50
0
  1
(T-60)
  0
TEXT
  8
_0-0_通り芯
 62
    7
 10
37209.469
 20
23736.903
 40
250
 41
1
 50
0
  1
(T-18）
  0
TEXT
  8
_0-0_通り芯
 62
    3
 10
23041.882
 20
26785.404
 40
300
 41
1
 50
0
  1
No.2
  0
TEXT
  8
_0-0_通り芯
 62
    7
 10
38681.664
 20
10019.79
 40
250
 41
1
 50
0
  1
(T-21）
  0
TEXT
  8
_0-0_通り芯
 62
    3
 10
22342.907
 20
11449.581
 40
300
 41
1
 50
0
  1
GH=　8.19（ヘドロ上）
  0
TEXT
  8
_0-0_通り芯
 62
    3
 10
22490.05
 20
12111.776
 40
300
 41
1
 50
0
  1
(T-57～T-21)
  0
TEXT
  8
_0-0_通り芯
 62
    3
 10
22367.431
 20
52233.107
 40
300
 41
1
 50
0
  1
GH=11.40（堤上）
  0
TEXT
  8
_0-0_通り芯
 62
    3
 10
35197.46
 20
9536.1849
 40
350
 41
1
 50
0
  1
ヘドロ上
  0
TEXT
  8
_0-0_通り芯
 62
    3
 10
35247.399
 20
8758.6699
 40
350
 41
1
 50
0
  1
池底
  0
TEXT
  8
_0-0_通り芯
 62
    3
 10
23041.882
 20
13068.27
 40
300
 41
1
 50
0
  1
No.3
  0
TEXT
  8
_0-0_通り芯
 62
    3
 10
8486.9629
 20
3025.9248
 40
300
 41
1
 50
0
  1
DL=　5.00
  0
TEXT
  8
_0-0_通り芯
 62
    7
 10
9233.8928
 20
9824.2888
 40
250
 41
1
 50
0
  1
(T-57)
  0
TEXT
  8
_0-0_通り芯
 62
    3
 10
22367.431
 20
11081.698
 40
300
 41
1
 50
0
  1
GH=　7.70（池底）
  0
TEXT
  8
_0-0_通り芯
 62
    3
 10
23697.461
 20
7843.7471
 40
350
 41
1
 50
0
  1
N.W.L　＝　9.85
  0
TEXT
  8
_0-0_通り芯
 62
    3
 10
35675.318
 20
11949.124
 40
300
 41
1
 50
90
  1
1：100
  0
TEXT
  8
_0-0_通り芯
 62
    3
 10
34135.901
 20
10985.318
 40
300
 41
1
 50
0
  1
1：500
  0
TEXT
  8
_0-0_通り芯
 62
    3
 10
54529.064
 20
53263.177
 40
300
 41
1
 50
0
  1
(T-54～T-24)
  0
TEXT
  8
_0-0_通り芯
 62
    3
 10
62200.89
 20
8597.3694
 40
350
 41
1
 50
0
  1
池底
  0
TEXT
  8
_0-0_通り芯
 62
    3
 10
54529.069
 20
12112.838
 40
300
 41
1
 50
0
  1
(T-44～T-34)
  0
TEXT
  8
_0-0_通り芯
 62
    3
 10
54406.441
 20
11082.763
 40
300
 41
1
 50
0
  1
GH=　8.06（池底）
  0
TEXT
  8
_0-0_通り芯
 62
    3
 10
45936.724
 20
3032.5164
 40
300
 41
1
 50
0
  1
DL=　5.00
  0
TEXT
  8
_0-0_通り芯
 62
    3
 10
62150.958
 20
9374.8807
 40
350
 41
1
 50
0
  1
ヘドロ上
  0
TEXT
  8
_0-0_通り芯
 62
    7
 10
46774.359
 20
9417.5932
 40
250
 41
1
 50
0
  1
(T-44)
  0
TEXT
  8
_0-0_通り芯
 62
    7
 10
64279.669
 20
10313.156
 40
250
 41
1
 50
0
  1
(T-34）
  0
TEXT
  8
_0-0_通り芯
 62
    3
 10
55080.897
 20
13069.335
 40
300
 41
1
 50
0
  1
No.7
  0
TEXT
  8
_0-0_通り芯
 62
    3
 10
54381.914
 20
25166.749
 40
300
 41
1
 50
0
  1
GH=　8.41（ヘドロ上）
  0
TEXT
  8
_0-0_通り芯
 62
    7
 10
69592.278
 20
23637.564
 40
250
 41
1
 50
0
  1
(T-30）
  0
TEXT
  8
_0-0_通り芯
 62
    3
 10
62628.81
 20
11787.817
 40
300
 41
1
 50
90
  1
1：100
  0
TEXT
  8
_0-0_通り芯
 62
    3
 10
54381.914
 20
11450.646
 40
300
 41
1
 50
0
  1
GH=　8.34（ヘドロ上）
  0
TEXT
  8
_0-0_通り芯
 62
    3
 10
61089.398
 20
10824.011
 40
300
 41
1
 50
0
  1
1：500
  0
TEXT
  8
_0-0_通り芯
 62
    3
 10
55736.467
 20
7844.4885
 40
350
 41
1
 50
0
  1
N.W.L　＝　9.85
  0
TEXT
  8
_0-0_通り芯
 62
    3
 10
71946.441
 20
3637.4955
 40
300
 41
1
 50
0
  1
調製・・・
  0
TEXT
  8
_0-0_通り芯
 62
    3
 10
74600.569
 20
3053.0836
 40
300
 41
1
 50
0
  1
ソウギョ・バスターズ
  0
TEXT
  8
_0-0_通り芯
 62
    3
 10
74972.223
 20
3615.5853
 40
300
 41
1
 50
0
  1
平成15年4月7日
  0
TEXT
  8
_0-0_通り芯
 62
    3
 10
71946.441
 20
5314.5765
 40
300
 41
1
 50
0
  1
図面名・・
  0
TEXT
  8
_0-0_通り芯
 62
    3
 10
73926.671
 20
4178.087
 40
300
 41
1
 50
0
  1
平成13年8月17日～平成15年2月23日
  0
TEXT
  8
_0-0_通り芯
 62
    3
 10
71946.441
 20
3074.9923
 40
300
 41
1
 50
0
  1
作業機関・
  0
TEXT
  8
_0-0_通り芯
 62
    3
 10
71946.441
 20
4199.9953
 40
300
 41
1
 50
0
  1
測量・・・
  0
TEXT
  8
_0-0_通り芯
 62
    3
 10
75750.392
 20
4740.8859
 40
300
 41
1
 50
0
  1
図面番号
  0
TEXT
  8
_0-0_通り芯
 62
    3
 10
74833.338
 20
5292.6681
 40
300
 41
1
 50
0
  1
大沢の池横断図
  0
TEXT
  8
_0-0_通り芯
 62
    3
 10
73591.176
 20
4740.6828
 40
300
 41
1
 50
0
  1
1/100,1/500
  0
TEXT
  8
_0-0_通り芯
 62
    3
 10
71946.441
 20
4757.289
 40
300
 41
1
 50
0
  1
縮尺・・・
  0
TEXT
  8
_0-0_通り芯
 62
    3
 10
71946.441
 20
5877.0736
 40
300
 41
1
 50
0
  1
事業名・・
  0
TEXT
  8
_0-0_通り芯
 62
    3
 10
74229.008
 20
5862.0925
 40
300
 41
1
 50
0
  1
大沢の池環境管理プロジェクト
  0
TEXT
  8
_0-0_通り芯
 62
    3
 10
40688.054
 20
16745.837
 40
300
 41
1
 50
0
  1
DL=　5.00
  0
TEXT
  8
_0-0_通り芯
 62
    7
 10
43713.304
 20
37059.484
 40
250
 41
1
 50
0
  1
(T-50)
  0
TEXT
  8
_0-0_通り芯
 62
    3
 10
67761.326
 20
38464.232
 40
300
 41
1
 50
0
  1
1：500
  0
TEXT
  8
_0-0_通り芯
 62
    3
 10
68822.889
 20
37015.1
 40
350
 41
1
 50
0
  1
ヘドロ上
  0
TEXT
  8
_0-0_通り芯
 62
    3
 10
55736.474
 20
35278.014
 40
350
 41
1
 50
0
  1
N.W.L　＝　9.85
  0
TEXT
  8
_0-0_通り芯
 62
    3
 10
55080.894
 20
40502.539
 40
300
 41
1
 50
0
  1
No.5
  0
TEXT
  8
_0-0_通り芯
 62
    3
 10
69300.743
 20
39428.039
 40
300
 41
1
 50
90
  1
1：100
  0
TEXT
  8
_0-0_通り芯
 62
    3
 10
68872.826
 20
36237.586
 40
350
 41
1
 50
0
  1
池底
  0
TEXT
  8
_0-0_通り芯
 62
    7
 10
71817.285
 20
51071.183
 40
250
 41
1
 50
0
  1
(T-24）
  0
TEXT
  8
_0-0_通り芯
 62
    3
 10
54381.921
 20
52600.983
 40
300
 41
1
 50
0
  1
GH=　8.25（ヘドロ上）
  0
TEXT
  8
_0-0_通り芯
 62
    3
 10
54406.446
 20
52233.097
 40
300
 41
1
 50
0
  1
GH=　7.95（池底）
  0
TEXT
  8
_0-0_通り芯
 62
    3
 10
35586.993
 20
44164.839
 40
300
 41
1
 50
0
  1
DL=　5.00
  0
TEXT
  8
_0-0_通り芯
 62
    3
 10
55736.474
 20
48995.149
 40
350
 41
1
 50
0
  1
N.W.L　＝　9.85
  0
TEXT
  8
_0-0_通り芯
 62
    3
 10
55080.894
 20
54219.669
 40
300
 41
1
 50
0
  1
No.4
  0
TEXT
  8
_0-0_通り芯
 62
    7
 10
71592.687
 20
37354.962
 40
250
 41
1
 50
0
  1
(T-27）
  0
TEXT
  8
_0-0_通り芯
 62
    3
 10
67097.161
 20
22767.142
 40
350
 41
1
 50
0
  1
ヘドロ上
  0
TEXT
  8
_0-0_通り芯
 62
    3
 10
55736.467
 20
21560.599
 40
350
 41
1
 50
0
  1
N.W.L　＝　9.85
  0
TEXT
  8
_0-0_通り芯
 62
    3
 10
67147.101
 20
21989.628
 40
350
 41
1
 50
0
  1
池底
  0
TEXT
  8
_0-0_通り芯
 62
    3
 10
55080.894
 20
26785.439
 40
300
 41
1
 50
0
  1
No.6
  0
TEXT
  8
_0-0_通り芯
 62
    3
 10
54406.441
 20
24798.866
 40
300
 41
1
 50
0
  1
GH=　8.29（池底）
  0
TEXT
  8
_0-0_通り芯
 62
    3
 10
54529.069
 20
25828.946
 40
300
 41
1
 50
0
  1
(T-47～T-30)
  0
TEXT
  8
_0-0_通り芯
 62
    3
 10
66035.601
 20
24216.274
 40
300
 41
1
 50
0
  1
1：500
  0
TEXT
  8
_0-0_通り芯
 62
    3
 10
54529.064
 20
39546.044
 40
300
 41
1
 50
0
  1
(T-50～T-27)
  0
TEXT
  8
_0-0_通り芯
 62
    3
 10
54381.921
 20
38883.85
 40
300
 41
1
 50
0
  1
GH=　8.22（ヘドロ上）
  0
TEXT
  8
_0-0_通り芯
 62
    3
 10
54406.446
 20
38515.967
 40
300
 41
1
 50
0
  1
GH=　7.90（池底）
  0
TEXT
  8
_0-0_通り芯
 62
    7
 10
44721.9
 20
23292.069
 40
250
 41
1
 50
0
  1
(T-47)
  0
TEXT
  8
_0-0_通り芯
 62
    3
 10
67575.015
 20
25180.081
 40
300
 41
1
 50
90
  1
1：100
  0
TEXT
  8
_0-0_通り芯
 62
    3
 10
38622.839
 20
30503.796
 40
300
 41
1
 50
0
  1
DL=　5.00
  0
ENDSEC
  0
EOF
