0
SECTION
2
HEADER
9
$ACADVER
1
AC1009
9
$EXTMIN
10
0.000
20
0.000
30
0.0
9
$EXTMAX
10
84100.000
20
59400.000
30
0.0
9
$LTSCALE
40
100.000
9
$PDMODE
70
0
9
$PDSIZE
40
40.0
0
ENDSEC
0
SECTION
2
TABLES
0
TABLE
2
LTYPE
70
9
0
LTYPE
5
1f4
2
CONTINUOUS
70
64
3
SolidLine
72
65
73
0
40
0.0
0
LTYPE
5
1f5
2
DOT
70
64
3
--  --  --  --  --  --  --  --     
72
65
73
2
40
3.000
49
1.000
49
-2.000
0
LTYPE
5
1f6
2
DASHED
70
64
3
----    ----    ----    ----    
72
65
73
2
40
5.000
49
2.000
49
-3.000
0
LTYPE
5
1f7
2
DASHED2
70
64
3
------  ------  ------  ------ 
72
65
73
2
40
10.000
49
4.000
49
-6.000
0
LTYPE
5
1f8
2
CENTER
70
64
3
----- - ----- - ----- - ----- - 
72
65
73
4
40
10.000
49
6.000
49
-3.000
49
1.000
49
-3.000
0
LTYPE
5
1f9
2
CENTER2
70
64
3
----------  --  ----------  -- 
72
65
73
4
40
17.000
49
12.000
49
-5.000
49
2.000
49
-5.000
0
LTYPE
5
1fa
2
PHANTOM
70
64
3
--- - - --- - - --- - - --- - -
72
65
73
6
40
13.000
49
5.000
49
-3.000
49
1.000
49
-3.000
49
1.000
49
-3.000
0
LTYPE
5
1fb
2
PHANTOM2
70
64
3
--------  -  -  --------  -  -
72
65
73
6
40
20.000
49
6.000
49
-5.000
49
2.000
49
-5.000
49
2.000
49
-5.000
0
LTYPE
5
1fc
2
HIDDEN
70
64
3
-   -   -   -   -   -   -   -   
72
65
73
2
40
3.000
49
0.500
49
-2.500
0
ENDTAB
0
TABLE
2
STYLE
70
1
0
STYLE
5
1fd
100
AcDbSymbolTableRecord
100
AcDbTextStyleTableRecord
2
STANDARD
70
0
40
0.0
41
1.0
50
0.0
71
0
42
0.0
3
txt.shx
4
extfont.shx
0
STYLE
5
1fe
100
AcDbSymbolTableRecord
100
AcDbTextStyleTableRecord
2
TATEGAKI
70
4
40
0.0
41
1.0
50
0.0
71
0
42
0.0
3
txt.shx
4
extfont.shx
0
STYLE
5
1ff
100
AcDbSymbolTableRecord
100
AcDbTextStyleTableRecord
2
DIM
70
0
40
0.0
41
0.75
50
0.0
71
0
42
0.0
3
txt.shx
4
extfont.shx
0
STYLE
5
200
100
AcDbSymbolTableRecord
100
AcDbTextStyleTableRecord
2
_Gothic_
70
0
40
0.0
41
1.0
50
0.0
71
0
42
0.0
3
MS Gothic
4

0
STYLE
5
201
100
AcDbSymbolTableRecord
100
AcDbTextStyleTableRecord
2
_TateGothic_
70
4
40
0.0
41
1.0
50
0.0
71
0
42
0.0
3
@MS Gothic
4

0
ENDTAB
0
TABLE
2
LAYER
5
403
100
AcDbSymbolTable
70
10
0
LAYER
5
404
100
AcDbSymbolTableRecord
100
AcDbLayerTableRecord
2
1-0
70
0
62
7
6
CONTINUOUS
0
LAYER
5
405
100
AcDbSymbolTableRecord
100
AcDbLayerTableRecord
2
2-0
70
0
62
-7
6
CONTINUOUS
0
ENDTAB
0
ENDSEC
0
SECTION
2
ENTITIES
0
LINE
5
406
100
AcDbEntity
8
1-0
6
CONTINUOUS
62
4
100
AcDbLine
10
53008.389999999999
20
6864.760000000000
30
0.0
11
53316.040000000001
21
7038.990000000000
31
0.0
0
LINE
5
407
100
AcDbEntity
8
1-0
6
CONTINUOUS
62
4
100
AcDbLine
10
51304.720000000001
20
7615.750000000000
30
0.0
11
51472.169999999998
21
7304.360000000000
31
0.0
0
LINE
5
408
100
AcDbEntity
8
1-0
6
CONTINUOUS
62
4
100
AcDbLine
10
52190.419999999998
20
7088.450000000000
30
0.0
11
52501.800000000003
21
7255.900000000000
31
0.0
0
LINE
5
409
100
AcDbEntity
8
1-0
6
CONTINUOUS
62
4
100
AcDbLine
10
53075.089999999997
20
7105.700000000000
30
0.0
11
53249.330000000002
21
6798.060000000000
31
0.0
0
LINE
5
40a
100
AcDbEntity
8
1-0
6
CONTINUOUS
62
4
100
AcDbLine
10
42534.139999999999
20
9991.209999999999
30
0.0
11
42845.529999999999
21
10158.660000000000
31
0.0
0
LINE
5
40b
100
AcDbEntity
8
1-0
6
CONTINUOUS
62
4
100
AcDbLine
10
43563.779999999999
20
9942.750000000000
30
0.0
11
43731.220000000001
21
9631.360000000001
31
0.0
0
LINE
5
40c
100
AcDbEntity
8
1-0
6
CONTINUOUS
62
4
100
AcDbLine
10
51232.750000000000
20
7376.330000000000
30
0.0
11
51544.139999999999
21
7543.780000000000
31
0.0
0
LINE
5
40d
100
AcDbEntity
8
1-0
6
CONTINUOUS
62
4
100
AcDbLine
10
52262.389999999999
20
7327.860000000000
30
0.0
11
52429.839999999997
21
7016.480000000000
31
0.0
0
LINE
5
40e
100
AcDbEntity
8
1-0
6
CONTINUOUS
62
4
100
AcDbLine
10
49317.419999999998
20
7952.100000000000
30
0.0
11
49628.800000000003
21
8119.540000000000
31
0.0
0
LINE
5
40f
100
AcDbEntity
8
1-0
6
CONTINUOUS
62
4
100
AcDbLine
10
50347.059999999998
20
7903.630000000000
30
0.0
11
50514.500000000000
21
7592.250000000000
31
0.0
0
LINE
5
410
100
AcDbEntity
8
1-0
6
CONTINUOUS
62
4
100
AcDbLine
10
31615.389999999999
20
16964.430000000000
30
0.0
11
31837.310000000001
21
16689.200000000001
31
0.0
0
LINE
5
411
100
AcDbEntity
8
1-0
6
CONTINUOUS
62
4
100
AcDbLine
10
49389.389999999999
20
8191.520000000000
30
0.0
11
49556.839999999997
21
7880.130000000000
31
0.0
0
LINE
5
412
100
AcDbEntity
8
1-0
6
CONTINUOUS
62
4
100
AcDbLine
10
48359.750000000000
20
8239.980000000000
30
0.0
11
48671.139999999999
21
8407.430000000000
31
0.0
0
LINE
5
413
100
AcDbEntity
8
1-0
6
CONTINUOUS
62
4
100
AcDbLine
10
50275.080000000002
20
7664.210000000000
30
0.0
11
50586.480000000003
21
7831.660000000000
31
0.0
0
LINE
5
414
100
AcDbEntity
8
1-0
6
CONTINUOUS
62
4
100
AcDbLine
10
47402.089999999997
20
8527.870000000001
30
0.0
11
47713.480000000003
21
8695.310000000000
31
0.0
0
LINE
5
415
100
AcDbEntity
8
1-0
6
CONTINUOUS
62
4
100
AcDbLine
10
48431.720000000001
20
8479.400000000000
30
0.0
11
48599.169999999998
21
8168.010000000000
31
0.0
0
LINE
5
416
100
AcDbEntity
8
1-0
6
CONTINUOUS
62
4
100
AcDbLine
10
45407.139999999999
20
9127.570000000000
30
0.0
11
45718.519999999997
21
9295.010000000000
31
0.0
0
LINE
5
417
100
AcDbEntity
8
1-0
6
CONTINUOUS
62
3
100
AcDbLine
10
19896.680000000000
20
21926.689999999999
30
0.0
11
20703.990000000002
21
27981.470000000001
31
0.0
0
LINE
5
418
100
AcDbEntity
8
1-0
6
CONTINUOUS
62
4
100
AcDbLine
10
44449.470000000001
20
9415.450000000001
30
0.0
11
44760.860000000001
21
9582.889999999999
31
0.0
0
LINE
5
419
100
AcDbEntity
8
1-0
6
CONTINUOUS
62
4
100
AcDbLine
10
45479.110000000001
20
9366.980000000000
30
0.0
11
45646.550000000003
21
9055.590000000000
31
0.0
0
LINE
5
41a
100
AcDbEntity
8
1-0
6
CONTINUOUS
62
4
100
AcDbLine
10
76998.649999999994
20
791.590000000000
30
0.0
11
77294.960000000006
21
984.450000000000
31
0.0
0
LINE
5
41b
100
AcDbEntity
8
1-0
6
CONTINUOUS
62
4
100
AcDbLine
10
78028.729999999996
20
829.290000000000
30
0.0
11
78221.600000000006
21
532.980000000000
31
0.0
0
LINE
5
41c
100
AcDbEntity
8
1-0
6
CONTINUOUS
62
4
100
AcDbLine
10
77977.020000000004
20
584.700000000000
30
0.0
11
78273.330000000002
21
777.570000000000
31
0.0
0
LINE
5
41d
100
AcDbEntity
8
1-0
6
CONTINUOUS
62
4
100
AcDbLine
10
77050.360000000001
20
1036.180000000000
30
0.0
11
77243.240000000005
21
739.860000000000
31
0.0
0
LINE
5
41e
100
AcDbEntity
8
1-0
6
CONTINUOUS
62
4
100
AcDbLine
10
41576.470000000001
20
10279.100000000000
30
0.0
11
41887.860000000001
21
10446.540000000001
31
0.0
0
LINE
5
41f
100
AcDbEntity
8
1-0
6
CONTINUOUS
62
4
100
AcDbLine
10
42606.110000000001
20
10230.629999999999
30
0.0
11
42773.559999999998
21
9919.240000000000
31
0.0
0
LINE
5
420
100
AcDbEntity
8
1-0
6
CONTINUOUS
62
4
100
AcDbLine
10
43491.800000000003
20
9703.330000000000
30
0.0
11
43803.190000000002
21
9870.780000000001
31
0.0
0
LINE
5
421
100
AcDbEntity
8
1-0
6
CONTINUOUS
62
4
100
AcDbLine
10
41648.449999999997
20
10518.510000000000
30
0.0
11
41815.900000000001
21
10207.129999999999
31
0.0
0
LINE
5
422
100
AcDbEntity
8
1-0
6
CONTINUOUS
62
4
100
AcDbLine
10
46364.800000000003
20
8839.680000000000
30
0.0
11
46676.190000000002
21
9007.129999999999
31
0.0
0
LINE
5
423
100
AcDbEntity
8
1-0
6
CONTINUOUS
62
4
100
AcDbLine
10
47474.059999999998
20
8767.280000000001
30
0.0
11
47641.510000000002
21
8455.889999999999
31
0.0
0
LINE
5
424
100
AcDbEntity
8
1-0
6
CONTINUOUS
62
4
100
AcDbLine
10
44521.440000000002
20
9654.860000000001
30
0.0
11
44688.889999999999
21
9343.480000000000
31
0.0
0
LINE
5
425
100
AcDbEntity
8
1-0
6
CONTINUOUS
62
4
100
AcDbLine
10
46436.779999999999
20
9079.100000000000
30
0.0
11
46604.209999999999
21
8767.709999999999
31
0.0
0
LINE
5
426
100
AcDbEntity
8
1-0
6
CONTINUOUS
62
3
100
AcDbLine
10
17990.759999999998
20
8843.629999999999
30
0.0
11
12724.110000000001
21
11223.629999999999
31
0.0
0
LINE
5
427
100
AcDbEntity
8
1-0
6
CONTINUOUS
62
3
100
AcDbLine
10
38636.059999999998
20
9574.139999999999
30
0.0
11
21557.099999999999
21
12931.430000000000
31
0.0
0
LINE
5
428
100
AcDbEntity
8
1-0
6
CONTINUOUS
62
3
100
AcDbLine
10
18115.110000000001
20
8997.850000000000
30
0.0
11
22344.220000000001
21
8011.570000000000
31
0.0
0
LINE
5
429
100
AcDbEntity
8
1-0
6
CONTINUOUS
62
3
100
AcDbLine
10
14383.070000000000
20
10504.129999999999
30
0.0
11
12724.110000000001
21
11223.629999999999
31
0.0
0
LINE
5
42a
100
AcDbEntity
8
1-0
6
CONTINUOUS
62
4
100
AcDbLine
10
32756.060000000001
20
13503.930000000000
30
0.0
11
33077.669999999998
21
13650.770000000000
31
0.0
0
LINE
5
42b
100
AcDbEntity
8
1-0
6
CONTINUOUS
62
4
100
AcDbLine
10
33780.370000000003
20
13388.620000000001
30
0.0
11
33927.199999999997
21
13067.000000000000
31
0.0
0
LINE
5
42c
100
AcDbEntity
8
1-0
6
CONTINUOUS
62
3
100
AcDbLine
10
14383.070000000000
20
10504.129999999999
30
0.0
11
18115.110000000001
21
8997.850000000000
31
0.0
0
LINE
5
42d
100
AcDbEntity
8
1-0
6
CONTINUOUS
62
4
100
AcDbLine
10
32843.440000000002
20
13738.160000000000
30
0.0
11
32990.290000000001
21
13416.549999999999
31
0.0
0
LINE
5
42e
100
AcDbEntity
8
1-0
6
CONTINUOUS
62
3
100
AcDbLine
10
13430.180000000000
20
17075.500000000000
30
0.0
11
16347.570000000000
21
15034.040000000001
31
0.0
0
LINE
5
42f
100
AcDbEntity
8
1-0
6
CONTINUOUS
62
3
100
AcDbLine
10
67198.889999999999
20
2004.140000000000
30
0.0
11
63155.489999999998
21
3009.470000000000
31
0.0
0
LINE
5
430
100
AcDbEntity
8
1-0
6
CONTINUOUS
62
3
100
AcDbLine
10
22344.220000000001
20
8011.570000000000
30
0.0
11
40160.230000000003
21
3215.700000000000
31
0.0
0
LINE
5
431
100
AcDbEntity
8
1-0
6
CONTINUOUS
62
3
100
AcDbLine
10
21394.110000000001
20
12458.030000000001
30
0.0
11
41096.760000000002
21
6802.180000000000
31
0.0
0
LINE
5
432
100
AcDbEntity
8
1-0
6
CONTINUOUS
62
3
100
AcDbLine
10
40047.900000000001
20
2172.770000000000
30
0.0
11
25658.669999999998
21
6492.390000000000
31
0.0
0
LINE
5
433
100
AcDbEntity
8
1-0
6
CONTINUOUS
62
3
100
AcDbLine
10
16160.430000000000
20
14570.379999999999
30
0.0
11
13168.920000000000
21
16620.759999999998
31
0.0
0
LINE
5
434
100
AcDbEntity
8
1-0
6
CONTINUOUS
62
3
100
AcDbLine
10
66824.320000000007
20
618.680000000000
30
0.0
11
41228.879999999997
21
7284.450000000000
31
0.0
0
LINE
5
435
100
AcDbEntity
8
1-0
6
CONTINUOUS
62
3
100
AcDbLine
10
14570.209999999999
20
10967.790000000001
30
0.0
11
18266.340000000000
21
9476.000000000000
31
0.0
0
LINE
5
436
100
AcDbEntity
8
1-0
6
CONTINUOUS
62
4
100
AcDbLine
10
31970.619999999999
20
17932.070000000000
30
0.0
11
31695.380000000001
21
17710.160000000000
31
0.0
0
LINE
5
437
100
AcDbEntity
8
1-0
6
CONTINUOUS
62
4
100
AcDbLine
10
31757.320000000000
20
15943.469999999999
30
0.0
11
31482.090000000000
21
15721.559999999999
31
0.0
0
LINE
5
438
100
AcDbEntity
8
1-0
6
CONTINUOUS
62
4
100
AcDbLine
10
34629.900000000001
20
12804.840000000000
30
0.0
11
34951.510000000002
21
12951.690000000001
31
0.0
0
LINE
5
439
100
AcDbEntity
8
1-0
6
CONTINUOUS
62
4
100
AcDbLine
10
35654.209999999999
20
12689.530000000001
30
0.0
11
35801.050000000003
21
12367.910000000000
31
0.0
0
LINE
5
43a
100
AcDbEntity
8
1-0
6
CONTINUOUS
62
4
100
AcDbLine
10
31722.040000000001
20
17958.730000000000
30
0.0
11
31943.950000000001
21
17683.490000000002
31
0.0
0
LINE
5
43b
100
AcDbEntity
8
1-0
6
CONTINUOUS
62
4
100
AcDbLine
10
31863.970000000001
20
16937.770000000000
30
0.0
11
31588.740000000002
21
16715.860000000001
31
0.0
0
LINE
5
43c
100
AcDbEntity
8
1-0
6
CONTINUOUS
62
4
100
AcDbLine
10
31508.750000000000
20
15970.139999999999
30
0.0
11
31730.669999999998
21
15694.900000000000
31
0.0
0
LINE
5
43d
100
AcDbEntity
8
1-0
6
CONTINUOUS
62
4
100
AcDbLine
10
31650.680000000000
20
14949.180000000000
30
0.0
11
31375.439999999999
21
14727.260000000000
31
0.0
0
LINE
5
43e
100
AcDbEntity
8
1-0
6
CONTINUOUS
62
4
100
AcDbLine
10
31819.139999999999
20
13853.480000000000
30
0.0
11
32140.750000000000
21
14000.320000000000
31
0.0
0
LINE
5
43f
100
AcDbEntity
8
1-0
6
CONTINUOUS
62
4
100
AcDbLine
10
33692.980000000003
20
13154.389999999999
30
0.0
11
34014.589999999997
21
13301.230000000000
31
0.0
0
LINE
5
440
100
AcDbEntity
8
1-0
6
CONTINUOUS
62
4
100
AcDbLine
10
31402.110000000001
20
14975.840000000000
30
0.0
11
31624.020000000000
21
14700.610000000001
31
0.0
0
LINE
5
441
100
AcDbEntity
8
1-0
6
CONTINUOUS
62
4
100
AcDbLine
10
31906.520000000000
20
14087.709999999999
30
0.0
11
32053.369999999999
21
13766.090000000000
31
0.0
0
LINE
5
442
100
AcDbEntity
8
1-0
6
CONTINUOUS
62
4
100
AcDbLine
10
36503.739999999998
20
12105.750000000000
30
0.0
11
36825.360000000001
21
12252.600000000000
31
0.0
0
LINE
5
443
100
AcDbEntity
8
1-0
6
CONTINUOUS
62
4
100
AcDbLine
10
34717.279999999999
20
13039.070000000000
30
0.0
11
34864.129999999997
21
12717.459999999999
31
0.0
0
LINE
5
444
100
AcDbEntity
8
1-0
6
CONTINUOUS
62
4
100
AcDbLine
10
35566.820000000000
20
12455.299999999999
30
0.0
11
35888.430000000000
21
12602.139999999999
31
0.0
0
LINE
5
445
100
AcDbEntity
8
1-0
6
CONTINUOUS
62
4
100
AcDbLine
10
36591.120000000003
20
12339.980000000000
30
0.0
11
36737.970000000001
21
12018.370000000001
31
0.0
0
LINE
5
446
100
AcDbEntity
8
1-0
6
CONTINUOUS
62
4
100
AcDbLine
10
66350.259999999995
20
3430.480000000000
30
0.0
11
66524.500000000000
21
3122.840000000000
31
0.0
0
LINE
5
447
100
AcDbEntity
8
1-0
6
CONTINUOUS
62
4
100
AcDbLine
10
66283.559999999998
20
3189.550000000000
30
0.0
11
66591.199999999997
21
3363.780000000000
31
0.0
0
LINE
5
448
100
AcDbEntity
8
1-0
6
CONTINUOUS
62
4
100
AcDbLine
10
68277.759999999995
20
2896.860000000000
30
0.0
11
68451.990000000005
21
2589.220000000000
31
0.0
0
LINE
5
449
100
AcDbEntity
8
1-0
6
CONTINUOUS
62
4
100
AcDbLine
10
68211.050000000003
20
2655.930000000000
30
0.0
11
68518.699999999997
21
2830.160000000000
31
0.0
0
LINE
5
44a
100
AcDbEntity
8
1-0
6
CONTINUOUS
62
4
100
AcDbLine
10
69330.639999999999
20
2668.590000000000
30
0.0
11
69523.509999999995
21
2372.280000000000
31
0.0
0
LINE
5
44b
100
AcDbEntity
8
1-0
6
CONTINUOUS
62
4
100
AcDbLine
10
69278.910000000003
20
2424.000000000000
30
0.0
11
69575.240000000005
21
2616.870000000000
31
0.0
0
LINE
5
44c
100
AcDbEntity
8
1-0
6
CONTINUOUS
62
4
100
AcDbLine
10
67314.009999999995
20
3163.670000000000
30
0.0
11
67488.250000000000
21
2856.030000000000
31
0.0
0
LINE
5
44d
100
AcDbEntity
8
1-0
6
CONTINUOUS
62
4
100
AcDbLine
10
37684.839999999997
20
11665.110000000001
30
0.0
11
37537.989999999998
21
11986.730000000000
31
0.0
0
LINE
5
44e
100
AcDbEntity
8
1-0
6
CONTINUOUS
62
4
100
AcDbLine
10
76072.000000000000
20
1243.060000000000
30
0.0
11
76264.869999999995
21
946.750000000000
31
0.0
0
LINE
5
44f
100
AcDbEntity
8
1-0
6
CONTINUOUS
62
4
100
AcDbLine
10
76020.289999999994
20
998.470000000000
30
0.0
11
76316.600000000006
21
1191.340000000000
31
0.0
0
LINE
5
450
100
AcDbEntity
8
1-0
6
CONTINUOUS
62
4
100
AcDbLine
10
73192.380000000005
20
1596.460000000000
30
0.0
11
73488.690000000002
21
1789.330000000000
31
0.0
0
LINE
5
451
100
AcDbEntity
8
1-0
6
CONTINUOUS
62
4
100
AcDbLine
10
75041.910000000003
20
1205.360000000000
30
0.0
11
75338.240000000005
21
1398.230000000000
31
0.0
0
LINE
5
452
100
AcDbEntity
8
1-0
6
CONTINUOUS
62
4
100
AcDbLine
10
75093.639999999999
20
1449.950000000000
30
0.0
11
75286.509999999995
21
1153.640000000000
31
0.0
0
LINE
5
453
100
AcDbEntity
8
1-0
6
CONTINUOUS
62
4
100
AcDbLine
10
67247.309999999998
20
2922.740000000000
30
0.0
11
67554.940000000002
21
3096.970000000000
31
0.0
0
LINE
5
454
100
AcDbEntity
8
1-0
6
CONTINUOUS
62
4
100
AcDbLine
10
74222.470000000001
20
1634.170000000000
30
0.0
11
74415.339999999997
21
1337.850000000000
31
0.0
0
LINE
5
455
100
AcDbEntity
8
1-0
6
CONTINUOUS
62
4
100
AcDbLine
10
74170.740000000005
20
1389.570000000000
30
0.0
11
74467.050000000003
21
1582.440000000000
31
0.0
0
LINE
5
456
100
AcDbEntity
8
1-0
6
CONTINUOUS
62
4
100
AcDbLine
10
34999.660000000003
20
46157.250000000000
30
0.0
11
35139.370000000003
21
46333.610000000001
31
0.0
0
LINE
5
457
100
AcDbEntity
8
1-0
6
CONTINUOUS
62
4
100
AcDbLine
10
31949.580000000002
20
48382.010000000002
30
0.0
11
32576.669999999998
21
47885.260000000002
31
0.0
0
LINE
5
458
100
AcDbEntity
8
1-0
6
CONTINUOUS
62
4
100
AcDbLine
10
34835.519999999997
20
46191.589999999997
30
0.0
11
35070.669999999998
21
46005.320000000000
31
0.0
0
LINE
5
459
100
AcDbEntity
8
1-0
6
CONTINUOUS
62
4
100
AcDbLine
10
39423.070000000000
20
42283.599999999999
30
0.0
11
40037.129999999997
21
41770.830000000002
31
0.0
0
LINE
5
45a
100
AcDbEntity
8
1-0
6
CONTINUOUS
62
3
100
AcDbLine
10
22675.470000000001
20
37902.010000000002
30
0.0
11
26824.110000000001
21
37571.870000000003
31
0.0
0
LINE
5
45b
100
AcDbEntity
8
1-0
6
CONTINUOUS
62
3
100
AcDbLine
10
22480.439999999999
20
35451.139999999999
30
0.0
11
22675.470000000001
21
37902.010000000002
31
0.0
0
LINE
5
45c
100
AcDbEntity
8
1-0
6
CONTINUOUS
62
4
100
AcDbLine
10
34960.470000000001
20
46188.300000000003
30
0.0
11
35038.860000000001
21
46126.199999999997
31
0.0
0
LINE
5
45d
100
AcDbEntity
8
1-0
6
CONTINUOUS
62
3
100
AcDbLine
10
26629.080000000002
20
35121.000000000000
30
0.0
11
22480.439999999999
21
35451.139999999999
31
0.0
0
LINE
5
45e
100
AcDbEntity
8
1-0
6
CONTINUOUS
62
4
100
AcDbLine
10
38674.769999999997
20
11295.790000000001
30
0.0
11
38527.919999999998
21
11617.410000000000
31
0.0
0
LINE
5
45f
100
AcDbEntity
8
1-0
6
CONTINUOUS
62
4
100
AcDbLine
10
38762.160000000003
20
11530.020000000000
30
0.0
11
38440.540000000001
21
11383.180000000000
31
0.0
0
LINE
5
460
100
AcDbEntity
8
1-0
6
CONTINUOUS
62
4
100
AcDbLine
10
70309.000000000000
20
2461.710000000000
30
0.0
11
70501.869999999995
21
2165.390000000000
31
0.0
0
LINE
5
461
100
AcDbEntity
8
1-0
6
CONTINUOUS
62
4
100
AcDbLine
10
37772.230000000003
20
11899.340000000000
30
0.0
11
37450.610000000001
21
11752.500000000000
31
0.0
0
LINE
5
462
100
AcDbEntity
8
1-0
6
CONTINUOUS
62
4
100
AcDbLine
10
72942.029999999999
20
17269.450000000001
30
0.0
11
73228.809999999998
21
17796.470000000001
31
0.0
0
LINE
5
463
100
AcDbEntity
8
1-0
6
CONTINUOUS
62
3
100
AcDbLine
10
70660.839999999997
20
11155.520000000000
30
0.0
11
54438.779999999999
21
15646.620000000001
31
0.0
0
LINE
5
464
100
AcDbEntity
8
1-0
6
CONTINUOUS
62
3
100
AcDbLine
10
52592.849999999999
20
8978.969999999999
30
0.0
11
54438.779999999999
21
15646.620000000001
31
0.0
0
LINE
5
465
100
AcDbEntity
8
1-0
6
CONTINUOUS
62
3
100
AcDbLine
10
29540.900000000001
20
34228.599999999999
30
0.0
11
29835.770000000000
21
37934.080000000002
31
0.0
0
LINE
5
466
100
AcDbEntity
8
1-0
6
CONTINUOUS
62
4
100
AcDbLine
10
59118.629999999997
20
5173.140000000000
30
0.0
11
58944.410000000003
21
5480.780000000000
31
0.0
0
LINE
5
467
100
AcDbEntity
8
1-0
6
CONTINUOUS
62
4
100
AcDbLine
10
59185.349999999999
20
5414.080000000000
30
0.0
11
58877.690000000002
21
5239.850000000000
31
0.0
0
LINE
5
468
100
AcDbEntity
8
1-0
6
CONTINUOUS
62
4
100
AcDbLine
10
65386.510000000002
20
3697.300000000000
30
0.0
11
65560.759999999995
21
3389.660000000000
31
0.0
0
LINE
5
469
100
AcDbEntity
8
1-0
6
CONTINUOUS
62
4
100
AcDbLine
10
65319.800000000003
20
3456.360000000000
30
0.0
11
65627.449999999997
21
3630.600000000000
31
0.0
0
LINE
5
46a
100
AcDbEntity
8
1-0
6
CONTINUOUS
62
4
100
AcDbLine
10
55966.339999999997
20
6305.260000000000
30
0.0
11
56140.580000000002
21
5997.620000000000
31
0.0
0
LINE
5
46b
100
AcDbEntity
8
1-0
6
CONTINUOUS
62
4
100
AcDbLine
10
55899.639999999999
20
6064.320000000000
30
0.0
11
56207.279999999999
21
6238.560000000000
31
0.0
0
LINE
5
46c
100
AcDbEntity
8
1-0
6
CONTINUOUS
62
4
100
AcDbLine
10
64422.769999999997
20
3964.110000000000
30
0.0
11
64596.989999999998
21
3656.470000000000
31
0.0
0
LINE
5
46d
100
AcDbEntity
8
1-0
6
CONTINUOUS
62
4
100
AcDbLine
10
54935.889999999999
20
6331.130000000000
30
0.0
11
55243.529999999999
21
6505.370000000000
31
0.0
0
LINE
5
46e
100
AcDbEntity
8
1-0
6
CONTINUOUS
62
4
100
AcDbLine
10
60082.379999999997
20
4906.330000000000
30
0.0
11
59908.160000000003
21
5213.970000000000
31
0.0
0
LINE
5
46f
100
AcDbEntity
8
1-0
6
CONTINUOUS
62
4
100
AcDbLine
10
63040.339999999997
20
4346.830000000000
30
0.0
11
62732.690000000002
21
4172.600000000000
31
0.0
0
LINE
5
470
100
AcDbEntity
8
1-0
6
CONTINUOUS
62
4
100
AcDbLine
10
61046.139999999999
20
4639.520000000000
30
0.0
11
60871.900000000001
21
4947.160000000000
31
0.0
0
LINE
5
471
100
AcDbEntity
8
1-0
6
CONTINUOUS
62
4
100
AcDbLine
10
61112.830000000002
20
4880.460000000000
30
0.0
11
60805.209999999999
21
4706.230000000000
31
0.0
0
LINE
5
472
100
AcDbEntity
8
1-0
6
CONTINUOUS
62
4
100
AcDbLine
10
60149.089999999997
20
5147.270000000000
30
0.0
11
59841.440000000002
21
4973.040000000000
31
0.0
0
LINE
5
473
100
AcDbEntity
8
1-0
6
CONTINUOUS
62
4
100
AcDbLine
10
64356.059999999998
20
3723.170000000000
30
0.0
11
64663.709999999999
21
3897.410000000000
31
0.0
0
LINE
5
474
100
AcDbEntity
8
1-0
6
CONTINUOUS
62
4
100
AcDbLine
10
62009.879999999997
20
4372.710000000000
30
0.0
11
61835.639999999999
21
4680.350000000000
31
0.0
0
LINE
5
475
100
AcDbEntity
8
1-0
6
CONTINUOUS
62
4
100
AcDbLine
10
62076.580000000002
20
4613.650000000000
30
0.0
11
61768.949999999997
21
4439.410000000000
31
0.0
0
LINE
5
476
100
AcDbEntity
8
1-0
6
CONTINUOUS
62
4
100
AcDbLine
10
72265.729999999996
20
2047.930000000000
30
0.0
11
72458.600000000006
21
1751.620000000000
31
0.0
0
LINE
5
477
100
AcDbEntity
8
1-0
6
CONTINUOUS
62
4
100
AcDbLine
10
72214.020000000004
20
1803.340000000000
30
0.0
11
72510.320000000007
21
1996.220000000000
31
0.0
0
LINE
5
478
100
AcDbEntity
8
1-0
6
CONTINUOUS
62
4
100
AcDbLine
10
57893.839999999997
20
5771.640000000000
30
0.0
11
58068.059999999998
21
5464.000000000000
31
0.0
0
LINE
5
479
100
AcDbEntity
8
1-0
6
CONTINUOUS
62
4
100
AcDbLine
10
57827.139999999999
20
5530.700000000000
30
0.0
11
58134.779999999999
21
5704.930000000000
31
0.0
0
LINE
5
47a
100
AcDbEntity
8
1-0
6
CONTINUOUS
62
4
100
AcDbLine
10
71287.360000000001
20
2254.820000000000
30
0.0
11
71480.240000000005
21
1958.510000000000
31
0.0
0
LINE
5
47b
100
AcDbEntity
8
1-0
6
CONTINUOUS
62
4
100
AcDbLine
10
71235.649999999994
20
2010.230000000000
30
0.0
11
71531.960000000006
21
2203.100000000000
31
0.0
0
LINE
5
47c
100
AcDbEntity
8
1-0
6
CONTINUOUS
62
4
100
AcDbLine
10
73244.110000000001
20
1841.050000000000
30
0.0
11
73436.979999999996
21
1544.740000000000
31
0.0
0
LINE
5
47d
100
AcDbEntity
8
1-0
6
CONTINUOUS
62
4
100
AcDbLine
10
70257.289999999994
20
2217.110000000000
30
0.0
11
70553.600000000006
21
2409.980000000000
31
0.0
0
LINE
5
47e
100
AcDbEntity
8
1-0
6
CONTINUOUS
62
4
100
AcDbLine
10
55002.589999999997
20
6572.070000000000
30
0.0
11
55176.830000000002
21
6264.430000000000
31
0.0
0
LINE
5
47f
100
AcDbEntity
8
1-0
6
CONTINUOUS
62
4
100
AcDbLine
10
56930.089999999997
20
6038.450000000000
30
0.0
11
57104.320000000000
21
5730.810000000000
31
0.0
0
LINE
5
480
100
AcDbEntity
8
1-0
6
CONTINUOUS
62
4
100
AcDbLine
10
54038.849999999999
20
6838.890000000000
30
0.0
11
54213.080000000002
21
6531.250000000000
31
0.0
0
LINE
5
481
100
AcDbEntity
8
1-0
6
CONTINUOUS
62
4
100
AcDbLine
10
53972.139999999999
20
6597.950000000000
30
0.0
11
54279.779999999999
21
6772.180000000000
31
0.0
0
LINE
5
482
100
AcDbEntity
8
1-0
6
CONTINUOUS
62
4
100
AcDbLine
10
62973.629999999997
20
4105.900000000000
30
0.0
11
62799.389999999999
21
4413.540000000000
31
0.0
0
LINE
5
483
100
AcDbEntity
8
1-0
6
CONTINUOUS
62
4
100
AcDbLine
10
56863.389999999999
20
5797.510000000000
30
0.0
11
57171.029999999999
21
5971.740000000000
31
0.0
0
LINE
5
484
100
AcDbEntity
8
1-0
6
CONTINUOUS
62
4
100
AcDbLine
10
63937.370000000003
20
3839.080000000000
30
0.0
11
63763.150000000001
21
4146.720000000000
31
0.0
0
LINE
5
485
100
AcDbEntity
8
1-0
6
CONTINUOUS
62
4
100
AcDbLine
10
64004.080000000002
20
4080.020000000000
30
0.0
11
63696.440000000002
21
3905.790000000000
31
0.0
0
LINE
5
486
100
AcDbEntity
8
1-0
6
CONTINUOUS
62
3
100
AcDbLine
10
18266.340000000000
20
9476.000000000000
30
0.0
11
22466.060000000001
21
8496.570000000000
31
0.0
0
LINE
5
487
100
AcDbEntity
8
1-0
6
CONTINUOUS
62
4
100
AcDbLine
10
43477.320000000000
20
7760.370000000000
30
0.0
11
43218.690000000002
21
6794.390000000000
31
0.0
0
LINE
5
488
100
AcDbEntity
8
1-0
6
CONTINUOUS
62
4
100
AcDbLine
10
51548.470000000001
20
5858.250000000000
30
0.0
11
50099.500000000000
21
6246.180000000000
31
0.0
0
LINE
5
489
100
AcDbEntity
8
1-0
6
CONTINUOUS
62
3
100
AcDbLine
10
42615.860000000001
20
23775.009999999998
30
0.0
11
39867.360000000001
21
18723.040000000001
31
0.0
0
LINE
5
48a
100
AcDbEntity
8
1-0
6
CONTINUOUS
62
3
100
AcDbLine
10
42615.860000000001
20
23775.009999999998
30
0.0
11
48513.540000000001
21
20205.369999999999
31
0.0
0
LINE
5
48b
100
AcDbEntity
8
1-0
6
CONTINUOUS
62
4
100
AcDbLine
10
43718.809999999998
20
7695.710000000000
30
0.0
11
43235.820000000000
21
7825.020000000000
31
0.0
0
LINE
5
48c
100
AcDbEntity
8
1-0
6
CONTINUOUS
62
4
100
AcDbLine
10
47557.389999999999
20
6667.990000000000
30
0.0
11
47074.400000000001
21
6797.310000000000
31
0.0
0
LINE
5
48d
100
AcDbEntity
8
1-0
6
CONTINUOUS
62
4
100
AcDbLine
10
48105.029999999999
20
6780.170000000000
30
0.0
11
46656.070000000000
21
7168.110000000000
31
0.0
0
LINE
5
48e
100
AcDbEntity
8
1-0
6
CONTINUOUS
62
4
100
AcDbLine
10
50759.330000000002
20
5810.720000000000
30
0.0
11
50500.699999999997
21
4844.750000000000
31
0.0
0
LINE
5
48f
100
AcDbEntity
8
1-0
6
CONTINUOUS
62
4
100
AcDbLine
10
37586.790000000001
20
9627.520000000000
30
0.0
11
36703.699999999997
21
9801.120000000001
31
0.0
0
LINE
5
490
100
AcDbEntity
8
1-0
6
CONTINUOUS
62
4
100
AcDbLine
10
39153.110000000001
20
8918.100000000000
30
0.0
11
38894.480000000003
21
7952.120000000000
31
0.0
0
LINE
5
491
100
AcDbEntity
8
1-0
6
CONTINUOUS
62
4
100
AcDbLine
10
34427.720000000001
20
10095.660000000000
30
0.0
11
34289.360000000001
21
9391.780000000001
31
0.0
0
LINE
5
492
100
AcDbEntity
8
1-0
6
CONTINUOUS
62
4
100
AcDbLine
10
39942.250000000000
20
8965.629999999999
30
0.0
11
38493.290000000001
21
9353.560000000000
31
0.0
0
LINE
5
493
100
AcDbEntity
8
1-0
6
CONTINUOUS
62
4
100
AcDbLine
10
47315.900000000001
20
6732.640000000000
30
0.0
11
47057.269999999997
21
5766.670000000000
31
0.0
0
LINE
5
494
100
AcDbEntity
8
1-0
6
CONTINUOUS
62
3
100
AcDbLine
10
47962.750000000000
20
19948.090000000000
30
0.0
11
44911.599999999999
21
14907.049999999999
31
0.0
0
LINE
5
495
100
AcDbEntity
8
1-0
6
CONTINUOUS
62
4
100
AcDbLine
10
31909.290000000001
20
10743.580000000000
30
0.0
11
31026.189999999999
21
10917.180000000000
31
0.0
0
LINE
5
496
100
AcDbEntity
8
1-0
6
CONTINUOUS
62
4
100
AcDbLine
10
44266.459999999999
20
7807.890000000000
30
0.0
11
42817.489999999998
21
8195.820000000000
31
0.0
0
LINE
5
497
100
AcDbEntity
8
1-0
6
CONTINUOUS
62
4
100
AcDbLine
10
23426.959999999999
20
7333.610000000000
30
0.0
11
23525.560000000001
21
7655.220000000000
31
0.0
0
LINE
5
498
100
AcDbEntity
8
1-0
6
CONTINUOUS
62
4
100
AcDbLine
10
19274.110000000001
20
8554.719999999999
30
0.0
11
19465.320000000000
21
8496.080000000000
31
0.0
0
LINE
5
499
100
AcDbEntity
8
1-0
6
CONTINUOUS
62
4
100
AcDbLine
10
19068.240000000002
20
8565.540000000001
30
0.0
11
19641.880000000001
21
8389.650000000000
31
0.0
0
LINE
5
49a
100
AcDbEntity
8
1-0
6
CONTINUOUS
62
4
100
AcDbLine
10
20649.450000000001
20
8106.830000000000
30
0.0
11
21223.090000000000
21
7930.940000000000
31
0.0
0
LINE
5
49b
100
AcDbEntity
8
1-0
6
CONTINUOUS
62
4
100
AcDbLine
10
66093.789999999994
20
1763.680000000000
30
0.0
11
65608.570000000007
21
1884.330000000000
31
0.0
0
LINE
5
49c
100
AcDbEntity
8
1-0
6
CONTINUOUS
62
4
100
AcDbLine
10
66639.339999999997
20
1885.650000000000
30
0.0
11
65183.660000000003
21
2247.580000000000
31
0.0
0
LINE
5
49d
100
AcDbEntity
8
1-0
6
CONTINUOUS
62
4
100
AcDbLine
10
17843.279999999999
20
8992.590000000000
30
0.0
11
17934.410000000000
21
8951.410000000000
31
0.0
0
LINE
5
49e
100
AcDbEntity
8
1-0
6
CONTINUOUS
62
4
100
AcDbLine
10
17736.720000000001
20
8999.590000000000
30
0.0
11
18010.090000000000
21
8876.049999999999
31
0.0
0
LINE
5
49f
100
AcDbEntity
8
1-0
6
CONTINUOUS
62
4
100
AcDbLine
10
58893.290000000001
20
3891.790000000000
30
0.0
11
57444.330000000002
21
4279.730000000000
31
0.0
0
LINE
5
4a0
100
AcDbEntity
8
1-0
6
CONTINUOUS
62
4
100
AcDbLine
10
62022.410000000003
20
2795.220000000000
30
0.0
11
61788.160000000003
21
1920.240000000000
31
0.0
0
LINE
5
4a1
100
AcDbEntity
8
1-0
6
CONTINUOUS
62
4
100
AcDbLine
10
51000.820000000000
20
5746.070000000000
30
0.0
11
50517.839999999997
21
5875.380000000000
31
0.0
0
LINE
5
4a2
100
AcDbEntity
8
1-0
6
CONTINUOUS
62
3
100
AcDbLine
10
52418.070000000000
20
10917.070000000000
30
0.0
11
53055.250000000000
21
10668.620000000001
31
0.0
0
LINE
5
4a3
100
AcDbEntity
8
1-0
6
CONTINUOUS
62
4
100
AcDbLine
10
62811.550000000003
20
2842.740000000000
30
0.0
11
61362.589999999997
21
3230.670000000000
31
0.0
0
LINE
5
4a4
100
AcDbEntity
8
1-0
6
CONTINUOUS
62
4
100
AcDbLine
10
19369.720000000001
20
8525.400000000000
30
0.0
11
19421.189999999999
21
8693.260000000000
31
0.0
0
LINE
5
4a5
100
AcDbEntity
8
1-0
6
CONTINUOUS
62
4
100
AcDbLine
10
58345.660000000003
20
3779.610000000000
30
0.0
11
57862.669999999998
21
3908.930000000000
31
0.0
0
LINE
5
4a6
100
AcDbEntity
8
1-0
6
CONTINUOUS
62
4
100
AcDbLine
10
62263.910000000003
20
2730.560000000000
30
0.0
11
61780.919999999998
21
2859.870000000000
31
0.0
0
LINE
5
4a7
100
AcDbEntity
8
1-0
6
CONTINUOUS
62
4
100
AcDbLine
10
25845.189999999999
20
11782.770000000000
30
0.0
11
25822.220000000001
21
11665.959999999999
31
0.0
0
LINE
5
4a8
100
AcDbEntity
8
1-0
6
CONTINUOUS
62
4
100
AcDbLine
10
28658.680000000000
20
11229.700000000001
30
0.0
11
28594.230000000000
21
10901.809999999999
31
0.0
0
LINE
5
4a9
100
AcDbEntity
8
1-0
6
CONTINUOUS
62
4
100
AcDbLine
10
28805.860000000001
20
11200.770000000000
30
0.0
11
28511.500000000000
21
11258.629999999999
31
0.0
0
LINE
5
4aa
100
AcDbEntity
8
1-0
6
CONTINUOUS
62
3
100
AcDbLine
10
42580.570000000000
20
23205.720000000001
30
0.0
11
47962.750000000000
21
19948.090000000000
31
0.0
0
LINE
5
4ab
100
AcDbEntity
8
1-0
6
CONTINUOUS
62
3
100
AcDbLine
10
48513.540000000001
20
20205.369999999999
30
0.0
11
45249.540000000001
21
15465.400000000000
31
0.0
0
LINE
5
4ac
100
AcDbEntity
8
1-0
6
CONTINUOUS
62
3
100
AcDbLine
10
39867.360000000001
20
18723.040000000001
30
0.0
11
42580.570000000000
21
23205.720000000001
31
0.0
0
LINE
5
4ad
100
AcDbEntity
8
1-0
6
CONTINUOUS
62
4
100
AcDbLine
10
29129.160000000000
20
11290.090000000000
30
0.0
11
28246.060000000001
21
11463.680000000000
31
0.0
0
LINE
5
4ae
100
AcDbEntity
8
1-0
6
CONTINUOUS
62
3
100
AcDbLine
10
37880.779999999999
20
17648.459999999999
30
0.0
11
50624.610000000001
21
12679.480000000000
31
0.0
0
LINE
5
4af
100
AcDbEntity
8
1-0
6
CONTINUOUS
62
3
100
AcDbLine
10
68334.210000000006
20
2751.530000000000
30
0.0
11
79209.479999999996
21
451.850000000000
31
0.0
0
LINE
5
4b0
100
AcDbEntity
8
1-0
6
CONTINUOUS
62
3
100
AcDbLine
10
73138.210000000006
20
8811.790000000001
30
0.0
11
80043.630000000005
21
3410.850000000000
31
0.0
0
LINE
5
4b1
100
AcDbEntity
8
1-0
6
CONTINUOUS
62
4
100
AcDbLine
10
24024.509999999998
20
9885.820000000000
30
0.0
11
26496.330000000002
21
9198.400000000000
31
0.0
0
LINE
5
4b2
100
AcDbEntity
8
1-0
6
CONTINUOUS
62
3
100
AcDbLine
10
70660.839999999997
20
11155.520000000000
30
0.0
11
73138.210000000006
21
8811.790000000001
31
0.0
0
LINE
5
4b3
100
AcDbEntity
8
1-0
6
CONTINUOUS
62
4
100
AcDbLine
10
31438.810000000001
20
10683.200000000001
30
0.0
11
31322.889999999999
21
10093.500000000000
31
0.0
0
LINE
5
4b4
100
AcDbEntity
8
1-0
6
CONTINUOUS
62
4
100
AcDbLine
10
31585.990000000002
20
10654.270000000000
30
0.0
11
31291.630000000001
21
10712.129999999999
31
0.0
0
LINE
5
4b5
100
AcDbEntity
8
1-0
6
CONTINUOUS
62
3
100
AcDbLine
10
70660.839999999997
20
11155.520000000000
30
0.0
11
72227.100000000006
21
11343.940000000001
31
0.0
0
LINE
5
4b6
100
AcDbEntity
8
1-0
6
CONTINUOUS
62
3
100
AcDbLine
10
80912.649999999994
20
5704.510000000000
30
0.0
11
72227.100000000006
21
11343.940000000001
31
0.0
0
LINE
5
4b7
100
AcDbEntity
8
1-0
6
CONTINUOUS
62
4
100
AcDbLine
10
16896.240000000002
20
9420.549999999999
30
0.0
11
16922.709999999999
21
9479.110000000001
31
0.0
0
LINE
5
4b8
100
AcDbEntity
8
1-0
6
CONTINUOUS
62
4
100
AcDbLine
10
34574.900000000001
20
10066.719999999999
30
0.0
11
34280.540000000001
21
10124.590000000000
31
0.0
0
LINE
5
4b9
100
AcDbEntity
8
1-0
6
CONTINUOUS
62
4
100
AcDbLine
10
16744.110000000001
20
9448.150000000000
30
0.0
11
17017.490000000002
21
9324.610000000001
31
0.0
0
LINE
5
4ba
100
AcDbEntity
8
1-0
6
CONTINUOUS
62
4
100
AcDbLine
10
17888.849999999999
20
8971.990000000000
30
0.0
11
17933.630000000001
21
9071.100000000000
31
0.0
0
LINE
5
4bb
100
AcDbEntity
8
1-0
6
CONTINUOUS
62
4
100
AcDbLine
10
34898.199999999997
20
10156.040000000001
30
0.0
11
34015.110000000001
21
10329.629999999999
31
0.0
0
LINE
5
4bc
100
AcDbEntity
8
1-0
6
CONTINUOUS
62
4
100
AcDbLine
10
37116.320000000000
20
9567.150000000000
30
0.0
11
36934.269999999997
21
8641.049999999999
31
0.0
0
LINE
5
4bd
100
AcDbEntity
8
1-0
6
CONTINUOUS
62
4
100
AcDbLine
10
37263.500000000000
20
9538.209999999999
30
0.0
11
36969.129999999997
21
9596.080000000000
31
0.0
0
LINE
5
4be
100
AcDbEntity
8
1-0
6
CONTINUOUS
62
4
100
AcDbLine
10
39394.610000000001
20
8853.450000000001
30
0.0
11
38911.620000000003
21
8982.760000000000
31
0.0
0
LINE
5
4bf
100
AcDbEntity
8
1-0
6
CONTINUOUS
62
3
100
AcDbLine
10
50624.610000000001
20
12679.480000000000
30
0.0
11
52418.070000000000
21
10917.070000000000
31
0.0
0
LINE
5
4c0
100
AcDbEntity
8
1-0
6
CONTINUOUS
62
4
100
AcDbLine
10
20958.259999999998
20
8090.590000000000
30
0.0
11
21028.139999999999
21
8318.490000000000
31
0.0
0
LINE
5
4c1
100
AcDbEntity
8
1-0
6
CONTINUOUS
62
3
100
AcDbLine
10
45249.540000000001
20
15465.400000000000
30
0.0
11
54438.779999999999
21
15646.620000000001
31
0.0
0
LINE
5
4c2
100
AcDbEntity
8
1-0
6
CONTINUOUS
62
3
100
AcDbLine
10
42615.860000000001
20
23775.009999999998
30
0.0
11
42580.570000000000
21
23205.720000000001
31
0.0
0
LINE
5
4c3
100
AcDbEntity
8
1-0
6
CONTINUOUS
62
4
100
AcDbLine
10
25992.369999999999
20
11753.840000000000
30
0.0
11
25698.000000000000
21
11811.700000000001
31
0.0
0
LINE
5
4c4
100
AcDbEntity
8
1-0
6
CONTINUOUS
62
4
100
AcDbLine
10
26315.660000000000
20
11843.150000000000
30
0.0
11
25432.570000000000
21
12016.750000000000
31
0.0
0
LINE
5
4c5
100
AcDbEntity
8
1-0
6
CONTINUOUS
62
4
100
AcDbLine
10
20862.650000000001
20
8119.910000000000
30
0.0
11
21053.860000000001
21
8061.270000000000
31
0.0
0
LINE
5
4c6
100
AcDbEntity
8
1-0
6
CONTINUOUS
62
4
100
AcDbLine
10
16850.680000000000
20
9441.139999999999
30
0.0
11
16941.799999999999
21
9399.959999999999
31
0.0
0
LINE
5
4c7
100
AcDbEntity
8
1-0
6
CONTINUOUS
62
4
100
AcDbLine
10
43710.190000000002
20
1448.260000000000
30
0.0
11
43903.699999999997
21
1397.690000000000
31
0.0
0
LINE
5
4c8
100
AcDbEntity
8
1-0
6
DASHED
62
3
100
AcDbLine
10
1692.350000000000
20
12387.030000000001
30
0.0
11
11895.520000000000
21
11656.180000000000
31
0.0
0
LINE
5
4c9
100
AcDbEntity
8
1-0
6
CONTINUOUS
62
4
100
AcDbLine
10
46236.029999999999
20
788.170000000000
30
0.0
11
46422.169999999998
21
1500.450000000000
31
0.0
0
LINE
5
4ca
100
AcDbEntity
8
1-0
6
CONTINUOUS
62
3
100
AcDbLine
10
11895.059999999999
20
11656.420000000000
30
0.0
11
12724.110000000001
21
11223.629999999999
31
0.0
0
LINE
5
4cb
100
AcDbEntity
8
1-0
6
CONTINUOUS
62
3
100
AcDbLine
10
41228.879999999997
20
7284.450000000000
30
0.0
11
21557.099999999999
21
12931.430000000000
31
0.0
0
LINE
5
4cc
100
AcDbEntity
8
1-0
6
CONTINUOUS
62
3
100
AcDbLine
10
21557.099999999999
20
12931.430000000000
30
0.0
11
16347.570000000000
21
15034.040000000001
31
0.0
0
LINE
5
4cd
100
AcDbEntity
8
1-0
6
CONTINUOUS
62
3
100
AcDbLine
10
13430.180000000000
20
17075.500000000000
30
0.0
11
10555.780000000001
21
20205.889999999999
31
0.0
0
LINE
5
4ce
100
AcDbEntity
8
1-0
6
CONTINUOUS
62
3
100
AcDbLine
10
3538.880000000000
20
24745.060000000001
30
0.0
11
3377.770000000000
21
28158.480000000000
31
0.0
0
LINE
5
4cf
100
AcDbEntity
8
1-0
6
CONTINUOUS
62
3
100
AcDbLine
10
8740.480000000000
20
25086.060000000001
30
0.0
11
10555.780000000001
21
20205.889999999999
31
0.0
0
LINE
5
4d0
100
AcDbEntity
8
1-0
6
CONTINUOUS
62
3
100
AcDbLine
10
10680.889999999999
20
12290.270000000000
30
0.0
11
6463.100000000000
21
16883.709999999999
31
0.0
0
LINE
5
4d1
100
AcDbEntity
8
1-0
6
CONTINUOUS
62
4
100
AcDbLine
10
43488.239999999998
20
1389.980000000000
30
0.0
11
44068.750000000000
21
1238.270000000000
31
0.0
0
LINE
5
4d2
100
AcDbEntity
8
1-0
6
CONTINUOUS
62
4
100
AcDbLine
10
24955.880000000001
20
6825.550000000000
30
0.0
11
25529.520000000000
21
6649.660000000000
31
0.0
0
LINE
5
4d3
100
AcDbEntity
8
1-0
6
CONTINUOUS
62
4
100
AcDbLine
10
46139.269999999997
20
813.450000000000
30
0.0
11
46332.779999999999
21
762.890000000000
31
0.0
0
LINE
5
4d4
100
AcDbEntity
8
1-0
6
CONTINUOUS
62
4
100
AcDbLine
10
40539.190000000002
20
2276.940000000000
30
0.0
11
40727.709999999999
21
2998.310000000000
31
0.0
0
LINE
5
4d5
100
AcDbEntity
8
1-0
6
CONTINUOUS
62
4
100
AcDbLine
10
40442.430000000000
20
2302.220000000000
30
0.0
11
40635.940000000002
21
2251.650000000000
31
0.0
0
LINE
5
4d6
100
AcDbEntity
8
1-0
6
CONTINUOUS
62
4
100
AcDbLine
10
40220.489999999998
20
2243.950000000000
30
0.0
11
40800.989999999998
21
2092.250000000000
31
0.0
0
LINE
5
4d7
100
AcDbEntity
8
1-0
6
DASHED
62
3
100
AcDbLine
10
13168.920000000000
20
16620.759999999998
30
0.0
11
10121.280000000001
21
19939.820000000000
31
0.0
0
LINE
5
4d8
100
AcDbEntity
8
1-0
6
CONTINUOUS
62
3
100
AcDbLine
10
40160.230000000003
20
3215.700000000000
30
0.0
11
48360.419999999998
21
1080.140000000000
31
0.0
0
LINE
5
4d9
100
AcDbEntity
8
1-0
6
CONTINUOUS
62
3
100
AcDbLine
10
3538.880000000000
20
24745.060000000001
30
0.0
11
6463.100000000000
21
16883.709999999999
31
0.0
0
LINE
5
4da
100
AcDbEntity
8
1-0
6
CONTINUOUS
62
4
100
AcDbLine
10
23118.150000000001
20
7349.850000000000
30
0.0
11
23691.790000000001
21
7173.960000000000
31
0.0
0
LINE
5
4db
100
AcDbEntity
8
1-0
6
CONTINUOUS
62
3
100
AcDbLine
10
40288.599999999999
20
3698.940000000000
30
0.0
11
48491.949999999997
21
1562.560000000000
31
0.0
0
LINE
5
4dc
100
AcDbEntity
8
1-0
6
CONTINUOUS
62
3
100
AcDbLine
10
63155.489999999998
20
3009.470000000000
30
0.0
11
38636.059999999998
21
9574.139999999999
31
0.0
0
LINE
5
4dd
100
AcDbEntity
8
1-0
6
CONTINUOUS
62
3
100
AcDbLine
10
22466.060000000001
20
8496.570000000000
30
0.0
11
40288.599999999999
21
3698.940000000000
31
0.0
0
LINE
5
4de
100
AcDbEntity
8
1-0
6
CONTINUOUS
62
4
100
AcDbLine
10
37136.349999999999
20
3281.730000000000
30
0.0
11
37326.510000000002
21
3915.160000000000
31
0.0
0
LINE
5
4df
100
AcDbEntity
8
1-0
6
CONTINUOUS
62
4
100
AcDbLine
10
28804.080000000002
20
5665.600000000000
30
0.0
11
29378.740000000002
21
5493.090000000000
31
0.0
0
LINE
5
4e0
100
AcDbEntity
8
1-0
6
CONTINUOUS
62
4
100
AcDbLine
10
31313.630000000001
20
5029.700000000000
30
0.0
11
31443.020000000000
21
5460.700000000000
31
0.0
0
LINE
5
4e1
100
AcDbEntity
8
1-0
6
CONTINUOUS
62
3
100
AcDbLine
10
21394.110000000001
20
12458.030000000001
30
0.0
11
16160.430000000000
21
14570.379999999999
31
0.0
0
LINE
5
4e2
100
AcDbEntity
8
1-0
6
CONTINUOUS
62
3
100
AcDbLine
10
25658.669999999998
20
6492.390000000000
30
0.0
11
17990.759999999998
21
8843.629999999999
31
0.0
0
LINE
5
4e3
100
AcDbEntity
8
1-0
6
DASHED
62
3
100
AcDbLine
10
10121.280000000001
20
19939.820000000000
30
0.0
11
8216.860000000001
21
25059.580000000002
31
0.0
0
LINE
5
4e4
100
AcDbEntity
8
1-0
6
CONTINUOUS
62
4
100
AcDbLine
10
27082.910000000000
20
6299.750000000000
30
0.0
11
27204.070000000000
21
6703.350000000000
31
0.0
0
LINE
5
4e5
100
AcDbEntity
8
1-0
6
CONTINUOUS
62
3
100
AcDbLine
10
3535.210000000000
20
24822.849999999999
30
0.0
11
1631.890000000000
21
25056.110000000001
31
0.0
0
LINE
5
4e6
100
AcDbEntity
8
1-0
6
DASHED
62
3
100
AcDbLine
10
10942.150000000000
20
12745.020000000000
30
0.0
11
6897.590000000000
21
17149.790000000001
31
0.0
0
LINE
5
4e7
100
AcDbEntity
8
1-0
6
CONTINUOUS
62
4
100
AcDbLine
10
79695.830000000002
20
5814.980000000000
30
0.0
11
79066.779999999999
21
6223.410000000000
31
0.0
0
LINE
5
4e8
100
AcDbEntity
8
1-0
6
CONTINUOUS
62
4
100
AcDbLine
10
80375.220000000001
20
5713.660000000000
30
0.0
11
78697.789999999994
21
6802.790000000000
31
0.0
0
LINE
5
4e9
100
AcDbEntity
8
1-0
6
CONTINUOUS
62
4
100
AcDbLine
10
76596.020000000004
20
7827.660000000000
30
0.0
11
75966.970000000001
21
8236.080000000000
31
0.0
0
LINE
5
4ea
100
AcDbEntity
8
1-0
6
CONTINUOUS
62
4
100
AcDbLine
10
79226.100000000006
20
5780.160000000000
30
0.0
11
78553.139999999999
21
4743.700000000000
31
0.0
0
LINE
5
4eb
100
AcDbEntity
8
1-0
6
CONTINUOUS
62
4
100
AcDbLine
10
74399.160000000003
20
9593.850000000000
30
0.0
11
72721.729999999996
21
10682.990000000000
31
0.0
0
LINE
5
4ec
100
AcDbEntity
8
1-0
6
CONTINUOUS
62
4
100
AcDbLine
10
73250.039999999994
20
9660.350000000000
30
0.0
11
72846.979999999996
21
9039.570000000000
31
0.0
0
LINE
5
4ed
100
AcDbEntity
8
1-0
6
CONTINUOUS
62
4
100
AcDbLine
10
79330.940000000002
20
5712.090000000000
30
0.0
11
79121.259999999995
21
5848.230000000000
31
0.0
0
LINE
5
4ee
100
AcDbEntity
8
1-0
6
CONTINUOUS
62
4
100
AcDbLine
10
73719.770000000004
20
9695.170000000000
30
0.0
11
73090.729999999996
21
10103.600000000000
31
0.0
0
LINE
5
4ef
100
AcDbEntity
8
1-0
6
CONTINUOUS
62
4
100
AcDbLine
10
54179.790000000001
20
4894.950000000000
30
0.0
11
53940.339999999997
21
4000.540000000000
31
0.0
0
LINE
5
4f0
100
AcDbEntity
8
1-0
6
CONTINUOUS
62
4
100
AcDbLine
10
54421.290000000001
20
4830.300000000000
30
0.0
11
53938.309999999998
21
4959.610000000000
31
0.0
0
LINE
5
4f1
100
AcDbEntity
8
1-0
6
CONTINUOUS
62
4
100
AcDbLine
10
65851.190000000002
20
1824.000000000000
30
0.0
11
65624.610000000001
21
912.720000000000
31
0.0
0
LINE
5
4f2
100
AcDbEntity
8
1-0
6
CONTINUOUS
62
4
100
AcDbLine
10
58104.150000000001
20
3844.260000000000
30
0.0
11
57867.250000000000
21
2959.420000000000
31
0.0
0
LINE
5
4f3
100
AcDbEntity
8
1-0
6
CONTINUOUS
62
4
100
AcDbLine
10
76126.289999999994
20
7792.840000000000
30
0.0
11
75626.449999999997
21
7022.990000000000
31
0.0
0
LINE
5
4f4
100
AcDbEntity
8
1-0
6
CONTINUOUS
62
4
100
AcDbLine
10
76231.130000000005
20
7724.770000000000
30
0.0
11
76021.449999999997
21
7860.910000000000
31
0.0
0
LINE
5
4f5
100
AcDbEntity
8
1-0
6
CONTINUOUS
62
4
100
AcDbLine
10
54968.930000000000
20
4942.480000000000
30
0.0
11
53519.970000000001
21
5330.410000000000
31
0.0
0
LINE
5
4f6
100
AcDbEntity
8
1-0
6
CONTINUOUS
62
4
100
AcDbLine
10
77275.419999999998
20
7726.330000000000
30
0.0
11
75597.990000000005
21
8815.469999999999
31
0.0
0
LINE
5
4f7
100
AcDbEntity
8
1-0
6
CONTINUOUS
62
3
100
AcDbLine
10
52108.660000000003
20
7243.550000000000
30
0.0
11
68334.210000000006
21
2751.530000000000
31
0.0
0
LINE
5
4f8
100
AcDbEntity
8
1-0
6
CONTINUOUS
62
3
100
AcDbLine
10
52674.809999999998
20
9275.020000000000
30
0.0
11
50329.779999999999
21
11579.430000000000
31
0.0
0
LINE
5
4f9
100
AcDbEntity
8
1-0
6
CONTINUOUS
62
3
100
AcDbLine
10
52108.660000000003
20
7243.550000000000
30
0.0
11
40898.910000000003
21
10613.299999999999
31
0.0
0
LINE
5
4fa
100
AcDbEntity
8
1-0
6
CONTINUOUS
62
3
100
AcDbLine
10
39710.339999999997
20
11252.559999999999
30
0.0
11
40423.199999999997
21
15442.129999999999
31
0.0
0
LINE
5
4fb
100
AcDbEntity
8
1-0
6
CONTINUOUS
62
3
100
AcDbLine
10
10680.889999999999
20
12290.270000000000
30
0.0
11
11895.059999999999
21
11656.420000000000
31
0.0
0
LINE
5
4fc
100
AcDbEntity
8
1-0
6
CONTINUOUS
62
4
100
AcDbLine
10
36816.669999999998
20
3260.240000000000
30
0.0
11
37391.339999999997
21
3087.730000000000
31
0.0
0
LINE
5
4fd
100
AcDbEntity
8
1-0
6
CONTINUOUS
62
3
100
AcDbLine
10
40422.900000000001
20
15442.250000000000
30
0.0
11
38182.300000000003
21
16315.889999999999
31
0.0
0
LINE
5
4fe
100
AcDbEntity
8
1-0
6
CONTINUOUS
62
3
100
AcDbLine
10
50329.779999999999
20
11579.430000000000
30
0.0
11
41450.589999999997
21
15041.540000000001
31
0.0
0
LINE
5
4ff
100
AcDbEntity
8
1-0
6
CONTINUOUS
62
3
100
AcDbLine
10
31437.040000000001
20
14129.450000000001
30
0.0
11
31885.770000000000
21
18313.139999999999
31
0.0
0
LINE
5
500
100
AcDbEntity
8
1-0
6
CONTINUOUS
62
3
100
AcDbLine
10
41451.639999999999
20
15045.100000000000
30
0.0
11
41451.010000000002
21
15041.360000000001
31
0.0
0
LINE
5
501
100
AcDbEntity
8
1-0
6
CONTINUOUS
62
4
100
AcDbLine
10
73354.889999999999
20
9592.280000000001
30
0.0
11
73145.190000000002
21
9728.420000000000
31
0.0
0
LINE
5
502
100
AcDbEntity
8
1-0
6
CONTINUOUS
62
4
100
AcDbLine
10
24161.959999999999
20
56690.370000000003
30
0.0
11
24315.369999999999
21
56432.570000000000
31
0.0
0
LINE
5
503
100
AcDbEntity
8
1-0
6
CONTINUOUS
62
3
100
AcDbLine
10
47962.750000000000
20
19948.090000000000
30
0.0
11
48513.540000000001
21
20205.369999999999
31
0.0
0
LINE
5
504
100
AcDbEntity
8
1-0
6
CONTINUOUS
62
3
100
AcDbLine
10
40740.919999999998
20
10868.049999999999
30
0.0
11
41451.010000000002
21
15041.379999999999
31
0.0
0
LINE
5
505
100
AcDbEntity
8
1-0
6
CONTINUOUS
62
3
100
AcDbLine
10
40423.410000000003
20
15443.430000000000
30
0.0
11
40423.199999999997
21
15442.110000000001
31
0.0
0
LINE
5
506
100
AcDbEntity
8
1-0
6
CONTINUOUS
62
3
100
AcDbLine
10
31437.040000000001
20
14129.450000000001
30
0.0
11
39489.389999999999
21
11125.290000000001
31
0.0
0
LINE
5
507
100
AcDbEntity
8
1-0
6
CONTINUOUS
62
3
100
AcDbLine
10
26576.830000000002
20
34464.449999999997
30
0.0
11
26871.700000000001
21
38169.949999999997
31
0.0
0
LINE
5
508
100
AcDbEntity
8
1-0
6
CONTINUOUS
62
4
100
AcDbLine
10
70668.919999999998
20
18335.680000000000
30
0.0
11
70979.029999999999
21
18905.549999999999
31
0.0
0
LINE
5
509
100
AcDbEntity
8
1-0
6
CONTINUOUS
62
4
100
AcDbLine
10
68575.050000000003
20
19475.139999999999
30
0.0
11
68706.800000000003
21
19403.439999999999
31
0.0
0
LINE
5
50a
100
AcDbEntity
8
1-0
6
CONTINUOUS
62
4
100
AcDbLine
10
39826.250000000000
20
42142.349999999999
30
0.0
11
39970.470000000001
21
42315.059999999998
31
0.0
0
LINE
5
50b
100
AcDbEntity
8
1-0
6
CONTINUOUS
62
4
100
AcDbLine
10
74633.029999999999
20
15893.840000000000
30
0.0
11
76038.399999999994
21
15129.030000000001
31
0.0
0
LINE
5
50c
100
AcDbEntity
8
1-0
6
CONTINUOUS
62
4
100
AcDbLine
10
39787.860000000001
20
42174.400000000001
30
0.0
11
39864.629999999997
21
42110.300000000003
31
0.0
0
LINE
5
50d
100
AcDbEntity
8
1-0
6
CONTINUOUS
62
4
100
AcDbLine
10
36321.489999999998
20
45069.110000000001
30
0.0
11
36465.709999999999
21
45241.809999999998
31
0.0
0
LINE
5
50e
100
AcDbEntity
8
1-0
6
CONTINUOUS
62
4
100
AcDbLine
10
29848.389999999999
20
50237.830000000002
30
0.0
11
29926.779999999999
21
50175.730000000003
31
0.0
0
LINE
5
50f
100
AcDbEntity
8
1-0
6
CONTINUOUS
62
4
100
AcDbLine
10
49401.070000000000
20
34306.750000000000
30
0.0
11
49478.099999999999
21
34242.959999999999
31
0.0
0
LINE
5
510
100
AcDbEntity
8
1-0
6
CONTINUOUS
62
4
100
AcDbLine
10
49260.269999999997
20
34293.500000000000
30
0.0
11
49491.339999999997
21
34102.160000000003
31
0.0
0
LINE
5
511
100
AcDbEntity
8
1-0
6
CONTINUOUS
62
4
100
AcDbLine
10
42770.639999999999
20
39504.879999999997
30
0.0
11
43386.820000000000
21
38994.660000000003
31
0.0
0
LINE
5
512
100
AcDbEntity
8
1-0
6
CONTINUOUS
62
4
100
AcDbLine
10
44337.699999999997
20
38207.300000000003
30
0.0
11
44953.879999999997
21
37697.070000000000
31
0.0
0
LINE
5
513
100
AcDbEntity
8
1-0
6
CONTINUOUS
62
4
100
AcDbLine
10
43011.040000000001
20
39403.199999999997
30
0.0
11
43242.099999999999
21
39211.870000000003
31
0.0
0
LINE
5
514
100
AcDbEntity
8
1-0
6
CONTINUOUS
62
4
100
AcDbLine
10
41465.269999999997
20
40780.540000000001
30
0.0
11
41608.769999999997
21
40953.849999999999
31
0.0
0
LINE
5
515
100
AcDbEntity
8
1-0
6
CONTINUOUS
62
4
100
AcDbLine
10
32317.070000000000
20
48282.269999999997
30
0.0
11
32395.459999999999
21
48220.169999999998
31
0.0
0
LINE
5
516
100
AcDbEntity
8
1-0
6
CONTINUOUS
62
4
100
AcDbLine
10
44702.949999999997
20
38099.610000000001
30
0.0
11
44779.980000000003
21
38035.830000000002
31
0.0
0
LINE
5
517
100
AcDbEntity
8
1-0
6
CONTINUOUS
62
4
100
AcDbLine
10
51418.919999999998
20
32660.389999999999
30
0.0
11
51496.430000000000
21
32597.189999999999
31
0.0
0
LINE
5
518
100
AcDbEntity
8
1-0
6
CONTINUOUS
62
4
100
AcDbLine
10
37779.459999999999
20
43656.160000000003
30
0.0
11
38393.510000000002
21
43143.370000000003
31
0.0
0
LINE
5
519
100
AcDbEntity
8
1-0
6
CONTINUOUS
62
4
100
AcDbLine
10
63999.849999999999
20
22177.290000000001
30
0.0
11
64226.269999999997
21
21980.490000000002
31
0.0
0
LINE
5
51a
100
AcDbEntity
8
1-0
6
CONTINUOUS
62
4
100
AcDbLine
10
51021.279999999999
20
32726.549999999999
30
0.0
11
51641.290000000001
21
32221.009999999998
31
0.0
0
LINE
5
51b
100
AcDbEntity
8
1-0
6
CONTINUOUS
62
4
100
AcDbLine
10
36158.279999999999
20
45107.690000000002
30
0.0
11
36388.550000000003
21
44915.389999999999
31
0.0
0
LINE
5
51c
100
AcDbEntity
8
1-0
6
CONTINUOUS
62
4
100
AcDbLine
10
72241.580000000002
20
46176.089999999997
30
0.0
11
72241.580000000002
21
46237.440000000002
31
0.0
0
LINE
5
51d
100
AcDbEntity
8
1-0
6
CONTINUOUS
62
4
100
AcDbLine
10
73841.580000000002
20
46176.089999999997
30
0.0
11
73841.580000000002
21
46256.800000000003
31
0.0
0
LINE
5
51e
100
AcDbEntity
8
1-0
6
CONTINUOUS
62
3
100
AcDbLine
10
41096.760000000002
20
6802.180000000000
30
0.0
11
65541.240000000005
21
436.150000000000
31
0.0
0
LINE
5
51f
100
AcDbEntity
8
1-0
6
CONTINUOUS
62
4
100
AcDbLine
10
72841.580000000002
20
46176.089999999997
30
0.0
11
72841.580000000002
21
46256.800000000003
31
0.0
0
LINE
5
520
100
AcDbEntity
8
1-0
6
CONTINUOUS
62
4
100
AcDbLine
10
41061.510000000002
20
40920.120000000003
30
0.0
11
41677.690000000002
21
40409.900000000001
31
0.0
0
LINE
5
521
100
AcDbEntity
8
1-0
6
CONTINUOUS
62
4
100
AcDbLine
10
44741.459999999999
20
38067.720000000001
30
0.0
11
44884.959999999999
21
38241.019999999997
31
0.0
0
LINE
5
522
100
AcDbEntity
8
1-0
6
CONTINUOUS
62
4
100
AcDbLine
10
38144.250000000000
20
43546.949999999997
30
0.0
11
38221.019999999997
21
43482.849999999999
31
0.0
0
LINE
5
523
100
AcDbEntity
8
1-0
6
CONTINUOUS
62
4
100
AcDbLine
10
47663.680000000000
20
35745.379999999997
30
0.0
11
47740.699999999997
21
35681.599999999999
31
0.0
0
LINE
5
524
100
AcDbEntity
8
1-0
6
CONTINUOUS
62
4
100
AcDbLine
10
41426.760000000002
20
40812.430000000000
30
0.0
11
41503.779999999999
21
40748.650000000001
31
0.0
0
LINE
5
525
100
AcDbEntity
8
1-0
6
CONTINUOUS
62
4
100
AcDbLine
10
41301.900000000001
20
40818.440000000002
30
0.0
11
41532.970000000001
21
40627.110000000001
31
0.0
0
LINE
5
526
100
AcDbEntity
8
1-0
6
CONTINUOUS
62
4
100
AcDbLine
10
43135.889999999999
20
39397.199999999997
30
0.0
11
43212.919999999998
21
39333.419999999998
31
0.0
0
LINE
5
527
100
AcDbEntity
8
1-0
6
CONTINUOUS
62
4
100
AcDbLine
10
65925.809999999998
20
20575.279999999999
30
0.0
11
66979.839999999997
21
20001.680000000000
31
0.0
0
LINE
5
528
100
AcDbEntity
8
1-0
6
CONTINUOUS
62
3
100
AcDbLine
10
68814.919999999998
20
4487.910000000000
30
0.0
11
70660.839999999997
21
11155.520000000000
31
0.0
0
LINE
5
529
100
AcDbEntity
8
1-0
6
CONTINUOUS
62
4
100
AcDbLine
10
68371.589999999997
20
19415.080000000002
30
0.0
11
68766.850000000006
21
19199.990000000002
31
0.0
0
LINE
5
52a
100
AcDbEntity
8
1-0
6
CONTINUOUS
62
4
100
AcDbLine
10
39663.040000000001
20
42180.930000000000
30
0.0
11
39893.309999999998
21
41988.639999999999
31
0.0
0
LINE
5
52b
100
AcDbEntity
8
1-0
6
CONTINUOUS
62
4
100
AcDbLine
10
66596.229999999996
20
20551.990000000002
30
0.0
11
66761.479999999996
21
20855.669999999998
31
0.0
0
LINE
5
52c
100
AcDbEntity
8
1-0
6
CONTINUOUS
62
4
100
AcDbLine
10
68640.919999999998
20
19439.290000000001
30
0.0
11
68856.009999999995
21
19834.549999999999
31
0.0
0
LINE
5
52d
100
AcDbEntity
8
1-0
6
CONTINUOUS
62
4
100
AcDbLine
10
33641.059999999998
20
47233.459999999999
30
0.0
11
33780.769999999997
21
47409.839999999997
31
0.0
0
LINE
5
52e
100
AcDbEntity
8
1-0
6
CONTINUOUS
62
4
100
AcDbLine
10
79003.509999999995
20
14141.620000000001
30
0.0
11
79179.179999999993
21
14046.030000000001
31
0.0
0
LINE
5
52f
100
AcDbEntity
8
1-0
6
CONTINUOUS
62
4
100
AcDbLine
10
79091.339999999997
20
14093.830000000000
30
0.0
11
79520.759999999995
21
14882.920000000000
31
0.0
0
LINE
5
530
100
AcDbEntity
8
1-0
6
CONTINUOUS
62
4
100
AcDbLine
10
30694.139999999999
20
49472.180000000000
30
0.0
11
30929.299999999999
21
49285.900000000001
31
0.0
0
LINE
5
531
100
AcDbEntity
8
1-0
6
CONTINUOUS
62
4
100
AcDbLine
10
70603.059999999998
20
18371.529999999999
30
0.0
11
70734.789999999994
21
18299.830000000002
31
0.0
0
LINE
5
532
100
AcDbEntity
8
1-0
6
CONTINUOUS
62
4
100
AcDbLine
10
78149.649999999994
20
14037.040000000001
30
0.0
11
79555.029999999999
21
13272.250000000000
31
0.0
0
LINE
5
533
100
AcDbEntity
8
1-0
6
CONTINUOUS
62
4
100
AcDbLine
10
70399.589999999997
20
18311.470000000001
30
0.0
11
70794.850000000006
21
18096.369999999999
31
0.0
0
LINE
5
534
100
AcDbEntity
8
1-0
6
CONTINUOUS
62
4
100
AcDbLine
10
36283.099999999999
20
45101.160000000003
30
0.0
11
36359.870000000003
21
45037.050000000003
31
0.0
0
LINE
5
535
100
AcDbEntity
8
1-0
6
CONTINUOUS
62
4
100
AcDbLine
10
69998.500000000000
20
18358.959999999999
30
0.0
11
71052.529999999999
21
17785.369999999999
31
0.0
0
LINE
5
536
100
AcDbEntity
8
1-0
6
CONTINUOUS
62
4
100
AcDbLine
10
66530.360000000001
20
20587.849999999999
30
0.0
11
66662.100000000006
21
20516.139999999999
31
0.0
0
LINE
5
537
100
AcDbEntity
8
1-0
6
CONTINUOUS
62
4
100
AcDbLine
10
75167.800000000003
20
15830.500000000000
30
0.0
11
75694.820000000007
21
15543.709999999999
31
0.0
0
LINE
5
538
100
AcDbEntity
8
1-0
6
CONTINUOUS
62
4
100
AcDbLine
10
35918.309999999998
20
45210.360000000001
30
0.0
11
36532.360000000001
21
44697.589999999997
31
0.0
0
LINE
5
539
100
AcDbEntity
8
1-0
6
CONTINUOUS
62
4
100
AcDbLine
10
34592.980000000003
20
46288.040000000001
30
0.0
11
35220.070000000000
21
45791.279999999999
31
0.0
0
LINE
5
53a
100
AcDbEntity
8
1-0
6
CONTINUOUS
62
4
100
AcDbLine
10
46137.250000000000
20
37009.320000000000
30
0.0
11
46328.589999999997
21
37240.389999999999
31
0.0
0
LINE
5
53b
100
AcDbEntity
8
1-0
6
CONTINUOUS
62
4
100
AcDbLine
10
45957.930000000000
20
37027.970000000001
30
0.0
11
46189.010000000002
21
36836.629999999997
31
0.0
0
LINE
5
53c
100
AcDbEntity
8
1-0
6
CONTINUOUS
62
4
100
AcDbLine
10
33234.370000000003
20
47364.250000000000
30
0.0
11
33861.470000000001
21
46867.510000000002
31
0.0
0
LINE
5
53d
100
AcDbEntity
8
1-0
6
CONTINUOUS
62
4
100
AcDbLine
10
47702.190000000002
20
35713.489999999998
30
0.0
11
47893.519999999997
21
35944.559999999998
31
0.0
0
LINE
5
53e
100
AcDbEntity
8
1-0
6
CONTINUOUS
62
4
100
AcDbLine
10
47522.870000000003
20
35732.129999999997
30
0.0
11
47753.940000000002
21
35540.790000000001
31
0.0
0
LINE
5
53f
100
AcDbEntity
8
1-0
6
CONTINUOUS
62
4
100
AcDbLine
10
47266.540000000001
20
35814.550000000003
30
0.0
11
47882.720000000001
21
35304.330000000002
31
0.0
0
LINE
5
540
100
AcDbEntity
8
1-0
6
CONTINUOUS
62
4
100
AcDbLine
10
32356.259999999998
20
48251.220000000001
30
0.0
11
32495.970000000001
21
48427.589999999997
31
0.0
0
LINE
5
541
100
AcDbEntity
8
1-0
6
CONTINUOUS
62
4
100
AcDbLine
10
44578.089999999997
20
38105.620000000003
30
0.0
11
44809.160000000003
21
37914.290000000001
31
0.0
0
LINE
5
542
100
AcDbEntity
8
1-0
6
CONTINUOUS
62
4
100
AcDbLine
10
30451.610000000001
20
49568.620000000003
30
0.0
11
31078.700000000001
21
49071.870000000003
31
0.0
0
LINE
5
543
100
AcDbEntity
8
1-0
6
CONTINUOUS
62
4
100
AcDbLine
10
49003.940000000002
20
34375.919999999998
30
0.0
11
49620.120000000003
21
33865.699999999997
31
0.0
0
LINE
5
544
100
AcDbEntity
8
1-0
6
CONTINUOUS
62
4
100
AcDbLine
10
32192.110000000001
20
48285.570000000000
30
0.0
11
32427.270000000000
21
48099.290000000001
31
0.0
0
LINE
5
545
100
AcDbEntity
8
1-0
6
CONTINUOUS
62
4
100
AcDbLine
10
43174.410000000003
20
39365.309999999998
30
0.0
11
43317.910000000003
21
39538.610000000001
31
0.0
0
LINE
5
546
100
AcDbEntity
8
1-0
6
CONTINUOUS
62
4
100
AcDbLine
10
29887.580000000002
20
50206.779999999999
30
0.0
11
30027.290000000001
21
50383.139999999999
31
0.0
0
LINE
5
547
100
AcDbEntity
8
1-0
6
CONTINUOUS
62
4
100
AcDbLine
10
45701.610000000001
20
37110.389999999999
30
0.0
11
46317.790000000001
21
36600.160000000003
31
0.0
0
LINE
5
548
100
AcDbEntity
8
1-0
6
CONTINUOUS
62
3
100
AcDbLine
10
63489.220000000001
20
45604.540000000001
30
0.0
11
63362.519999999997
21
47269.830000000002
31
0.0
0
LINE
5
549
100
AcDbEntity
8
1-0
6
CONTINUOUS
62
4
100
AcDbLine
10
63489.220000000001
20
53668.529999999999
30
0.0
11
63489.220000000001
21
44708.540000000001
31
0.0
0
LINE
5
54a
100
AcDbEntity
8
1-0
6
CONTINUOUS
62
4
100
AcDbLine
10
63489.220000000001
20
50980.529999999999
30
0.0
11
63362.519999999997
21
47523.230000000003
31
0.0
0
LINE
5
54b
100
AcDbEntity
8
1-0
6
CONTINUOUS
62
4
100
AcDbLine
10
63996.000000000000
20
46889.750000000000
30
0.0
11
63759.089999999997
21
47284.709999999999
31
0.0
0
LINE
5
54c
100
AcDbEntity
8
1-0
6
CONTINUOUS
62
3
100
AcDbLine
10
63310.010000000002
20
54206.139999999999
30
0.0
11
63310.010000000002
21
54743.739999999998
31
0.0
0
LINE
5
54d
100
AcDbEntity
8
1-0
6
CONTINUOUS
62
4
100
AcDbLine
10
62982.440000000002
20
46889.750000000000
30
0.0
11
63373.629999999997
21
47124.330000000002
31
0.0
0
LINE
5
54e
100
AcDbEntity
8
1-0
6
CONTINUOUS
62
3
100
AcDbLine
10
62982.440000000002
20
47903.309999999998
30
0.0
11
63367.900000000001
21
47671.949999999997
31
0.0
0
LINE
5
54f
100
AcDbEntity
8
1-0
6
CONTINUOUS
62
4
100
AcDbLine
10
63489.220000000001
20
45604.540000000001
30
0.0
11
63615.910000000003
21
47269.830000000002
31
0.0
0
LINE
5
550
100
AcDbEntity
8
1-0
6
CONTINUOUS
62
3
100
AcDbLine
10
63578.809999999998
20
52772.529999999999
30
0.0
11
63399.620000000003
21
52414.139999999999
31
0.0
0
LINE
5
551
100
AcDbEntity
8
1-0
6
CONTINUOUS
62
3
100
AcDbLine
10
63310.010000000002
20
54743.739999999998
30
0.0
11
63668.410000000003
21
54206.129999999997
31
0.0
0
LINE
5
552
100
AcDbEntity
8
1-0
6
CONTINUOUS
62
3
100
AcDbLine
10
63996.000000000000
20
47903.309999999998
30
0.0
11
63759.089999999997
21
47508.349999999999
31
0.0
0
LINE
5
553
100
AcDbEntity
8
1-0
6
CONTINUOUS
62
4
100
AcDbLine
10
62145.220000000001
20
47396.529999999999
30
0.0
11
63362.519999999997
21
47269.830000000002
31
0.0
0
LINE
5
554
100
AcDbEntity
8
1-0
6
CONTINUOUS
62
3
100
AcDbLine
10
62145.220000000001
20
47396.529999999999
30
0.0
11
63362.519999999997
21
47523.230000000003
31
0.0
0
LINE
5
555
100
AcDbEntity
8
1-0
6
CONTINUOUS
62
4
100
AcDbLine
10
61697.220000000001
20
47396.529999999999
30
0.0
11
65281.220000000001
21
47396.529999999999
31
0.0
0
LINE
5
556
100
AcDbEntity
8
1-0
6
CONTINUOUS
62
3
100
AcDbLine
10
63996.000000000000
20
46889.750000000000
30
0.0
11
63604.800000000003
21
47124.330000000002
31
0.0
0
LINE
5
557
100
AcDbEntity
8
1-0
6
CONTINUOUS
62
3
100
AcDbLine
10
63489.220000000001
20
50980.529999999999
30
0.0
11
63615.910000000003
21
47523.230000000003
31
0.0
0
LINE
5
558
100
AcDbEntity
8
1-0
6
CONTINUOUS
62
4
100
AcDbLine
10
4631.250000000000
20
6032.430000000000
30
0.0
11
4631.250000000000
21
2667.850000000000
31
0.0
0
LINE
5
559
100
AcDbEntity
8
1-0
6
CONTINUOUS
62
4
100
AcDbLine
10
3079.180000000000
20
2667.850000000000
30
0.0
11
10360.420000000000
21
2667.850000000000
31
0.0
0
LINE
5
55a
100
AcDbEntity
8
1-0
6
CONTINUOUS
62
4
100
AcDbLine
10
3079.180000000000
20
6032.430000000000
30
0.0
11
10360.420000000000
21
6032.430000000000
31
0.0
0
LINE
5
55b
100
AcDbEntity
8
1-0
6
CONTINUOUS
62
4
100
AcDbLine
10
3079.180000000000
20
5469.930000000000
30
0.0
11
10360.420000000000
21
5469.930000000000
31
0.0
0
LINE
5
55c
100
AcDbEntity
8
1-0
6
CONTINUOUS
62
4
100
AcDbLine
10
3079.180000000000
20
3792.850000000000
30
0.0
11
10360.420000000000
21
3792.850000000000
31
0.0
0
LINE
5
55d
100
AcDbEntity
8
1-0
6
CONTINUOUS
62
4
100
AcDbLine
10
3079.180000000000
20
3230.350000000000
30
0.0
11
10360.420000000000
21
3230.350000000000
31
0.0
0
LINE
5
55e
100
AcDbEntity
8
1-0
6
CONTINUOUS
62
4
100
AcDbLine
10
6589.580000000000
20
4907.430000000000
30
0.0
11
6589.580000000000
21
4355.350000000000
31
0.0
0
LINE
5
55f
100
AcDbEntity
8
1-0
6
CONTINUOUS
62
4
100
AcDbLine
10
8475.010000000000
20
4907.430000000000
30
0.0
11
8475.010000000000
21
4355.350000000000
31
0.0
0
LINE
5
560
100
AcDbEntity
8
1-0
6
CONTINUOUS
62
4
100
AcDbLine
10
64122.879999999997
20
48030.180000000000
30
0.0
11
62855.559999999998
21
46762.879999999997
31
0.0
0
LINE
5
561
100
AcDbEntity
8
1-0
6
CONTINUOUS
62
3
100
AcDbLine
10
64833.209999999999
20
47396.529999999999
30
0.0
11
63615.910000000003
21
47269.830000000002
31
0.0
0
LINE
5
562
100
AcDbEntity
8
1-0
6
CONTINUOUS
62
3
100
AcDbLine
10
63668.410000000003
20
54206.129999999997
30
0.0
11
63668.419999999998
21
54743.739999999998
31
0.0
0
LINE
5
563
100
AcDbEntity
8
1-0
6
CONTINUOUS
62
4
100
AcDbLine
10
63489.220000000001
20
53668.529999999999
30
0.0
11
63399.610000000001
21
52772.529999999999
31
0.0
0
LINE
5
564
100
AcDbEntity
8
1-0
6
CONTINUOUS
62
4
100
AcDbLine
10
3079.180000000000
20
4907.430000000000
30
0.0
11
10360.420000000000
21
4907.430000000000
31
0.0
0
LINE
5
565
100
AcDbEntity
8
1-0
6
CONTINUOUS
62
4
100
AcDbLine
10
3079.180000000000
20
4355.350000000000
30
0.0
11
10360.420000000000
21
4355.350000000000
31
0.0
0
LINE
5
566
100
AcDbEntity
8
1-0
6
CONTINUOUS
62
4
100
AcDbLine
10
3079.180000000000
20
6032.430000000000
30
0.0
11
3079.180000000000
21
2667.850000000000
31
0.0
0
LINE
5
567
100
AcDbEntity
8
1-0
6
CONTINUOUS
62
4
100
AcDbLine
10
10360.420000000000
20
6032.430000000000
30
0.0
11
10360.420000000000
21
2667.850000000000
31
0.0
0
LINE
5
568
100
AcDbEntity
8
1-0
6
CONTINUOUS
62
4
100
AcDbLine
10
62982.440000000002
20
47903.309999999998
30
0.0
11
63219.330000000002
21
47508.349999999999
31
0.0
0
LINE
5
569
100
AcDbEntity
8
1-0
6
CONTINUOUS
62
4
100
AcDbLine
10
71341.580000000002
20
46236.089999999997
30
0.0
11
76341.580000000002
21
46236.089999999997
31
0.0
0
LINE
5
56a
100
AcDbEntity
8
1-0
6
CONTINUOUS
62
4
100
AcDbLine
10
71341.580000000002
20
46176.089999999997
30
0.0
11
71341.580000000002
21
46276.089999999997
31
0.0
0
LINE
5
56b
100
AcDbEntity
8
1-0
6
CONTINUOUS
62
3
100
AcDbLine
10
63489.220000000001
20
53668.529999999999
30
0.0
11
63578.809999999998
21
52772.529999999999
31
0.0
0
LINE
5
56c
100
AcDbEntity
8
1-0
6
CONTINUOUS
62
4
100
AcDbLine
10
75341.580000000002
20
46176.089999999997
30
0.0
11
75341.580000000002
21
46276.089999999997
31
0.0
0
LINE
5
56d
100
AcDbEntity
8
1-0
6
CONTINUOUS
62
4
100
AcDbLine
10
76341.580000000002
20
46176.089999999997
30
0.0
11
76341.580000000002
21
46276.089999999997
31
0.0
0
LINE
5
56e
100
AcDbEntity
8
1-0
6
CONTINUOUS
62
4
100
AcDbLine
10
71741.580000000002
20
46176.089999999997
30
0.0
11
71741.580000000002
21
46234.209999999999
31
0.0
0
LINE
5
56f
100
AcDbEntity
8
1-0
6
CONTINUOUS
62
4
100
AcDbLine
10
74341.580000000002
20
46176.089999999997
30
0.0
11
74341.580000000002
21
46276.089999999997
31
0.0
0
LINE
5
570
100
AcDbEntity
8
1-0
6
CONTINUOUS
62
4
100
AcDbLine
10
73841.580000000002
20
46176.089999999997
30
0.0
11
73841.580000000002
21
46256.800000000003
31
0.0
0
LINE
5
571
100
AcDbEntity
8
1-0
6
CONTINUOUS
62
4
100
AcDbLine
10
72041.580000000002
20
46176.089999999997
30
0.0
11
72041.580000000002
21
46234.209999999999
31
0.0
0
LINE
5
572
100
AcDbEntity
8
1-0
6
CONTINUOUS
62
4
100
AcDbLine
10
71841.580000000002
20
46176.089999999997
30
0.0
11
71841.580000000002
21
46256.800000000003
31
0.0
0
LINE
5
573
100
AcDbEntity
8
1-0
6
CONTINUOUS
62
4
100
AcDbLine
10
73841.580000000002
20
46176.089999999997
30
0.0
11
73841.580000000002
21
46256.800000000003
31
0.0
0
LINE
5
574
100
AcDbEntity
8
1-0
6
CONTINUOUS
62
4
100
AcDbLine
10
75841.580000000002
20
46176.089999999997
30
0.0
11
75841.580000000002
21
46256.800000000003
31
0.0
0
LINE
5
575
100
AcDbEntity
8
1-0
6
CONTINUOUS
62
4
100
AcDbLine
10
63399.610000000001
20
52772.529999999999
30
0.0
11
63578.820000000000
21
52414.139999999999
31
0.0
0
LINE
5
576
100
AcDbEntity
8
1-0
6
CONTINUOUS
62
4
100
AcDbLine
10
72141.580000000002
20
46176.089999999997
30
0.0
11
72141.580000000002
21
46235.820000000000
31
0.0
0
LINE
5
577
100
AcDbEntity
8
1-0
6
CONTINUOUS
62
4
100
AcDbLine
10
71541.580000000002
20
46176.089999999997
30
0.0
11
71541.580000000002
21
46234.209999999999
31
0.0
0
LINE
5
578
100
AcDbEntity
8
1-0
6
CONTINUOUS
62
3
100
AcDbLine
10
63399.620000000003
20
52414.139999999999
30
0.0
11
63489.220000000001
21
52055.739999999998
31
0.0
0
LINE
5
579
100
AcDbEntity
8
1-0
6
CONTINUOUS
62
3
100
AcDbLine
10
62982.440000000002
20
46889.750000000000
30
0.0
11
63219.339999999997
21
47284.709999999999
31
0.0
0
LINE
5
57a
100
AcDbEntity
8
1-0
6
CONTINUOUS
62
4
100
AcDbLine
10
71641.580000000002
20
46176.089999999997
30
0.0
11
71641.580000000002
21
46235.820000000000
31
0.0
0
LINE
5
57b
100
AcDbEntity
8
1-0
6
CONTINUOUS
62
4
100
AcDbLine
10
63996.000000000000
20
47903.309999999998
30
0.0
11
63610.540000000001
21
47671.949999999997
31
0.0
0
LINE
5
57c
100
AcDbEntity
8
1-0
6
CONTINUOUS
62
4
100
AcDbLine
10
62855.570000000000
20
48030.180000000000
30
0.0
11
64122.879999999997
21
46762.889999999999
31
0.0
0
LINE
5
57d
100
AcDbEntity
8
1-0
6
CONTINUOUS
62
4
100
AcDbLine
10
63578.820000000000
20
52414.139999999999
30
0.0
11
63489.220000000001
21
52055.739999999998
31
0.0
0
LINE
5
57e
100
AcDbEntity
8
1-0
6
CONTINUOUS
62
4
100
AcDbLine
10
64833.209999999999
20
47396.529999999999
30
0.0
11
63615.910000000003
21
47523.230000000003
31
0.0
0
LINE
5
57f
100
AcDbEntity
8
1-0
6
CONTINUOUS
62
4
100
AcDbLine
10
72341.580000000002
20
46176.089999999997
30
0.0
11
72341.580000000002
21
46276.089999999997
31
0.0
0
LINE
5
580
100
AcDbEntity
8
1-0
6
CONTINUOUS
62
4
100
AcDbLine
10
73341.580000000002
20
46176.089999999997
30
0.0
11
73341.580000000002
21
46276.089999999997
31
0.0
0
LINE
5
581
100
AcDbEntity
8
1-0
6
CONTINUOUS
62
4
100
AcDbLine
10
74841.580000000002
20
46176.089999999997
30
0.0
11
74841.580000000002
21
46256.800000000003
31
0.0
0
LINE
5
582
100
AcDbEntity
8
1-0
6
CONTINUOUS
62
4
100
AcDbLine
10
73841.580000000002
20
46176.089999999997
30
0.0
11
73841.580000000002
21
46256.800000000003
31
0.0
0
LINE
5
583
100
AcDbEntity
8
1-0
6
CONTINUOUS
62
4
100
AcDbLine
10
74341.580000000002
20
46176.089999999997
30
0.0
11
74341.580000000002
21
46276.089999999997
31
0.0
0
LINE
5
584
100
AcDbEntity
8
1-0
6
CONTINUOUS
62
4
100
AcDbLine
10
71941.580000000002
20
46176.089999999997
30
0.0
11
71941.580000000002
21
46232.589999999997
31
0.0
0
LINE
5
585
100
AcDbEntity
8
1-0
6
CONTINUOUS
62
4
100
AcDbLine
10
71341.580000000002
20
46176.089999999997
30
0.0
11
76341.580000000002
21
46176.089999999997
31
0.0
0
LINE
5
586
100
AcDbEntity
8
1-0
6
CONTINUOUS
62
4
100
AcDbLine
10
71441.580000000002
20
46176.089999999997
30
0.0
11
71441.580000000002
21
46234.209999999999
31
0.0
0
LINE
5
587
100
AcDbEntity
8
1-0
6
CONTINUOUS
62
4
100
AcDbLine
10
30819.099999999999
20
49468.889999999999
30
0.0
11
30897.490000000002
21
49406.779999999999
31
0.0
0
LINE
5
588
100
AcDbEntity
8
1-0
6
CONTINUOUS
62
4
100
AcDbLine
10
62444.930000000000
20
23396.290000000001
30
0.0
11
63048.730000000003
21
22871.480000000000
31
0.0
0
LINE
5
589
100
AcDbEntity
8
1-0
6
CONTINUOUS
62
4
100
AcDbLine
10
23328.299999999999
20
58091.269999999997
30
0.0
11
23481.720000000001
21
57833.459999999999
31
0.0
0
LINE
5
58a
100
AcDbEntity
8
1-0
6
CONTINUOUS
62
4
100
AcDbLine
10
72582.919999999998
20
17237.180000000000
30
0.0
11
73109.940000000002
21
16950.380000000001
31
0.0
0
LINE
5
58b
100
AcDbEntity
8
1-0
6
CONTINUOUS
62
4
100
AcDbLine
10
64178.660000000003
20
22154.360000000001
30
0.0
11
64453.169999999998
21
22470.200000000001
31
0.0
0
LINE
5
58c
100
AcDbEntity
8
1-0
6
CONTINUOUS
62
4
100
AcDbLine
10
24303.119999999999
20
56599.820000000000
30
0.0
11
24496.470000000001
21
56714.889999999999
31
0.0
0
LINE
5
58d
100
AcDbEntity
8
1-0
6
CONTINUOUS
62
4
100
AcDbLine
10
28614.040000000001
20
51215.610000000001
30
0.0
11
28692.430000000000
21
51153.510000000002
31
0.0
0
LINE
5
58e
100
AcDbEntity
8
1-0
6
CONTINUOUS
62
4
100
AcDbLine
10
29480.900000000001
20
50337.570000000000
30
0.0
11
30107.990000000002
21
49840.809999999998
31
0.0
0
LINE
5
58f
100
AcDbEntity
8
1-0
6
CONTINUOUS
62
4
100
AcDbLine
10
25791.490000000002
20
53805.389999999999
30
0.0
11
26200.610000000001
21
53117.910000000003
31
0.0
0
LINE
5
590
100
AcDbEntity
8
1-0
6
CONTINUOUS
62
4
100
AcDbLine
10
62840.279999999999
20
23317.630000000001
30
0.0
11
62915.769999999997
21
23252.029999999999
31
0.0
0
LINE
5
591
100
AcDbEntity
8
1-0
6
CONTINUOUS
62
4
100
AcDbLine
10
60471.690000000002
20
25150.020000000000
30
0.0
11
60704.209999999999
21
24960.439999999999
31
0.0
0
LINE
5
592
100
AcDbEntity
8
1-0
6
CONTINUOUS
62
4
100
AcDbLine
10
63745.559999999998
20
22265.820000000000
30
0.0
11
64349.360000000001
21
21741.009999999998
31
0.0
0
LINE
5
593
100
AcDbEntity
8
1-0
6
CONTINUOUS
62
4
100
AcDbLine
10
54782.250000000000
20
29789.000000000000
30
0.0
11
55014.769999999997
21
29599.430000000000
31
0.0
0
LINE
5
594
100
AcDbEntity
8
1-0
6
CONTINUOUS
62
4
100
AcDbLine
10
52984.860000000001
20
31383.560000000001
30
0.0
11
53062.360000000001
21
31320.369999999999
31
0.0
0
LINE
5
595
100
AcDbEntity
8
1-0
6
CONTINUOUS
62
4
100
AcDbLine
10
60651.139999999999
20
25132.730000000000
30
0.0
11
60875.699999999997
21
25408.130000000001
31
0.0
0
LINE
5
596
100
AcDbEntity
8
1-0
6
CONTINUOUS
62
4
100
AcDbLine
10
58615.519999999997
20
26792.500000000000
30
0.0
11
58805.110000000001
21
27025.009999999998
31
0.0
0
LINE
5
597
100
AcDbEntity
8
1-0
6
CONTINUOUS
62
4
100
AcDbLine
10
62878.029999999999
20
23284.830000000002
30
0.0
11
63135.339999999997
21
23580.889999999999
31
0.0
0
LINE
5
598
100
AcDbEntity
8
1-0
6
CONTINUOUS
62
4
100
AcDbLine
10
24277.549999999999
20
56642.800000000003
30
0.0
11
24328.689999999999
21
56556.849999999999
31
0.0
0
LINE
5
599
100
AcDbEntity
8
1-0
6
CONTINUOUS
62
4
100
AcDbLine
10
23969.650000000001
20
56866.860000000001
30
0.0
11
24378.770000000000
21
56179.379999999997
31
0.0
0
LINE
5
59a
100
AcDbEntity
8
1-0
6
CONTINUOUS
62
4
100
AcDbLine
10
23136.000000000000
20
58267.750000000000
30
0.0
11
23545.110000000001
21
57580.260000000002
31
0.0
0
LINE
5
59b
100
AcDbEntity
8
1-0
6
CONTINUOUS
62
4
100
AcDbLine
10
27448.720000000001
20
52137.949999999997
30
0.0
11
27595.389999999999
21
52308.559999999998
31
0.0
0
LINE
5
59c
100
AcDbEntity
8
1-0
6
CONTINUOUS
62
3
100
AcDbLine
10
27293.820000000000
20
51974.389999999999
30
0.0
11
35222.940000000002
21
45693.339999999997
31
0.0
0
LINE
5
59d
100
AcDbEntity
8
1-0
6
CONTINUOUS
62
3
100
AcDbLine
10
66043.789999999994
20
21323.360000000001
30
0.0
11
82621.860000000001
21
13593.740000000000
31
0.0
0
LINE
5
59e
100
AcDbEntity
8
1-0
6
CONTINUOUS
62
3
100
AcDbLine
10
5429.180000000000
20
57816.669999999998
30
0.0
11
5940.570000000000
21
58257.739999999998
31
0.0
0
LINE
5
59f
100
AcDbEntity
8
1-0
6
CONTINUOUS
62
3
100
AcDbLine
10
26648.880000000001
20
53111.809999999998
30
0.0
11
66043.789999999994
21
21323.360000000001
31
0.0
0
LINE
5
5a0
100
AcDbEntity
8
1-0
6
CONTINUOUS
62
4
100
AcDbLine
10
24888.669999999998
20
55322.529999999999
30
0.0
11
25297.779999999999
21
54635.040000000001
31
0.0
0
LINE
5
5a1
100
AcDbEntity
8
1-0
6
CONTINUOUS
62
4
100
AcDbLine
10
25080.970000000001
20
55146.040000000001
30
0.0
11
25234.389999999999
21
54888.239999999998
31
0.0
0
LINE
5
5a2
100
AcDbEntity
8
1-0
6
CONTINUOUS
62
4
100
AcDbLine
10
28246.549999999999
20
51315.349999999999
30
0.0
11
28873.639999999999
21
50818.599999999999
31
0.0
0
LINE
5
5a3
100
AcDbEntity
8
1-0
6
CONTINUOUS
62
4
100
AcDbLine
10
25196.560000000001
20
55098.470000000001
30
0.0
11
25247.700000000001
21
55012.519999999997
31
0.0
0
LINE
5
5a4
100
AcDbEntity
8
1-0
6
CONTINUOUS
62
4
100
AcDbLine
10
23469.459999999999
20
58000.720000000001
30
0.0
11
23662.820000000000
21
58115.779999999999
31
0.0
0
LINE
5
5a5
100
AcDbEntity
8
1-0
6
CONTINUOUS
62
4
100
AcDbLine
10
25222.130000000001
20
55055.480000000003
30
0.0
11
25415.490000000002
21
55170.559999999998
31
0.0
0
LINE
5
5a6
100
AcDbEntity
8
1-0
6
CONTINUOUS
62
4
100
AcDbLine
10
29723.430000000000
20
50241.120000000003
30
0.0
11
29958.590000000000
21
50054.849999999999
31
0.0
0
LINE
5
5a7
100
AcDbEntity
8
1-0
6
CONTINUOUS
62
4
100
AcDbLine
10
28489.090000000000
20
51218.910000000003
30
0.0
11
28724.240000000002
21
51032.629999999997
31
0.0
0
LINE
5
5a8
100
AcDbEntity
8
1-0
6
CONTINUOUS
62
4
100
AcDbLine
10
25983.790000000001
20
53628.910000000003
30
0.0
11
26137.209999999999
21
53371.110000000001
31
0.0
0
LINE
5
5a9
100
AcDbEntity
8
1-0
6
CONTINUOUS
62
4
100
AcDbLine
10
27047.599999999999
20
52284.970000000001
30
0.0
11
27654.240000000002
21
51763.430000000000
31
0.0
0
LINE
5
5aa
100
AcDbEntity
8
1-0
6
CONTINUOUS
62
3
100
AcDbLine
10
26871.700000000001
20
38169.949999999997
30
0.0
11
29835.770000000000
21
37934.080000000002
31
0.0
0
LINE
5
5ab
100
AcDbEntity
8
1-0
6
CONTINUOUS
62
4
100
AcDbLine
10
26124.950000000001
20
53538.360000000001
30
0.0
11
26318.310000000001
21
53653.430000000000
31
0.0
0
LINE
5
5ac
100
AcDbEntity
8
1-0
6
CONTINUOUS
62
4
100
AcDbLine
10
56864.419999999998
20
28220.310000000001
30
0.0
11
56941.919999999998
21
28157.110000000001
31
0.0
0
LINE
5
5ad
100
AcDbEntity
8
1-0
6
CONTINUOUS
62
3
100
AcDbLine
10
5920.680000000000
20
31337.070000000000
30
0.0
11
5772.290000000000
21
32137.360000000001
31
0.0
0
LINE
5
5ae
100
AcDbEntity
8
1-0
6
CONTINUOUS
62
3
100
AcDbLine
10
22842.810000000001
20
58613.779999999999
30
0.0
11
26270.099999999999
21
52854.480000000003
31
0.0
0
LINE
5
5af
100
AcDbEntity
8
1-0
6
CONTINUOUS
62
4
100
AcDbLine
10
26099.389999999999
20
53581.339999999997
30
0.0
11
26150.529999999999
21
53495.389999999999
31
0.0
0
LINE
5
5b0
100
AcDbEntity
8
1-0
6
CONTINUOUS
62
3
100
AcDbLine
10
33437.760000000002
20
28099.549999999999
30
0.0
11
25682.099999999999
21
29133.639999999999
31
0.0
0
LINE
5
5b1
100
AcDbEntity
8
1-0
6
CONTINUOUS
62
3
100
AcDbLine
10
32154.669999999998
20
18476.369999999999
30
0.0
11
33437.760000000002
21
28099.549999999999
31
0.0
0
LINE
5
5b2
100
AcDbEntity
8
1-0
6
CONTINUOUS
62
3
100
AcDbLine
10
52592.849999999999
20
8978.969999999999
30
0.0
11
68814.919999999998
21
4487.910000000000
31
0.0
0
LINE
5
5b3
100
AcDbEntity
8
1-0
6
CONTINUOUS
62
3
100
AcDbLine
10
32154.669999999998
20
18476.369999999999
30
0.0
11
24399.009999999998
21
19510.459999999999
31
0.0
0
LINE
5
5b4
100
AcDbEntity
8
1-0
6
CONTINUOUS
62
3
100
AcDbLine
10
29540.900000000001
20
34228.599999999999
30
0.0
11
26576.830000000002
21
34464.449999999997
31
0.0
0
LINE
5
5b5
100
AcDbEntity
8
1-0
6
CONTINUOUS
62
3
100
AcDbLine
10
20703.990000000002
20
27981.470000000001
30
0.0
11
25442.340000000000
21
27349.689999999999
31
0.0
0
LINE
5
5b6
100
AcDbEntity
8
1-0
6
CONTINUOUS
62
3
100
AcDbLine
10
19896.680000000000
20
21926.689999999999
30
0.0
11
24636.700000000001
21
21294.689999999999
31
0.0
0
LINE
5
5b7
100
AcDbEntity
8
1-0
6
CONTINUOUS
62
3
100
AcDbLine
10
24399.009999999998
20
19510.459999999999
30
0.0
11
25682.099999999999
21
29133.639999999999
31
0.0
0
LINE
5
5b8
100
AcDbEntity
8
1-0
6
CONTINUOUS
62
4
100
AcDbLine
10
72048.139999999999
20
17300.509999999998
30
0.0
11
73453.520000000004
21
16535.709999999999
31
0.0
0
LINE
5
5b9
100
AcDbEntity
8
1-0
6
CONTINUOUS
62
4
100
AcDbLine
10
58436.080000000002
20
26809.790000000001
30
0.0
11
58668.589999999997
21
26620.209999999999
31
0.0
0
LINE
5
5ba
100
AcDbEntity
8
1-0
6
CONTINUOUS
62
3
100
AcDbLine
10
62086.970000000001
20
23574.919999999998
30
0.0
11
65414.330000000002
21
20682.849999999999
31
0.0
0
LINE
5
5bb
100
AcDbEntity
8
1-0
6
CONTINUOUS
62
4
100
AcDbLine
10
60612.400000000001
20
25164.330000000002
30
0.0
11
60689.889999999999
21
25101.130000000001
31
0.0
0
LINE
5
5bc
100
AcDbEntity
8
1-0
6
CONTINUOUS
62
4
100
AcDbLine
10
51457.680000000000
20
32628.779999999999
30
0.0
11
51647.250000000000
21
32861.290000000001
31
0.0
0
LINE
5
5bd
100
AcDbEntity
8
1-0
6
CONTINUOUS
62
4
100
AcDbLine
10
54525.309999999998
20
29869.480000000000
30
0.0
11
55145.320000000000
21
29363.939999999999
31
0.0
0
LINE
5
5be
100
AcDbEntity
8
1-0
6
CONTINUOUS
62
4
100
AcDbLine
10
54922.949999999997
20
29803.310000000001
30
0.0
11
55000.459999999999
21
29740.119999999999
31
0.0
0
LINE
5
5bf
100
AcDbEntity
8
1-0
6
CONTINUOUS
62
4
100
AcDbLine
10
66326.899999999994
20
20527.790000000001
30
0.0
11
66722.160000000003
21
20312.689999999999
31
0.0
0
LINE
5
5c0
100
AcDbEntity
8
1-0
6
CONTINUOUS
62
4
100
AcDbLine
10
28653.230000000000
20
51184.559999999998
30
0.0
11
28792.939999999999
21
51360.930000000000
31
0.0
0
LINE
5
5c1
100
AcDbEntity
8
1-0
6
CONTINUOUS
62
4
100
AcDbLine
10
27410.799999999999
20
52170.550000000003
30
0.0
11
27486.619999999999
21
52105.339999999997
31
0.0
0
LINE
5
5c2
100
AcDbEntity
8
1-0
6
CONTINUOUS
62
4
100
AcDbLine
10
23443.889999999999
20
58043.690000000002
30
0.0
11
23495.029999999999
21
57957.750000000000
31
0.0
0
LINE
5
5c3
100
AcDbEntity
8
1-0
6
CONTINUOUS
62
4
100
AcDbLine
10
27286.070000000000
20
52178.860000000001
30
0.0
11
27513.560000000001
21
51983.300000000003
31
0.0
0
LINE
5
5c4
100
AcDbEntity
8
1-0
6
CONTINUOUS
62
4
100
AcDbLine
10
75526.910000000003
20
15862.780000000001
30
0.0
11
75933.679999999993
21
16610.279999999999
31
0.0
0
LINE
5
5c5
100
AcDbEntity
8
1-0
6
CONTINUOUS
62
4
100
AcDbLine
10
60214.750000000000
20
25230.500000000000
30
0.0
11
60834.760000000002
21
24724.950000000001
31
0.0
0
LINE
5
5c6
100
AcDbEntity
8
1-0
6
CONTINUOUS
62
4
100
AcDbLine
10
49439.580000000002
20
34274.860000000001
30
0.0
11
49630.919999999998
21
34505.919999999998
31
0.0
0
LINE
5
5c7
100
AcDbEntity
8
1-0
6
CONTINUOUS
62
4
100
AcDbLine
10
58576.779999999999
20
26824.099999999999
30
0.0
11
58654.279999999999
21
26760.910000000000
31
0.0
0
LINE
5
5c8
100
AcDbEntity
8
1-0
6
CONTINUOUS
62
4
100
AcDbLine
10
45917.330000000002
20
755.180000000000
30
0.0
11
46497.830000000002
21
603.470000000000
31
0.0
0
LINE
5
5c9
100
AcDbEntity
8
1-0
6
CONTINUOUS
62
4
100
AcDbLine
10
30993.959999999999
20
5008.200000000000
30
0.0
11
31568.619999999999
21
4835.690000000000
31
0.0
0
LINE
5
5ca
100
AcDbEntity
8
1-0
6
CONTINUOUS
62
3
100
AcDbLine
10
10680.889999999999
20
12290.270000000000
30
0.0
11
13430.180000000000
21
17075.500000000000
31
0.0
0
LINE
5
5cb
100
AcDbEntity
8
1-0
6
CONTINUOUS
62
4
100
AcDbLine
10
26987.139999999999
20
6328.510000000000
30
0.0
11
27178.689999999999
21
6271.000000000000
31
0.0
0
LINE
5
5cc
100
AcDbEntity
8
1-0
6
CONTINUOUS
62
3
100
AcDbLine
10
8740.480000000000
20
25086.060000000001
30
0.0
11
3535.210000000000
21
24822.810000000001
31
0.0
0
LINE
5
5cd
100
AcDbEntity
8
1-0
6
CONTINUOUS
62
3
100
AcDbLine
10
46587.739999999998
20
463.700000000000
30
0.0
11
40047.900000000001
21
2172.770000000000
31
0.0
0
LINE
5
5ce
100
AcDbEntity
8
1-0
6
CONTINUOUS
62
4
100
AcDbLine
10
43806.949999999997
20
1422.970000000000
30
0.0
11
43995.160000000003
21
2143.220000000000
31
0.0
0
LINE
5
5cf
100
AcDbEntity
8
1-0
6
CONTINUOUS
62
4
100
AcDbLine
10
31217.869999999999
20
5058.450000000000
30
0.0
11
31409.410000000000
21
5000.950000000000
31
0.0
0
LINE
5
5d0
100
AcDbEntity
8
1-0
6
CONTINUOUS
62
4
100
AcDbLine
10
38182.629999999997
20
43514.900000000001
30
0.0
11
38326.849999999999
21
43687.610000000001
31
0.0
0
LINE
5
5d1
100
AcDbEntity
8
1-0
6
CONTINUOUS
62
4
100
AcDbLine
10
51278.230000000003
20
32646.070000000000
30
0.0
11
51510.730000000003
21
32456.490000000002
31
0.0
0
LINE
5
5d2
100
AcDbEntity
8
1-0
6
CONTINUOUS
62
3
100
AcDbLine
10
40340.440000000002
20
41419.820000000000
30
0.0
11
49295.459999999999
21
34004.699999999997
31
0.0
0
LINE
5
5d3
100
AcDbEntity
8
1-0
6
CONTINUOUS
62
3
100
AcDbLine
10
23207.189999999999
20
58837.419999999998
30
0.0
11
26648.880000000001
21
53111.809999999998
31
0.0
0
LINE
5
5d4
100
AcDbEntity
8
1-0
6
CONTINUOUS
62
4
100
AcDbLine
10
46098.739999999998
20
37041.209999999999
30
0.0
11
46175.760000000002
21
36977.430000000000
31
0.0
0
LINE
5
5d5
100
AcDbEntity
8
1-0
6
CONTINUOUS
62
4
100
AcDbLine
10
53023.620000000003
20
31351.959999999999
30
0.0
11
53213.190000000002
21
31584.470000000001
31
0.0
0
LINE
5
5d6
100
AcDbEntity
8
1-0
6
CONTINUOUS
62
4
100
AcDbLine
10
33601.870000000003
20
47264.519999999997
30
0.0
11
33680.260000000002
21
47202.410000000003
31
0.0
0
LINE
5
5d7
100
AcDbEntity
8
1-0
6
CONTINUOUS
62
4
100
AcDbLine
10
33476.910000000003
20
47267.809999999998
30
0.0
11
33712.059999999998
21
47081.529999999999
31
0.0
0
LINE
5
5d8
100
AcDbEntity
8
1-0
6
CONTINUOUS
62
4
100
AcDbLine
10
25180.080000000002
20
6874.490000000000
30
0.0
11
25371.279999999999
21
6815.850000000000
31
0.0
0
LINE
5
5d9
100
AcDbEntity
8
1-0
6
CONTINUOUS
62
4
100
AcDbLine
10
33031.589999999997
20
4396.510000000000
30
0.0
11
33606.250000000000
21
4224.010000000000
31
0.0
0
LINE
5
5da
100
AcDbEntity
8
1-0
6
CONTINUOUS
62
4
100
AcDbLine
10
26763.230000000000
20
6278.260000000000
30
0.0
11
27337.900000000001
21
6105.750000000000
31
0.0
0
LINE
5
5db
100
AcDbEntity
8
1-0
6
CONTINUOUS
62
4
100
AcDbLine
10
29123.750000000000
20
5687.090000000000
30
0.0
11
29253.139999999999
21
6118.090000000000
31
0.0
0
LINE
5
5dc
100
AcDbEntity
8
1-0
6
CONTINUOUS
62
4
100
AcDbLine
10
38019.419999999998
20
43553.480000000003
30
0.0
11
38249.690000000002
21
43361.190000000002
31
0.0
0
LINE
5
5dd
100
AcDbEntity
8
1-0
6
CONTINUOUS
62
4
100
AcDbLine
10
30858.290000000001
20
49437.830000000002
30
0.0
11
30998.000000000000
21
49614.199999999997
31
0.0
0
LINE
5
5de
100
AcDbEntity
8
1-0
6
CONTINUOUS
62
4
100
AcDbLine
10
33255.489999999998
20
4446.760000000000
30
0.0
11
33447.040000000001
21
4389.260000000000
31
0.0
0
LINE
5
5df
100
AcDbEntity
8
1-0
6
CONTINUOUS
62
4
100
AcDbLine
10
67970.500000000000
20
19462.580000000002
30
0.0
11
69024.529999999999
21
18888.980000000000
31
0.0
0
LINE
5
5e0
100
AcDbEntity
8
1-0
6
CONTINUOUS
62
3
100
AcDbLine
10
10942.150000000000
20
12745.020000000000
30
0.0
11
14570.209999999999
21
10967.790000000001
31
0.0
0
LINE
5
5e1
100
AcDbEntity
8
1-0
6
CONTINUOUS
62
4
100
AcDbLine
10
33351.260000000002
20
4418.010000000000
30
0.0
11
33507.800000000003
21
4939.430000000000
31
0.0
0
LINE
5
5e2
100
AcDbEntity
8
1-0
6
DASHED
62
3
100
AcDbLine
10
6897.590000000000
20
17149.790000000001
30
0.0
11
4034.650000000000
21
24846.389999999999
31
0.0
0
LINE
5
5e3
100
AcDbEntity
8
1-0
6
DASHED
62
3
100
AcDbLine
10
1586.400000000000
20
12021.559999999999
30
0.0
11
12723.790000000001
21
11223.790000000001
31
0.0
0
LINE
5
5e4
100
AcDbEntity
8
1-0
6
CONTINUOUS
62
4
100
AcDbLine
10
37040.580000000002
20
3310.480000000000
30
0.0
11
37232.129999999997
21
3252.980000000000
31
0.0
0
LINE
5
5e5
100
AcDbEntity
8
1-0
6
CONTINUOUS
62
4
100
AcDbLine
10
23331.349999999999
20
7362.920000000000
30
0.0
11
23522.560000000001
21
7304.290000000000
31
0.0
0
LINE
5
5e6
100
AcDbEntity
8
1-0
6
CONTINUOUS
62
4
100
AcDbLine
10
29027.980000000000
20
5715.850000000000
30
0.0
11
29219.529999999999
21
5658.350000000000
31
0.0
0
LINE
5
5e7
100
AcDbEntity
8
1-0
6
CONTINUOUS
62
4
100
AcDbLine
10
25275.680000000000
20
6845.170000000000
30
0.0
11
25382.540000000001
21
7193.680000000000
31
0.0
0
LINE
5
5e8
100
AcDbEntity
8
1-0
6
CONTINUOUS
62
4
100
AcDbLine
10
72854.179999999993
20
17317.259999999998
30
0.0
11
73029.860000000001
21
17221.650000000001
31
0.0
0
LINE
5
5e9
100
AcDbEntity
8
1-0
6
CONTINUOUS
62
4
100
AcDbLine
10
62699.209999999999
20
23307.750000000000
30
0.0
11
62925.639999999999
21
23110.950000000001
31
0.0
0
LINE
5
5ea
100
AcDbEntity
8
1-0
6
CONTINUOUS
62
3
100
AcDbLine
10
49295.459999999999
20
34004.699999999997
30
0.0
11
62086.970000000001
21
23574.919999999998
31
0.0
0
LINE
5
5eb
100
AcDbEntity
8
1-0
6
CONTINUOUS
62
3
100
AcDbLine
10
5940.570000000000
20
58257.739999999998
30
0.0
11
5665.290000000000
21
47442.989999999998
31
0.0
0
LINE
5
5ec
100
AcDbEntity
8
1-0
6
CONTINUOUS
62
4
100
AcDbLine
10
56903.169999999998
20
28188.709999999999
30
0.0
11
57092.750000000000
21
28421.209999999999
31
0.0
0
LINE
5
5ed
100
AcDbEntity
8
1-0
6
CONTINUOUS
62
4
100
AcDbLine
10
54961.699999999997
20
29771.709999999999
30
0.0
11
55151.290000000001
21
30004.220000000001
31
0.0
0
LINE
5
5ee
100
AcDbEntity
8
1-0
6
CONTINUOUS
62
4
100
AcDbLine
10
78708.320000000007
20
14017.629999999999
30
0.0
11
79235.339999999997
21
13730.830000000000
31
0.0
0
LINE
5
5ef
100
AcDbEntity
8
1-0
6
CONTINUOUS
62
4
100
AcDbLine
10
75439.070000000007
20
15910.580000000000
30
0.0
11
75614.740000000005
21
15814.980000000000
31
0.0
0
LINE
5
5f0
100
AcDbEntity
8
1-0
6
CONTINUOUS
62
3
100
AcDbLine
10
5665.290000000000
20
47442.989999999998
30
0.0
11
3878.860000000000
21
28147.139999999999
31
0.0
0
LINE
5
5f1
100
AcDbEntity
8
1-0
6
CONTINUOUS
62
3
100
AcDbLine
10
6202.870000000000
20
35051.099999999999
30
0.0
11
5920.680000000000
21
31337.070000000000
31
0.0
0
LINE
5
5f2
100
AcDbEntity
8
1-0
6
CONTINUOUS
62
3
100
AcDbLine
10
35222.940000000002
20
45693.339999999997
30
0.0
11
40340.440000000002
21
41419.820000000000
31
0.0
0
LINE
5
5f3
100
AcDbEntity
8
1-0
6
CONTINUOUS
62
3
100
AcDbLine
10
3377.770000000000
20
28158.480000000000
30
0.0
11
5165.880000000000
21
47472.440000000002
31
0.0
0
LINE
5
5f4
100
AcDbEntity
8
1-0
6
CONTINUOUS
62
3
100
AcDbLine
10
9449.080000000000
20
58547.260000000002
30
0.0
11
9164.160000000000
21
47353.930000000000
31
0.0
0
LINE
5
5f5
100
AcDbEntity
8
1-0
6
CONTINUOUS
62
3
100
AcDbLine
10
8664.320000000000
20
47366.650000000001
30
0.0
11
7882.860000000000
21
35040.339999999997
31
0.0
0
LINE
5
5f6
100
AcDbEntity
8
1-0
6
CONTINUOUS
62
4
100
AcDbLine
10
56466.779999999999
20
28286.470000000001
30
0.0
11
57086.790000000001
21
27780.930000000000
31
0.0
0
LINE
5
5f7
100
AcDbEntity
8
1-0
6
CONTINUOUS
62
3
100
AcDbLine
10
9163.320000000000
20
47335.010000000002
30
0.0
11
8381.860000000001
21
35008.699999999997
31
0.0
0
LINE
5
5f8
100
AcDbEntity
8
1-0
6
CONTINUOUS
62
3
100
AcDbLine
10
5940.570000000000
20
58257.739999999998
30
0.0
11
2468.780000000000
21
58683.220000000001
31
0.0
0
LINE
5
5f9
100
AcDbEntity
8
1-0
6
CONTINUOUS
62
3
100
AcDbLine
10
5429.180000000000
20
57816.669999999998
30
0.0
11
2400.970000000000
21
58187.779999999999
31
0.0
0
LINE
5
5fa
100
AcDbEntity
8
1-0
6
CONTINUOUS
62
3
100
AcDbLine
10
8052.890000000000
20
29472.169999999998
30
0.0
11
8718.730000000000
21
25084.970000000001
31
0.0
0
LINE
5
5fb
100
AcDbEntity
8
1-0
6
CONTINUOUS
62
3
100
AcDbLine
10
5429.180000000000
20
57816.669999999998
30
0.0
11
5165.880000000000
21
47472.440000000002
31
0.0
0
LINE
5
5fc
100
AcDbEntity
8
1-0
6
CONTINUOUS
62
3
100
AcDbLine
10
65414.330000000002
20
20682.849999999999
30
0.0
11
81493.320000000007
21
11932.840000000000
31
0.0
0
LINE
5
5fd
100
AcDbEntity
8
1-0
6
CONTINUOUS
62
3
100
AcDbLine
10
26270.099999999999
20
52854.480000000003
30
0.0
11
27293.820000000000
21
51974.389999999999
31
0.0
0
LINE
5
5fe
100
AcDbEntity
8
1-0
6
CONTINUOUS
62
3
100
AcDbLine
10
3878.860000000000
20
28147.139999999999
30
0.0
11
4034.650000000000
21
24846.389999999999
31
0.0
0
LINE
5
5ff
100
AcDbEntity
8
1-0
6
CONTINUOUS
62
3
100
AcDbLine
10
7882.860000000000
20
35040.339999999997
30
0.0
11
7550.640000000000
21
29449.220000000001
31
0.0
0
LINE
5
600
100
AcDbEntity
8
1-0
6
CONTINUOUS
62
4
100
AcDbLine
10
56723.720000000001
20
28205.990000000002
30
0.0
11
56956.239999999998
21
28016.419999999998
31
0.0
0
LINE
5
601
100
AcDbEntity
8
1-0
6
CONTINUOUS
62
4
100
AcDbLine
10
52587.220000000001
20
31449.740000000002
30
0.0
11
53207.239999999998
21
30944.189999999999
31
0.0
0
LINE
5
602
100
AcDbEntity
8
1-0
6
CONTINUOUS
62
4
100
AcDbLine
10
52844.160000000003
20
31369.250000000000
30
0.0
11
53076.669999999998
21
31179.669999999998
31
0.0
0
LINE
5
603
100
AcDbEntity
8
1-0
6
CONTINUOUS
62
3
100
AcDbLine
10
7550.640000000000
20
29449.220000000001
30
0.0
11
8216.860000000001
21
25059.599999999999
31
0.0
0
LINE
5
604
100
AcDbEntity
8
1-0
6
CONTINUOUS
62
3
100
AcDbLine
10
8946.209999999999
20
58440.889999999999
30
0.0
11
8664.320000000000
21
47366.650000000001
31
0.0
0
LINE
5
605
100
AcDbEntity
8
1-0
6
CONTINUOUS
62
3
100
AcDbLine
10
8052.890000000000
20
29472.169999999998
30
0.0
11
8381.980000000000
21
35010.690000000002
31
0.0
0
LINE
5
606
100
AcDbEntity
8
1-0
6
CONTINUOUS
62
4
100
AcDbLine
10
64140.910000000003
20
22187.160000000000
30
0.0
11
64216.400000000001
21
22121.570000000000
31
0.0
0
LINE
5
607
100
AcDbEntity
8
1-0
6
CONTINUOUS
62
4
100
AcDbLine
10
58179.139999999999
20
26890.270000000000
30
0.0
11
58799.139999999999
21
26384.730000000000
31
0.0
0
LINE
5
608
100
AcDbEntity
8
1-0
6
CONTINUOUS
62
4
100
AcDbLine
10
26496.330000000002
20
9198.400000000000
30
0.0
11
26237.959999999999
21
9350.840000000000
31
0.0
0
LINE
5
609
100
AcDbEntity
8
1-0
6
CONTINUOUS
62
4
100
AcDbLine
10
26496.330000000002
20
9198.400000000000
30
0.0
11
26196.340000000000
21
9201.230000000000
31
0.0
0
ARC
5
60a
100
AcDbEntity
8
1-0
6
CONTINUOUS
62
4
100
AcDbCircle
10
36415.620000000003
20
4327.260000000000
30
0.0
40
299.999997209656
100
AcDbArc
50
4.404968261719
51
145.462570190430
0
ARC
5
60b
100
AcDbEntity
8
1-0
6
CONTINUOUS
62
4
100
AcDbCircle
10
51305.629999999997
20
4763.510000000000
30
0.0
40
299.999997209656
100
AcDbArc
50
184.874023437500
51
325.931625366211
0
ARC
5
60c
100
AcDbEntity
8
1-0
6
CONTINUOUS
62
4
100
AcDbCircle
10
51526.190000000002
20
4499.400000000000
30
0.0
40
299.999997209656
100
AcDbArc
50
184.874023437500
51
325.931625366211
0
ARC
5
60d
100
AcDbEntity
8
1-0
6
CONTINUOUS
62
4
100
AcDbCircle
10
55878.669999999998
20
3365.900000000000
30
0.0
40
299.999997209656
100
AcDbArc
50
184.874023437500
51
325.931625366211
0
ARC
5
60e
100
AcDbEntity
8
1-0
6
CONTINUOUS
62
4
100
AcDbCircle
10
52072.949999999997
20
4357.010000000000
30
0.0
40
299.999997209656
100
AcDbArc
50
184.874023437500
51
325.931625366211
0
ARC
5
60f
100
AcDbEntity
8
1-0
6
CONTINUOUS
62
4
100
AcDbCircle
10
50758.860000000001
20
4905.910000000000
30
0.0
40
299.999997209656
100
AcDbArc
50
184.874023437500
51
325.931625366211
0
ARC
5
610
100
AcDbEntity
8
1-0
6
CONTINUOUS
62
4
100
AcDbCircle
10
47132.949999999997
20
5850.190000000000
30
0.0
40
299.999997209656
100
AcDbArc
50
184.874023437500
51
325.931625366211
0
ARC
5
611
100
AcDbEntity
8
1-0
6
CONTINUOUS
62
4
100
AcDbCircle
10
46586.190000000002
20
5992.580000000000
30
0.0
40
299.999997209656
100
AcDbArc
50
184.874023437500
51
325.931625366211
0
ARC
5
612
100
AcDbEntity
8
1-0
6
CONTINUOUS
62
4
100
AcDbCircle
10
46039.430000000000
20
6134.970000000000
30
0.0
40
299.999997209656
100
AcDbArc
50
184.874023437500
51
325.931625366211
0
ARC
5
613
100
AcDbEntity
8
1-0
6
CONTINUOUS
62
4
100
AcDbCircle
10
52619.709999999999
20
4214.620000000000
30
0.0
40
299.999997209656
100
AcDbArc
50
184.874023437500
51
325.931625366211
0
ARC
5
614
100
AcDbEntity
8
1-0
6
CONTINUOUS
62
4
100
AcDbCircle
10
52945.910000000003
20
4336.330000000000
30
0.0
40
299.999997209656
100
AcDbArc
50
184.874023437500
51
325.931625366211
0
ARC
5
615
100
AcDbEntity
8
1-0
6
CONTINUOUS
62
4
100
AcDbCircle
10
50979.419999999998
20
4641.790000000000
30
0.0
40
299.999997209656
100
AcDbArc
50
184.874023437500
51
325.931625366211
0
ARC
5
616
100
AcDbEntity
8
1-0
6
CONTINUOUS
62
4
100
AcDbCircle
10
57845.169999999998
20
3060.430000000000
30
0.0
40
299.999997209656
100
AcDbArc
50
184.874023437500
51
325.931625366211
0
ARC
5
617
100
AcDbEntity
8
1-0
6
CONTINUOUS
62
4
100
AcDbCircle
10
57298.400000000001
20
3202.830000000000
30
0.0
40
299.999997209656
100
AcDbArc
50
184.874023437500
51
325.931625366211
0
ARC
5
618
100
AcDbEntity
8
1-0
6
CONTINUOUS
62
4
100
AcDbCircle
10
56751.629999999997
20
3345.210000000000
30
0.0
40
299.999997209656
100
AcDbArc
50
184.874023437500
51
325.931625366211
0
ARC
5
619
100
AcDbEntity
8
1-0
6
CONTINUOUS
62
4
100
AcDbCircle
10
61947.000000000000
20
1785.530000000000
30
0.0
40
299.999997209656
100
AcDbArc
50
184.874023437500
51
325.931625366211
0
ARC
5
61a
100
AcDbEntity
8
1-0
6
CONTINUOUS
62
4
100
AcDbCircle
10
61400.239999999998
20
1927.920000000000
30
0.0
40
299.999997209656
100
AcDbArc
50
184.874023437500
51
325.931625366211
0
ARC
5
61b
100
AcDbEntity
8
1-0
6
CONTINUOUS
62
4
100
AcDbCircle
10
60853.489999999998
20
2070.320000000000
30
0.0
40
299.999997209656
100
AcDbArc
50
184.874023437500
51
325.931625366211
0
ARC
5
61c
100
AcDbEntity
8
1-0
6
CONTINUOUS
62
4
100
AcDbCircle
10
51852.389999999999
20
4621.120000000000
30
0.0
40
299.999997209656
100
AcDbArc
50
184.874023437500
51
325.931625366211
0
ARC
5
61d
100
AcDbEntity
8
1-0
6
CONTINUOUS
62
4
100
AcDbCircle
10
56972.199999999997
20
3081.110000000000
30
0.0
40
299.999997209656
100
AcDbArc
50
184.874023437500
51
325.931625366211
0
ARC
5
61e
100
AcDbEntity
8
1-0
6
CONTINUOUS
62
4
100
AcDbCircle
10
52399.150000000001
20
4478.720000000000
30
0.0
40
299.999997209656
100
AcDbArc
50
184.874023437500
51
325.931625366211
0
ARC
5
61f
100
AcDbEntity
8
1-0
6
CONTINUOUS
62
4
100
AcDbCircle
10
56204.870000000003
20
3487.610000000000
30
0.0
40
299.999997209656
100
AcDbArc
50
184.874023437500
51
325.931625366211
0
ARC
5
620
100
AcDbEntity
8
1-0
6
CONTINUOUS
62
4
100
AcDbCircle
10
55658.110000000001
20
3630.000000000000
30
0.0
40
299.999997209656
100
AcDbArc
50
184.874023437500
51
325.931625366211
0
ARC
5
621
100
AcDbEntity
8
1-0
6
CONTINUOUS
62
4
100
AcDbCircle
10
56425.430000000000
20
3223.500000000000
30
0.0
40
299.999997209656
100
AcDbArc
50
184.874023437500
51
325.931625366211
0
ARC
5
622
100
AcDbEntity
8
1-0
6
CONTINUOUS
62
4
100
AcDbCircle
10
37172.260000000002
20
8552.969999999999
30
0.0
40
299.999997209656
100
AcDbArc
50
183.454513549805
51
324.512100219727
0
ARC
5
623
100
AcDbEntity
8
1-0
6
CONTINUOUS
62
4
100
AcDbCircle
10
36629.199999999997
20
8708.870000000001
30
0.0
40
299.999997209656
100
AcDbArc
50
183.454513549805
51
324.512100219727
0
ARC
5
624
100
AcDbEntity
8
1-0
6
CONTINUOUS
62
4
100
AcDbCircle
10
36086.129999999997
20
8864.760000000000
30
0.0
40
299.999997209656
100
AcDbArc
50
183.454513549805
51
324.512100219727
0
ARC
5
625
100
AcDbEntity
8
1-0
6
CONTINUOUS
62
4
100
AcDbCircle
10
41033.930000000000
20
7236.370000000000
30
0.0
40
299.999997209656
100
AcDbArc
50
183.454513549805
51
324.512100219727
0
ARC
5
626
100
AcDbEntity
8
1-0
6
CONTINUOUS
62
4
100
AcDbCircle
10
40490.870000000003
20
7392.260000000000
30
0.0
40
299.999997209656
100
AcDbArc
50
183.454513549805
51
324.512100219727
0
ARC
5
627
100
AcDbEntity
8
1-0
6
CONTINUOUS
62
4
100
AcDbCircle
10
39947.800000000003
20
7548.150000000000
30
0.0
40
299.999997209656
100
AcDbArc
50
183.454513549805
51
324.512100219727
0
ARC
5
628
100
AcDbEntity
8
1-0
6
CONTINUOUS
62
4
100
AcDbCircle
10
34999.989999999998
20
9176.549999999999
30
0.0
40
299.999997209656
100
AcDbArc
50
183.454513549805
51
324.512100219727
0
ARC
5
629
100
AcDbEntity
8
1-0
6
CONTINUOUS
62
4
100
AcDbCircle
10
35213.940000000002
20
8907.060000000000
30
0.0
40
299.999997209656
100
AcDbArc
50
183.454513549805
51
324.512100219727
0
ARC
5
62a
100
AcDbEntity
8
1-0
6
CONTINUOUS
62
4
100
AcDbCircle
10
35757.010000000002
20
8751.170000000000
30
0.0
40
299.999997209656
100
AcDbArc
50
183.454513549805
51
324.512100219727
0
ARC
5
62b
100
AcDbEntity
8
1-0
6
CONTINUOUS
62
4
100
AcDbCircle
10
35543.059999999998
20
9020.650000000000
30
0.0
40
299.999997209656
100
AcDbArc
50
183.454513549805
51
324.512100219727
0
ARC
5
62c
100
AcDbEntity
8
1-0
6
CONTINUOUS
62
4
100
AcDbCircle
10
30779.509999999998
20
10388.080000000000
30
0.0
40
299.999997209656
100
AcDbArc
50
183.454513549805
51
324.512100219727
0
ARC
5
62d
100
AcDbEntity
8
1-0
6
CONTINUOUS
62
4
100
AcDbCircle
10
36300.080000000002
20
8595.270000000000
30
0.0
40
299.999997209656
100
AcDbArc
50
183.454513549805
51
324.512100219727
0
ARC
5
62e
100
AcDbEntity
8
1-0
6
CONTINUOUS
62
4
100
AcDbCircle
10
46259.989999999998
20
5870.870000000000
30
0.0
40
299.999997209656
100
AcDbArc
50
184.874023437500
51
325.931625366211
0
ARC
5
62f
100
AcDbEntity
8
1-0
6
CONTINUOUS
62
4
100
AcDbCircle
10
45713.230000000003
20
6013.260000000000
30
0.0
40
299.999997209656
100
AcDbArc
50
184.874023437500
51
325.931625366211
0
ARC
5
630
100
AcDbEntity
8
1-0
6
CONTINUOUS
62
4
100
AcDbCircle
10
45166.459999999999
20
6155.650000000000
30
0.0
40
299.999997209656
100
AcDbArc
50
184.874023437500
51
325.931625366211
0
ARC
5
631
100
AcDbEntity
8
1-0
6
CONTINUOUS
62
4
100
AcDbCircle
10
45492.669999999998
20
6277.370000000000
30
0.0
40
299.999997209656
100
AcDbArc
50
184.874023437500
51
325.931625366211
0
ARC
5
632
100
AcDbEntity
8
1-0
6
CONTINUOUS
62
4
100
AcDbCircle
10
44945.910000000003
20
6419.760000000000
30
0.0
40
299.999997209656
100
AcDbArc
50
184.874023437500
51
325.931625366211
0
ARC
5
633
100
AcDbEntity
8
1-0
6
CONTINUOUS
62
4
100
AcDbCircle
10
46806.750000000000
20
5728.480000000000
30
0.0
40
299.999997209656
100
AcDbArc
50
184.874023437500
51
325.931625366211
0
ARC
5
634
100
AcDbEntity
8
1-0
6
CONTINUOUS
62
4
100
AcDbCircle
10
40276.910000000003
20
7661.750000000000
30
0.0
40
299.999997209656
100
AcDbArc
50
183.454513549805
51
324.512100219727
0
ARC
5
635
100
AcDbEntity
8
1-0
6
CONTINUOUS
62
4
100
AcDbCircle
10
39733.849999999999
20
7817.640000000000
30
0.0
40
299.999997209656
100
AcDbArc
50
183.454513549805
51
324.512100219727
0
ARC
5
636
100
AcDbEntity
8
1-0
6
CONTINUOUS
62
4
100
AcDbCircle
10
41577.000000000000
20
7080.470000000000
30
0.0
40
299.999997209656
100
AcDbArc
50
183.454513549805
51
324.512100219727
0
ARC
5
637
100
AcDbEntity
8
1-0
6
CONTINUOUS
62
4
100
AcDbCircle
10
41906.120000000003
20
7194.070000000000
30
0.0
40
299.999997209656
100
AcDbArc
50
183.454513549805
51
324.512100219727
0
ARC
5
638
100
AcDbEntity
8
1-0
6
CONTINUOUS
62
4
100
AcDbCircle
10
41363.050000000003
20
7349.970000000000
30
0.0
40
299.999997209656
100
AcDbArc
50
183.454513549805
51
324.512100219727
0
ARC
5
639
100
AcDbEntity
8
1-0
6
CONTINUOUS
62
4
100
AcDbCircle
10
40819.989999999998
20
7505.850000000000
30
0.0
40
299.999997209656
100
AcDbArc
50
183.454513549805
51
324.512100219727
0
ARC
5
63a
100
AcDbEntity
8
1-0
6
CONTINUOUS
62
4
100
AcDbCircle
10
31406.720000000001
20
5675.600000000000
30
0.0
40
299.999997209656
100
AcDbArc
50
4.404968261719
51
145.462570190430
0
ARC
5
63b
100
AcDbEntity
8
1-0
6
CONTINUOUS
62
4
100
AcDbCircle
10
35324.459999999999
20
4620.990000000000
30
0.0
40
299.999997209656
100
AcDbArc
50
4.404968261719
51
145.462570190430
0
ARC
5
63c
100
AcDbEntity
8
1-0
6
CONTINUOUS
62
4
100
AcDbCircle
10
36634.010000000002
20
4061.360000000000
30
0.0
40
299.999997209656
100
AcDbArc
50
4.404968261719
51
145.462570190430
0
ARC
5
63d
100
AcDbEntity
8
1-0
6
CONTINUOUS
62
4
100
AcDbCircle
10
35542.849999999999
20
4355.090000000000
30
0.0
40
299.999997209656
100
AcDbArc
50
4.404968261719
51
145.462570190430
0
ARC
5
63e
100
AcDbEntity
8
1-0
6
CONTINUOUS
62
4
100
AcDbCircle
10
30315.570000000000
20
5969.330000000000
30
0.0
40
299.999997209656
100
AcDbArc
50
4.404968261719
51
145.462570190430
0
ARC
5
63f
100
AcDbEntity
8
1-0
6
CONTINUOUS
62
4
100
AcDbCircle
10
34997.269999999997
20
4501.940000000000
30
0.0
40
299.999997209656
100
AcDbArc
50
4.404968261719
51
145.462570190430
0
ARC
5
640
100
AcDbEntity
8
1-0
6
CONTINUOUS
62
4
100
AcDbCircle
10
37179.589999999997
20
3914.500000000000
30
0.0
40
299.999997209656
100
AcDbArc
50
4.404968261719
51
145.462570190430
0
ARC
5
641
100
AcDbEntity
8
1-0
6
CONTINUOUS
62
4
100
AcDbCircle
10
36961.199999999997
20
4180.400000000000
30
0.0
40
299.999997209656
100
AcDbArc
50
4.404968261719
51
145.462570190430
0
ARC
5
642
100
AcDbEntity
8
1-0
6
CONTINUOUS
62
4
100
AcDbCircle
10
40527.589999999997
20
3016.700000000000
30
0.0
40
299.999997209656
100
AcDbArc
50
4.874023437500
51
145.931625366211
0
ARC
5
643
100
AcDbEntity
8
1-0
6
CONTINUOUS
62
4
100
AcDbCircle
10
25998.049999999999
20
7131.550000000000
30
0.0
40
299.999997209656
100
AcDbArc
50
4.404968261719
51
145.462570190430
0
ARC
5
644
100
AcDbEntity
8
1-0
6
CONTINUOUS
62
4
100
AcDbCircle
10
36088.430000000000
20
4208.220000000000
30
0.0
40
299.999997209656
100
AcDbArc
50
4.404968261719
51
145.462570190430
0
ARC
5
645
100
AcDbEntity
8
1-0
6
CONTINUOUS
62
4
100
AcDbCircle
10
35870.040000000001
20
4474.130000000000
30
0.0
40
299.999997209656
100
AcDbArc
50
4.404968261719
51
145.462570190430
0
ARC
5
646
100
AcDbEntity
8
1-0
6
CONTINUOUS
62
4
100
AcDbCircle
10
25452.470000000001
20
7278.420000000000
30
0.0
40
299.999997209656
100
AcDbArc
50
4.404968261719
51
145.462570190430
0
ARC
5
647
100
AcDbEntity
8
1-0
6
CONTINUOUS
62
4
100
AcDbCircle
10
26762.020000000000
20
6718.790000000000
30
0.0
40
299.999997209656
100
AcDbArc
50
4.404968261719
51
145.462570190430
0
ARC
5
648
100
AcDbEntity
8
1-0
6
CONTINUOUS
62
4
100
AcDbCircle
10
32170.689999999999
20
5262.830000000000
30
0.0
40
299.999997209656
100
AcDbArc
50
4.404968261719
51
145.462570190430
0
ARC
5
649
100
AcDbEntity
8
1-0
6
CONTINUOUS
62
4
100
AcDbCircle
10
27089.200000000001
20
6837.840000000000
30
0.0
40
299.999997209656
100
AcDbArc
50
4.404968261719
51
145.462570190430
0
ARC
5
64a
100
AcDbEntity
8
1-0
6
CONTINUOUS
62
4
100
AcDbCircle
10
31625.110000000001
20
5409.700000000000
30
0.0
40
299.999997209656
100
AcDbArc
50
4.404968261719
51
145.462570190430
0
ARC
5
64b
100
AcDbEntity
8
1-0
6
CONTINUOUS
62
4
100
AcDbCircle
10
27307.590000000000
20
6571.920000000000
30
0.0
40
299.999997209656
100
AcDbArc
50
4.404968261719
51
145.462570190430
0
ARC
5
64c
100
AcDbEntity
8
1-0
6
CONTINUOUS
62
4
100
AcDbCircle
10
29988.380000000001
20
5850.290000000000
30
0.0
40
299.999997209656
100
AcDbArc
50
4.404968261719
51
145.462570190430
0
ARC
5
64d
100
AcDbEntity
8
1-0
6
CONTINUOUS
62
4
100
AcDbCircle
10
26543.630000000001
20
6984.690000000000
30
0.0
40
299.999997209656
100
AcDbArc
50
4.404968261719
51
145.462570190430
0
ARC
5
64e
100
AcDbEntity
8
1-0
6
CONTINUOUS
62
4
100
AcDbCircle
10
30861.139999999999
20
5822.460000000000
30
0.0
40
299.999997209656
100
AcDbArc
50
4.404968261719
51
145.462570190430
0
ARC
5
64f
100
AcDbEntity
8
1-0
6
CONTINUOUS
62
4
100
AcDbCircle
10
11746.350000000000
20
11846.870000000001
30
0.0
40
299.999997209656
100
AcDbArc
50
351.904708862305
51
132.962310791016
0
ARC
5
650
100
AcDbEntity
8
1-0
6
CONTINUOUS
62
4
100
AcDbCircle
10
30533.959999999999
20
5703.420000000000
30
0.0
40
299.999997209656
100
AcDbArc
50
4.404968261719
51
145.462570190430
0
ARC
5
651
100
AcDbEntity
8
1-0
6
CONTINUOUS
62
4
100
AcDbCircle
10
31079.540000000001
20
5556.560000000000
30
0.0
40
299.999997209656
100
AcDbArc
50
4.404968261719
51
145.462570190430
0
ARC
5
652
100
AcDbEntity
8
1-0
6
CONTINUOUS
62
4
100
AcDbCircle
10
47241.870000000003
20
1474.780000000000
30
0.0
40
299.999997209656
100
AcDbArc
50
4.874023437500
51
145.931625366211
0
ARC
5
653
100
AcDbEntity
8
1-0
6
CONTINUOUS
62
4
100
AcDbCircle
10
46695.110000000001
20
1617.160000000000
30
0.0
40
299.999997209656
100
AcDbArc
50
4.874023437500
51
145.931625366211
0
ARC
5
654
100
AcDbEntity
8
1-0
6
CONTINUOUS
62
4
100
AcDbCircle
10
62273.209999999999
20
1907.250000000000
30
0.0
40
299.999997209656
100
AcDbArc
50
184.874023437500
51
325.931625366211
0
ARC
5
655
100
AcDbEntity
8
1-0
6
CONTINUOUS
62
4
100
AcDbCircle
10
46148.349999999999
20
1759.560000000000
30
0.0
40
299.999997209656
100
AcDbArc
50
4.874023437500
51
145.931625366211
0
ARC
5
656
100
AcDbEntity
8
1-0
6
CONTINUOUS
62
4
100
AcDbCircle
10
48009.199999999997
20
1068.270000000000
30
0.0
40
299.999997209656
100
AcDbArc
50
4.874023437500
51
145.931625366211
0
ARC
5
657
100
AcDbEntity
8
1-0
6
CONTINUOUS
62
4
100
AcDbCircle
10
46915.669999999998
20
1353.060000000000
30
0.0
40
299.999997209656
100
AcDbArc
50
4.874023437500
51
145.931625366211
0
ARC
5
658
100
AcDbEntity
8
1-0
6
CONTINUOUS
62
4
100
AcDbCircle
10
61179.690000000002
20
2192.030000000000
30
0.0
40
299.999997209656
100
AcDbArc
50
184.874023437500
51
325.931625366211
0
ARC
5
659
100
AcDbEntity
8
1-0
6
CONTINUOUS
62
4
100
AcDbCircle
10
60632.919999999998
20
2334.420000000000
30
0.0
40
299.999997209656
100
AcDbArc
50
184.874023437500
51
325.931625366211
0
ARC
5
65a
100
AcDbEntity
8
1-0
6
CONTINUOUS
62
4
100
AcDbCircle
10
62493.769999999997
20
1643.130000000000
30
0.0
40
299.999997209656
100
AcDbArc
50
184.874023437500
51
325.931625366211
0
ARC
5
65b
100
AcDbEntity
8
1-0
6
CONTINUOUS
62
4
100
AcDbCircle
10
57518.959999999999
20
2938.710000000000
30
0.0
40
299.999997209656
100
AcDbArc
50
184.874023437500
51
325.931625366211
0
ARC
5
65c
100
AcDbEntity
8
1-0
6
CONTINUOUS
62
4
100
AcDbCircle
10
61726.440000000002
20
2049.640000000000
30
0.0
40
299.999997209656
100
AcDbArc
50
184.874023437500
51
325.931625366211
0
ARC
5
65d
100
AcDbEntity
8
1-0
6
CONTINUOUS
62
4
100
AcDbCircle
10
62819.980000000003
20
1764.850000000000
30
0.0
40
299.999997209656
100
AcDbArc
50
184.874023437500
51
325.931625366211
0
ARC
5
65e
100
AcDbEntity
8
1-0
6
CONTINUOUS
62
4
100
AcDbCircle
10
42714.639999999999
20
2447.130000000000
30
0.0
40
299.999997209656
100
AcDbArc
50
4.874023437500
51
145.931625366211
0
ARC
5
65f
100
AcDbEntity
8
1-0
6
CONTINUOUS
62
4
100
AcDbCircle
10
40853.790000000001
20
3138.410000000000
30
0.0
40
299.999997209656
100
AcDbArc
50
4.874023437500
51
145.931625366211
0
ARC
5
660
100
AcDbEntity
8
1-0
6
CONTINUOUS
62
4
100
AcDbCircle
10
41400.550000000003
20
2996.020000000000
30
0.0
40
299.999997209656
100
AcDbArc
50
4.874023437500
51
145.931625366211
0
ARC
5
661
100
AcDbEntity
8
1-0
6
CONTINUOUS
62
4
100
AcDbCircle
10
41074.349999999999
20
2874.300000000000
30
0.0
40
299.999997209656
100
AcDbArc
50
4.874023437500
51
145.931625366211
0
ARC
5
662
100
AcDbEntity
8
1-0
6
CONTINUOUS
62
4
100
AcDbCircle
10
41621.110000000001
20
2731.910000000000
30
0.0
40
299.999997209656
100
AcDbArc
50
4.874023437500
51
145.931625366211
0
ARC
5
663
100
AcDbEntity
8
1-0
6
CONTINUOUS
62
4
100
AcDbCircle
10
42167.870000000003
20
2589.520000000000
30
0.0
40
299.999997209656
100
AcDbArc
50
4.874023437500
51
145.931625366211
0
ARC
5
664
100
AcDbEntity
8
1-0
6
CONTINUOUS
62
4
100
AcDbCircle
10
47788.639999999999
20
1332.380000000000
30
0.0
40
299.999997209656
100
AcDbArc
50
4.874023437500
51
145.931625366211
0
ARC
5
665
100
AcDbEntity
8
1-0
6
CONTINUOUS
62
4
100
AcDbCircle
10
47462.430000000000
20
1210.670000000000
30
0.0
40
299.999997209656
100
AcDbArc
50
4.874023437500
51
145.931625366211
0
ARC
5
666
100
AcDbEntity
8
1-0
6
CONTINUOUS
62
4
100
AcDbCircle
10
46368.910000000003
20
1495.450000000000
30
0.0
40
299.999997209656
100
AcDbArc
50
4.874023437500
51
145.931625366211
0
ARC
5
667
100
AcDbEntity
8
1-0
6
CONTINUOUS
62
4
100
AcDbCircle
10
41947.309999999998
20
2853.630000000000
30
0.0
40
299.999997209656
100
AcDbArc
50
4.874023437500
51
145.931625366211
0
ARC
5
668
100
AcDbEntity
8
1-0
6
CONTINUOUS
62
4
100
AcDbCircle
10
42494.080000000002
20
2711.230000000000
30
0.0
40
299.999997209656
100
AcDbArc
50
4.874023437500
51
145.931625366211
0
ARC
5
669
100
AcDbEntity
8
1-0
6
CONTINUOUS
62
4
100
AcDbCircle
10
45822.150000000001
20
1637.850000000000
30
0.0
40
299.999997209656
100
AcDbArc
50
4.874023437500
51
145.931625366211
0
ARC
5
66a
100
AcDbEntity
8
1-0
6
CONTINUOUS
62
4
100
AcDbCircle
10
8647.420000000000
20
26221.270000000000
30
0.0
40
299.999997209656
100
AcDbArc
50
118.101135253906
51
259.158737182617
0
ARC
5
66b
100
AcDbEntity
8
1-0
6
CONTINUOUS
62
4
100
AcDbCircle
10
8325.639999999999
20
32376.650000000001
30
0.0
40
299.999997209656
100
AcDbArc
50
106.070724487305
51
247.128326416016
0
ARC
5
66c
100
AcDbEntity
8
1-0
6
CONTINUOUS
62
4
100
AcDbCircle
10
9428.740000000000
20
53818.440000000002
30
0.0
40
299.999997209656
100
AcDbArc
50
108.013076782227
51
249.070693969727
0
ARC
5
66d
100
AcDbEntity
8
1-0
6
CONTINUOUS
62
4
100
AcDbCircle
10
8237.360000000001
20
27590.230000000000
30
0.0
40
299.999997209656
100
AcDbArc
50
118.101135253906
51
259.158737182617
0
ARC
5
66e
100
AcDbEntity
8
1-0
6
CONTINUOUS
62
4
100
AcDbCircle
10
8075.880000000000
20
31545.000000000000
30
0.0
40
299.999997209656
100
AcDbArc
50
106.070724487305
51
247.128326416016
0
ARC
5
66f
100
AcDbEntity
8
1-0
6
CONTINUOUS
62
4
100
AcDbCircle
10
3607.620000000000
20
25409.709999999999
30
0.0
40
299.999997209656
100
AcDbArc
50
292.173492431641
51
73.231109619141
0
ARC
5
670
100
AcDbEntity
8
1-0
6
CONTINUOUS
62
4
100
AcDbCircle
10
8109.390000000000
20
32109.009999999998
30
0.0
40
299.999997209656
100
AcDbArc
50
106.070724487305
51
247.128326416016
0
ARC
5
671
100
AcDbEntity
8
1-0
6
CONTINUOUS
62
4
100
AcDbCircle
10
8732.200000000001
20
25662.660000000000
30
0.0
40
299.999997209656
100
AcDbArc
50
118.101135253906
51
259.158737182617
0
ARC
5
672
100
AcDbEntity
8
1-0
6
CONTINUOUS
62
4
100
AcDbCircle
10
3614.260000000000
20
31797.669999999998
30
0.0
40
299.999997209656
100
AcDbArc
50
284.181762695313
51
425.239379882813
0
ARC
5
673
100
AcDbEntity
8
1-0
6
CONTINUOUS
62
4
100
AcDbCircle
10
9457.500000000000
20
54948.080000000002
30
0.0
40
299.999997209656
100
AcDbArc
50
108.013076782227
51
249.070693969727
0
ARC
5
674
100
AcDbEntity
8
1-0
6
CONTINUOUS
62
4
100
AcDbCircle
10
3946.220000000000
20
35383.269999999997
30
0.0
40
299.999997209656
100
AcDbArc
50
284.181762695313
51
425.239379882813
0
ARC
5
675
100
AcDbEntity
8
1-0
6
CONTINUOUS
62
4
100
AcDbCircle
10
8586.879999999999
20
36662.160000000003
30
0.0
40
299.999997209656
100
AcDbArc
50
105.843612670898
51
246.901199340820
0
ARC
5
676
100
AcDbEntity
8
1-0
6
CONTINUOUS
62
4
100
AcDbCircle
10
3666.350000000000
20
32360.259999999998
30
0.0
40
299.999997209656
100
AcDbArc
50
284.181762695313
51
425.239379882813
0
ARC
5
677
100
AcDbEntity
8
1-0
6
CONTINUOUS
62
4
100
AcDbCircle
10
4171.180000000000
20
35643.639999999999
30
0.0
40
299.999997209656
100
AcDbArc
50
284.181762695313
51
425.239379882813
0
ARC
5
678
100
AcDbEntity
8
1-0
6
CONTINUOUS
62
4
100
AcDbCircle
10
9399.990000000000
20
52688.809999999998
30
0.0
40
299.999997209656
100
AcDbArc
50
108.013076782227
51
249.070693969727
0
ARC
5
679
100
AcDbEntity
8
1-0
6
CONTINUOUS
62
4
100
AcDbCircle
10
9284.219999999999
20
48141.010000000002
30
0.0
40
299.999997209656
100
AcDbArc
50
108.013076782227
51
249.070693969727
0
ARC
5
67a
100
AcDbEntity
8
1-0
6
CONTINUOUS
62
4
100
AcDbCircle
10
9269.840000000000
20
47576.190000000002
30
0.0
40
299.999997209656
100
AcDbArc
50
108.013076782227
51
249.070693969727
0
ARC
5
67b
100
AcDbEntity
8
1-0
6
CONTINUOUS
62
4
100
AcDbCircle
10
8765.879999999999
20
42646.430000000000
30
0.0
40
299.999997209656
100
AcDbArc
50
105.843612670898
51
246.901199340820
0
ARC
5
67c
100
AcDbEntity
8
1-0
6
CONTINUOUS
62
4
100
AcDbCircle
10
9327.350000000000
20
49835.449999999997
30
0.0
40
299.999997209656
100
AcDbArc
50
108.013076782227
51
249.070693969727
0
ARC
5
67d
100
AcDbEntity
8
1-0
6
CONTINUOUS
62
4
100
AcDbCircle
10
9312.980000000000
20
49270.629999999997
30
0.0
40
299.999997209656
100
AcDbArc
50
108.013076782227
51
249.070693969727
0
ARC
5
67e
100
AcDbEntity
8
1-0
6
CONTINUOUS
62
4
100
AcDbCircle
10
8191.600000000000
20
30120.630000000001
30
0.0
40
299.999997209656
100
AcDbArc
50
106.070724487305
51
247.128326416016
0
ARC
5
67f
100
AcDbEntity
8
1-0
6
CONTINUOUS
62
4
100
AcDbCircle
10
9090.440000000001
20
44604.820000000000
30
0.0
40
299.999997209656
100
AcDbArc
50
105.843612670898
51
246.901199340820
0
ARC
5
680
100
AcDbEntity
8
1-0
6
CONTINUOUS
62
4
100
AcDbCircle
10
9054.690000000001
20
44040.949999999997
30
0.0
40
299.999997209656
100
AcDbArc
50
105.843612670898
51
246.901199340820
0
ARC
5
681
100
AcDbEntity
8
1-0
6
CONTINUOUS
62
4
100
AcDbCircle
10
9298.600000000000
20
48705.809999999998
30
0.0
40
299.999997209656
100
AcDbArc
50
108.013076782227
51
249.070693969727
0
ARC
5
682
100
AcDbEntity
8
1-0
6
CONTINUOUS
62
4
100
AcDbCircle
10
8512.560000000000
20
38650.839999999997
30
0.0
40
299.999997209656
100
AcDbArc
50
105.843612670898
51
246.901199340820
0
ARC
5
683
100
AcDbEntity
8
1-0
6
CONTINUOUS
62
4
100
AcDbCircle
10
8983.190000000001
20
42913.209999999999
30
0.0
40
299.999997209656
100
AcDbArc
50
105.843612670898
51
246.901199340820
0
ARC
5
684
100
AcDbEntity
8
1-0
6
CONTINUOUS
62
4
100
AcDbCircle
10
9018.940000000001
20
43477.080000000002
30
0.0
40
299.999997209656
100
AcDbArc
50
105.843612670898
51
246.901199340820
0
ARC
5
685
100
AcDbEntity
8
1-0
6
CONTINUOUS
62
4
100
AcDbCircle
10
8729.879999999999
20
38917.620000000003
30
0.0
40
299.999997209656
100
AcDbArc
50
105.843612670898
51
246.901199340820
0
ARC
5
686
100
AcDbEntity
8
1-0
6
CONTINUOUS
62
4
100
AcDbCircle
10
9250.440000000001
20
54673.260000000002
30
0.0
40
299.999997209656
100
AcDbArc
50
108.013076782227
51
249.070693969727
0
ARC
5
687
100
AcDbEntity
8
1-0
6
CONTINUOUS
62
4
100
AcDbCircle
10
9236.060000000000
20
54108.449999999997
30
0.0
40
299.999997209656
100
AcDbArc
50
108.013076782227
51
249.070693969727
0
ARC
5
688
100
AcDbEntity
8
1-0
6
CONTINUOUS
62
4
100
AcDbCircle
10
8441.070000000000
20
37523.099999999999
30
0.0
40
299.999997209656
100
AcDbArc
50
105.843612670898
51
246.901199340820
0
ARC
5
689
100
AcDbEntity
8
1-0
6
CONTINUOUS
62
4
100
AcDbCircle
10
8405.320000000000
20
36959.230000000003
30
0.0
40
299.999997209656
100
AcDbArc
50
105.843612670898
51
246.901199340820
0
ARC
5
68a
100
AcDbEntity
8
1-0
6
CONTINUOUS
62
4
100
AcDbCircle
10
8622.629999999999
20
37226.019999999997
30
0.0
40
299.999997209656
100
AcDbArc
50
105.843612670898
51
246.901199340820
0
ARC
5
68b
100
AcDbEntity
8
1-0
6
CONTINUOUS
62
4
100
AcDbCircle
10
8476.810000000000
20
38086.959999999999
30
0.0
40
299.999997209656
100
AcDbArc
50
105.843612670898
51
246.901199340820
0
ARC
5
68c
100
AcDbEntity
8
1-0
6
CONTINUOUS
62
4
100
AcDbCircle
10
8694.129999999999
20
38353.750000000000
30
0.0
40
299.999997209656
100
AcDbArc
50
105.843612670898
51
246.901199340820
0
ARC
5
68d
100
AcDbEntity
8
1-0
6
CONTINUOUS
62
4
100
AcDbCircle
10
8658.379999999999
20
37789.889999999999
30
0.0
40
299.999997209656
100
AcDbArc
50
105.843612670898
51
246.901199340820
0
ARC
5
68e
100
AcDbEntity
8
1-0
6
CONTINUOUS
62
4
100
AcDbCircle
10
8225.100000000000
20
30684.639999999999
30
0.0
40
299.999997209656
100
AcDbArc
50
106.070724487305
51
247.128326416016
0
ARC
5
68f
100
AcDbEntity
8
1-0
6
CONTINUOUS
62
4
100
AcDbCircle
10
4050.390000000000
20
36508.449999999997
30
0.0
40
299.999997209656
100
AcDbArc
50
284.181762695313
51
425.239379882813
0
ARC
5
690
100
AcDbEntity
8
1-0
6
CONTINUOUS
62
4
100
AcDbCircle
10
8042.360000000000
20
30980.990000000002
30
0.0
40
299.999997209656
100
AcDbArc
50
106.070724487305
51
247.128326416016
0
ARC
5
691
100
AcDbEntity
8
1-0
6
CONTINUOUS
62
4
100
AcDbCircle
10
3998.310000000000
20
35945.860000000001
30
0.0
40
299.999997209656
100
AcDbArc
50
284.181762695313
51
425.239379882813
0
ARC
5
692
100
AcDbEntity
8
1-0
6
CONTINUOUS
62
4
100
AcDbCircle
10
8292.129999999999
20
31812.639999999999
30
0.0
40
299.999997209656
100
AcDbArc
50
106.070724487305
51
247.128326416016
0
ARC
5
693
100
AcDbEntity
8
1-0
6
CONTINUOUS
62
4
100
AcDbCircle
10
8258.620000000001
20
31248.639999999999
30
0.0
40
299.999997209656
100
AcDbArc
50
106.070724487305
51
247.128326416016
0
ARC
5
694
100
AcDbEntity
8
1-0
6
CONTINUOUS
62
4
100
AcDbCircle
10
3510.090000000000
20
30672.490000000002
30
0.0
40
299.999997209656
100
AcDbArc
50
284.181762695313
51
425.239379882813
0
ARC
5
695
100
AcDbEntity
8
1-0
6
CONTINUOUS
62
4
100
AcDbCircle
10
8947.440000000001
20
42349.349999999999
30
0.0
40
299.999997209656
100
AcDbArc
50
105.843612670898
51
246.901199340820
0
ARC
5
696
100
AcDbEntity
8
1-0
6
CONTINUOUS
62
4
100
AcDbCircle
10
9120.299999999999
20
49560.629999999997
30
0.0
40
299.999997209656
100
AcDbArc
50
108.013076782227
51
249.070693969727
0
ARC
5
697
100
AcDbEntity
8
1-0
6
CONTINUOUS
62
4
100
AcDbCircle
10
8008.860000000000
20
30416.990000000002
30
0.0
40
299.999997209656
100
AcDbArc
50
106.070724487305
51
247.128326416016
0
ARC
5
698
100
AcDbEntity
8
1-0
6
CONTINUOUS
62
4
100
AcDbCircle
10
3562.180000000000
20
31235.080000000002
30
0.0
40
299.999997209656
100
AcDbArc
50
284.181762695313
51
425.239379882813
0
ARC
5
699
100
AcDbEntity
8
1-0
6
CONTINUOUS
62
4
100
AcDbCircle
10
4223.270000000000
20
36206.230000000003
30
0.0
40
299.999997209656
100
AcDbArc
50
284.181762695313
51
425.239379882813
0
ARC
5
69a
100
AcDbEntity
8
1-0
6
CONTINUOUS
62
4
100
AcDbCircle
10
25148.810000000001
20
11796.360000000001
30
0.0
40
299.999997209656
100
AcDbArc
50
183.454513549805
51
324.512100219727
0
ARC
5
69b
100
AcDbEntity
8
1-0
6
CONTINUOUS
62
4
100
AcDbCircle
10
24605.740000000002
20
11952.250000000000
30
0.0
40
299.999997209656
100
AcDbArc
50
183.454513549805
51
324.512100219727
0
ARC
5
69c
100
AcDbEntity
8
1-0
6
CONTINUOUS
62
4
100
AcDbCircle
10
19954.180000000000
20
13470.549999999999
30
0.0
40
299.999997209656
100
AcDbArc
50
177.491851806641
51
318.549453735352
0
ARC
5
69d
100
AcDbEntity
8
1-0
6
CONTINUOUS
62
4
100
AcDbCircle
10
24391.790000000001
20
12221.750000000000
30
0.0
40
299.999997209656
100
AcDbArc
50
183.454513549805
51
324.512100219727
0
ARC
5
69e
100
AcDbEntity
8
1-0
6
CONTINUOUS
62
4
100
AcDbCircle
10
26234.950000000001
20
11484.580000000000
30
0.0
40
299.999997209656
100
AcDbArc
50
183.454513549805
51
324.512100219727
0
ARC
5
69f
100
AcDbEntity
8
1-0
6
CONTINUOUS
62
4
100
AcDbCircle
10
25691.880000000001
20
11640.459999999999
30
0.0
40
299.999997209656
100
AcDbArc
50
183.454513549805
51
324.512100219727
0
ARC
5
6a0
100
AcDbEntity
8
1-0
6
CONTINUOUS
62
4
100
AcDbCircle
10
30993.459999999999
20
10118.590000000000
30
0.0
40
299.999997209656
100
AcDbArc
50
183.454513549805
51
324.512100219727
0
ARC
5
6a1
100
AcDbEntity
8
1-0
6
CONTINUOUS
62
4
100
AcDbCircle
10
19769.380000000001
20
13760.809999999999
30
0.0
40
299.999997209656
100
AcDbArc
50
177.491851806641
51
318.549453735352
0
ARC
5
6a2
100
AcDbEntity
8
1-0
6
CONTINUOUS
62
4
100
AcDbCircle
10
20817.259999999998
20
13337.879999999999
30
0.0
40
299.999997209656
100
AcDbArc
50
177.491851806641
51
318.549453735352
0
ARC
5
6a3
100
AcDbEntity
8
1-0
6
CONTINUOUS
62
4
100
AcDbCircle
10
20293.330000000002
20
13549.340000000000
30
0.0
40
299.999997209656
100
AcDbArc
50
177.491851806641
51
318.549453735352
0
ARC
5
6a4
100
AcDbEntity
8
1-0
6
CONTINUOUS
62
4
100
AcDbCircle
10
21341.189999999999
20
13126.410000000000
30
0.0
40
299.999997209656
100
AcDbArc
50
177.491851806641
51
318.549453735352
0
ARC
5
6a5
100
AcDbEntity
8
1-0
6
CONTINUOUS
62
4
100
AcDbCircle
10
19245.450000000001
20
13972.270000000000
30
0.0
40
299.999997209656
100
AcDbArc
50
177.491851806641
51
318.549453735352
0
ARC
5
6a6
100
AcDbEntity
8
1-0
6
CONTINUOUS
62
4
100
AcDbCircle
10
31536.529999999999
20
9962.700000000001
30
0.0
40
299.999997209656
100
AcDbArc
50
183.454513549805
51
324.512100219727
0
ARC
5
6a7
100
AcDbEntity
8
1-0
6
CONTINUOUS
62
4
100
AcDbCircle
10
31865.650000000001
20
10076.290000000001
30
0.0
40
299.999997209656
100
AcDbArc
50
183.454513549805
51
324.512100219727
0
ARC
5
6a8
100
AcDbEntity
8
1-0
6
CONTINUOUS
62
4
100
AcDbCircle
10
29693.369999999999
20
10699.870000000001
30
0.0
40
299.999997209656
100
AcDbArc
50
183.454513549805
51
324.512100219727
0
ARC
5
6a9
100
AcDbEntity
8
1-0
6
CONTINUOUS
62
4
100
AcDbCircle
10
36843.150000000001
20
8439.379999999999
30
0.0
40
299.999997209656
100
AcDbArc
50
183.454513549805
51
324.512100219727
0
ARC
5
6aa
100
AcDbEntity
8
1-0
6
CONTINUOUS
62
4
100
AcDbCircle
10
30236.439999999999
20
10543.969999999999
30
0.0
40
299.999997209656
100
AcDbArc
50
183.454513549805
51
324.512100219727
0
ARC
5
6ab
100
AcDbEntity
8
1-0
6
CONTINUOUS
62
4
100
AcDbCircle
10
31322.580000000002
20
10232.180000000000
30
0.0
40
299.999997209656
100
AcDbArc
50
183.454513549805
51
324.512100219727
0
ARC
5
6ac
100
AcDbEntity
8
1-0
6
CONTINUOUS
62
4
100
AcDbCircle
10
26020.990000000002
20
11754.070000000000
30
0.0
40
299.999997209656
100
AcDbArc
50
183.454513549805
51
324.512100219727
0
ARC
5
6ad
100
AcDbEntity
8
1-0
6
CONTINUOUS
62
4
100
AcDbCircle
10
25477.930000000000
20
11909.959999999999
30
0.0
40
299.999997209656
100
AcDbArc
50
183.454513549805
51
324.512100219727
0
ARC
5
6ae
100
AcDbEntity
8
1-0
6
CONTINUOUS
62
4
100
AcDbCircle
10
24934.860000000001
20
12065.850000000000
30
0.0
40
299.999997209656
100
AcDbArc
50
183.454513549805
51
324.512100219727
0
ARC
5
6af
100
AcDbEntity
8
1-0
6
CONTINUOUS
62
4
100
AcDbCircle
10
30450.389999999999
20
10274.480000000000
30
0.0
40
299.999997209656
100
AcDbArc
50
183.454513549805
51
324.512100219727
0
ARC
5
6b0
100
AcDbEntity
8
1-0
6
CONTINUOUS
62
4
100
AcDbCircle
10
29907.320000000000
20
10430.379999999999
30
0.0
40
299.999997209656
100
AcDbArc
50
183.454513549805
51
324.512100219727
0
ARC
5
6b1
100
AcDbEntity
8
1-0
6
CONTINUOUS
62
4
100
AcDbCircle
10
26564.060000000001
20
11598.170000000000
30
0.0
40
299.999997209656
100
AcDbArc
50
183.454513549805
51
324.512100219727
0
ARC
5
6b2
100
AcDbEntity
8
1-0
6
CONTINUOUS
62
4
100
AcDbCircle
10
15269.230000000000
20
15666.559999999999
30
0.0
40
299.999997209656
100
AcDbArc
50
164.488525390625
51
305.546142578125
0
ARC
5
6b3
100
AcDbEntity
8
1-0
6
CONTINUOUS
62
4
100
AcDbCircle
10
16553.279999999999
20
15058.840000000000
30
0.0
40
299.999997209656
100
AcDbArc
50
177.491851806641
51
318.549453735352
0
ARC
5
6b4
100
AcDbEntity
8
1-0
6
CONTINUOUS
62
4
100
AcDbCircle
10
18309.880000000001
20
14134.200000000001
30
0.0
40
299.999997209656
100
AcDbArc
50
177.491851806641
51
318.549453735352
0
ARC
5
6b5
100
AcDbEntity
8
1-0
6
CONTINUOUS
62
4
100
AcDbCircle
10
13880.480000000000
20
16638.360000000001
30
0.0
40
299.999997209656
100
AcDbArc
50
164.488525390625
51
305.546142578125
0
ARC
5
6b6
100
AcDbEntity
8
1-0
6
CONTINUOUS
62
4
100
AcDbCircle
10
17077.220000000001
20
14847.389999999999
30
0.0
40
299.999997209656
100
AcDbArc
50
177.491851806641
51
318.549453735352
0
ARC
5
6b7
100
AcDbEntity
8
1-0
6
CONTINUOUS
62
4
100
AcDbCircle
10
18125.090000000000
20
14424.459999999999
30
0.0
40
299.999997209656
100
AcDbArc
50
177.491851806641
51
318.549453735352
0
ARC
5
6b8
100
AcDbEntity
8
1-0
6
CONTINUOUS
62
4
100
AcDbCircle
10
8837.370000000001
20
43774.160000000003
30
0.0
40
299.999997209656
100
AcDbArc
50
105.843612670898
51
246.901199340820
0
ARC
5
6b9
100
AcDbEntity
8
1-0
6
CONTINUOUS
62
4
100
AcDbCircle
10
8801.629999999999
20
43210.290000000001
30
0.0
40
299.999997209656
100
AcDbArc
50
105.843612670898
51
246.901199340820
0
ARC
5
6ba
100
AcDbEntity
8
1-0
6
CONTINUOUS
62
4
100
AcDbCircle
10
8873.120000000001
20
44338.029999999999
30
0.0
40
299.999997209656
100
AcDbArc
50
105.843612670898
51
246.901199340820
0
ARC
5
6bb
100
AcDbEntity
8
1-0
6
CONTINUOUS
62
4
100
AcDbCircle
10
17785.950000000001
20
14345.660000000000
30
0.0
40
299.999997209656
100
AcDbArc
50
177.491851806641
51
318.549453735352
0
ARC
5
6bc
100
AcDbEntity
8
1-0
6
CONTINUOUS
62
4
100
AcDbCircle
10
17262.009999999998
20
14557.129999999999
30
0.0
40
299.999997209656
100
AcDbArc
50
177.491851806641
51
318.549453735352
0
ARC
5
6bd
100
AcDbEntity
8
1-0
6
CONTINUOUS
62
4
100
AcDbCircle
10
16738.080000000002
20
14768.590000000000
30
0.0
40
299.999997209656
100
AcDbArc
50
177.491851806641
51
318.549453735352
0
ARC
5
6be
100
AcDbEntity
8
1-0
6
CONTINUOUS
62
4
100
AcDbCircle
10
21002.049999999999
20
13047.620000000001
30
0.0
40
299.999997209656
100
AcDbArc
50
177.491851806641
51
318.549453735352
0
ARC
5
6bf
100
AcDbEntity
8
1-0
6
CONTINUOUS
62
4
100
AcDbCircle
10
15617.400000000000
20
15667.030000000001
30
0.0
40
299.999997209656
100
AcDbArc
50
164.488525390625
51
305.546142578125
0
ARC
5
6c0
100
AcDbEntity
8
1-0
6
CONTINUOUS
62
4
100
AcDbCircle
10
14228.639999999999
20
16638.820000000000
30
0.0
40
299.999997209656
100
AcDbArc
50
164.488525390625
51
305.546142578125
0
ARC
5
6c1
100
AcDbEntity
8
1-0
6
CONTINUOUS
62
4
100
AcDbCircle
10
19430.250000000000
20
13682.010000000000
30
0.0
40
299.999997209656
100
AcDbArc
50
177.491851806641
51
318.549453735352
0
ARC
5
6c2
100
AcDbEntity
8
1-0
6
CONTINUOUS
62
4
100
AcDbCircle
10
20478.119999999999
20
13259.090000000000
30
0.0
40
299.999997209656
100
AcDbArc
50
177.491851806641
51
318.549453735352
0
ARC
5
6c3
100
AcDbEntity
8
1-0
6
CONTINUOUS
62
4
100
AcDbCircle
10
15154.490000000000
20
15990.959999999999
30
0.0
40
299.999997209656
100
AcDbArc
50
164.488525390625
51
305.546142578125
0
ARC
5
6c4
100
AcDbEntity
8
1-0
6
CONTINUOUS
62
4
100
AcDbCircle
10
13765.730000000000
20
16962.750000000000
30
0.0
40
299.999997209656
100
AcDbArc
50
164.488525390625
51
305.546142578125
0
ARC
5
6c5
100
AcDbEntity
8
1-0
6
CONTINUOUS
62
4
100
AcDbCircle
10
17601.160000000000
20
14635.920000000000
30
0.0
40
299.999997209656
100
AcDbArc
50
177.491851806641
51
318.549453735352
0
ARC
5
6c6
100
AcDbEntity
8
1-0
6
CONTINUOUS
62
4
100
AcDbCircle
10
18649.020000000000
20
14212.990000000000
30
0.0
40
299.999997209656
100
AcDbArc
50
177.491851806641
51
318.549453735352
0
ARC
5
6c7
100
AcDbEntity
8
1-0
6
CONTINUOUS
62
4
100
AcDbCircle
10
14343.389999999999
20
16314.430000000000
30
0.0
40
299.999997209656
100
AcDbArc
50
164.488525390625
51
305.546142578125
0
ARC
5
6c8
100
AcDbEntity
8
1-0
6
CONTINUOUS
62
4
100
AcDbCircle
10
14691.559999999999
20
16314.889999999999
30
0.0
40
299.999997209656
100
AcDbArc
50
164.488525390625
51
305.546142578125
0
ARC
5
6c9
100
AcDbEntity
8
1-0
6
CONTINUOUS
62
4
100
AcDbCircle
10
14806.309999999999
20
15990.490000000000
30
0.0
40
299.999997209656
100
AcDbArc
50
164.488525390625
51
305.546142578125
0
ARC
5
6ca
100
AcDbEntity
8
1-0
6
CONTINUOUS
62
4
100
AcDbCircle
10
22160.830000000002
20
8157.020000000000
30
0.0
40
299.999997209656
100
AcDbArc
50
6.343734741211
51
147.401321411133
0
ARC
5
6cb
100
AcDbEntity
8
1-0
6
CONTINUOUS
62
4
100
AcDbCircle
10
4197.780000000000
20
58068.330000000002
30
0.0
40
299.999997209656
100
AcDbArc
50
12.484283447266
51
153.541870117188
0
ARC
5
6cc
100
AcDbEntity
8
1-0
6
CONTINUOUS
62
4
100
AcDbCircle
10
4875.740000000000
20
45423.320000000000
30
0.0
40
299.999997209656
100
AcDbArc
50
284.181762695313
51
425.239379882813
0
ARC
5
6cd
100
AcDbEntity
8
1-0
6
CONTINUOUS
62
4
100
AcDbCircle
10
5256.960000000000
20
47371.470000000001
30
0.0
40
299.999997209656
100
AcDbArc
50
284.181762695313
51
425.239379882813
0
ARC
5
6ce
100
AcDbEntity
8
1-0
6
CONTINUOUS
62
4
100
AcDbCircle
10
4630.480000000000
20
42774.199999999997
30
0.0
40
299.999997209656
100
AcDbArc
50
284.181762695313
51
425.239379882813
0
ARC
5
6cf
100
AcDbEntity
8
1-0
6
CONTINUOUS
62
4
100
AcDbCircle
10
3636.980000000000
20
58137.050000000003
30
0.0
40
299.999997209656
100
AcDbArc
50
12.484283447266
51
153.541870117188
0
ARC
5
6d0
100
AcDbEntity
8
1-0
6
CONTINUOUS
62
4
100
AcDbCircle
10
5154.870000000000
20
50969.820000000000
30
0.0
40
299.999997209656
100
AcDbArc
50
288.013092041016
51
69.070693969727
0
ARC
5
6d1
100
AcDbEntity
8
1-0
6
CONTINUOUS
62
4
100
AcDbCircle
10
5361.930000000000
20
51244.650000000001
30
0.0
40
299.999997209656
100
AcDbArc
50
288.013092041016
51
69.070693969727
0
ARC
5
6d2
100
AcDbEntity
8
1-0
6
CONTINUOUS
62
4
100
AcDbCircle
10
5204.870000000000
20
46808.870000000003
30
0.0
40
299.999997209656
100
AcDbArc
50
284.181762695313
51
425.239379882813
0
ARC
5
6d3
100
AcDbEntity
8
1-0
6
CONTINUOUS
62
4
100
AcDbCircle
10
5100.700000000000
20
45683.690000000002
30
0.0
40
299.999997209656
100
AcDbArc
50
284.181762695313
51
425.239379882813
0
ARC
5
6d4
100
AcDbEntity
8
1-0
6
CONTINUOUS
62
4
100
AcDbCircle
10
3554.340000000000
20
26538.459999999999
30
0.0
40
299.999997209656
100
AcDbArc
50
292.173492431641
51
73.231109619141
0
ARC
5
6d5
100
AcDbEntity
8
1-0
6
CONTINUOUS
62
4
100
AcDbCircle
10
4699.190000000000
20
41346.790000000001
30
0.0
40
299.999997209656
100
AcDbArc
50
284.181762695313
51
425.239379882813
0
ARC
5
6d6
100
AcDbEntity
8
1-0
6
CONTINUOUS
62
4
100
AcDbCircle
10
4751.270000000000
20
41909.379999999997
30
0.0
40
299.999997209656
100
AcDbArc
50
284.181762695313
51
425.239379882813
0
ARC
5
6d7
100
AcDbEntity
8
1-0
6
CONTINUOUS
62
4
100
AcDbCircle
10
4474.230000000000
20
41086.419999999998
30
0.0
40
299.999997209656
100
AcDbArc
50
284.181762695313
51
425.239379882813
0
ARC
5
6d8
100
AcDbEntity
8
1-0
6
CONTINUOUS
62
4
100
AcDbCircle
10
4803.360000000000
20
42471.980000000003
30
0.0
40
299.999997209656
100
AcDbArc
50
284.181762695313
51
425.239379882813
0
ARC
5
6d9
100
AcDbEntity
8
1-0
6
CONTINUOUS
62
4
100
AcDbCircle
10
3076.180000000000
20
58205.779999999999
30
0.0
40
299.999997209656
100
AcDbArc
50
12.484283447266
51
153.541870117188
0
ARC
5
6da
100
AcDbEntity
8
1-0
6
CONTINUOUS
62
4
100
AcDbCircle
10
5305.900000000000
20
56903.309999999998
30
0.0
40
299.999997209656
100
AcDbArc
50
288.013092041016
51
69.070693969727
0
ARC
5
6db
100
AcDbEntity
8
1-0
6
CONTINUOUS
62
4
100
AcDbCircle
10
5376.300000000000
20
51809.470000000001
30
0.0
40
299.999997209656
100
AcDbArc
50
288.013092041016
51
69.070693969727
0
ARC
5
6dc
100
AcDbEntity
8
1-0
6
CONTINUOUS
62
4
100
AcDbCircle
10
4422.140000000000
20
40523.820000000000
30
0.0
40
299.999997209656
100
AcDbArc
50
284.181762695313
51
425.239379882813
0
ARC
5
6dd
100
AcDbEntity
8
1-0
6
CONTINUOUS
62
4
100
AcDbCircle
10
5262.770000000000
20
55208.860000000001
30
0.0
40
299.999997209656
100
AcDbArc
50
288.013092041016
51
69.070693969727
0
ARC
5
6de
100
AcDbEntity
8
1-0
6
CONTINUOUS
62
4
100
AcDbCircle
10
5140.490000000000
20
50405.010000000002
30
0.0
40
299.999997209656
100
AcDbArc
50
288.013092041016
51
69.070693969727
0
ARC
5
6df
100
AcDbEntity
8
1-0
6
CONTINUOUS
62
4
100
AcDbCircle
10
4578.400000000000
20
42211.599999999999
30
0.0
40
299.999997209656
100
AcDbArc
50
284.181762695313
51
425.239379882813
0
ARC
5
6e0
100
AcDbEntity
8
1-0
6
CONTINUOUS
62
4
100
AcDbCircle
10
5169.250000000000
20
51534.639999999999
30
0.0
40
299.999997209656
100
AcDbArc
50
288.013092041016
51
69.070693969727
0
ARC
5
6e1
100
AcDbEntity
8
1-0
6
CONTINUOUS
62
4
100
AcDbCircle
10
5277.140000000000
20
55773.680000000000
30
0.0
40
299.999997209656
100
AcDbArc
50
288.013092041016
51
69.070693969727
0
ARC
5
6e2
100
AcDbEntity
8
1-0
6
CONTINUOUS
62
4
100
AcDbCircle
10
4758.590000000000
20
57999.599999999999
30
0.0
40
299.999997209656
100
AcDbArc
50
12.484283447266
51
153.541870117188
0
ARC
5
6e3
100
AcDbEntity
8
1-0
6
CONTINUOUS
62
4
100
AcDbCircle
10
25421.700000000001
20
37583.160000000003
30
0.0
40
299.999997209656
100
AcDbArc
50
14.921325683594
51
155.978927612305
0
ARC
5
6e4
100
AcDbEntity
8
1-0
6
CONTINUOUS
62
4
100
AcDbCircle
10
29819.220000000001
20
28481.139999999999
30
0.0
40
299.999997209656
100
AcDbArc
50
11.876556396484
51
152.934143066406
0
ARC
5
6e5
100
AcDbEntity
8
1-0
6
CONTINUOUS
62
4
100
AcDbCircle
10
30889.080000000002
20
28338.490000000002
30
0.0
40
299.999997209656
100
AcDbArc
50
11.876556396484
51
152.934143066406
0
ARC
5
6e6
100
AcDbEntity
8
1-0
6
CONTINUOUS
62
4
100
AcDbCircle
10
26349.250000000000
20
35243.580000000002
30
0.0
40
299.999997209656
100
AcDbArc
50
194.921325683594
51
335.978912353516
0
ARC
5
6e7
100
AcDbEntity
8
1-0
6
CONTINUOUS
62
4
100
AcDbCircle
10
25984.910000000000
20
37538.330000000002
30
0.0
40
299.999997209656
100
AcDbArc
50
14.921325683594
51
155.978927612305
0
ARC
5
6e8
100
AcDbEntity
8
1-0
6
CONTINUOUS
62
4
100
AcDbCircle
10
24858.470000000001
20
37627.980000000003
30
0.0
40
299.999997209656
100
AcDbArc
50
14.921325683594
51
155.978927612305
0
ARC
5
6e9
100
AcDbEntity
8
1-0
6
CONTINUOUS
62
4
100
AcDbCircle
10
32173.669999999998
20
19375.500000000000
30
0.0
40
299.999997209656
100
AcDbArc
50
281.876556396484
51
422.934158325195
0
ARC
5
6ea
100
AcDbEntity
8
1-0
6
CONTINUOUS
62
4
100
AcDbCircle
10
32009.169999999998
20
28189.139999999999
30
0.0
40
299.999997209656
100
AcDbArc
50
11.876556396484
51
152.934143066406
0
ARC
5
6eb
100
AcDbEntity
8
1-0
6
CONTINUOUS
62
4
100
AcDbCircle
10
28699.130000000001
20
28630.480000000000
30
0.0
40
299.999997209656
100
AcDbArc
50
11.876556396484
51
152.934143066406
0
ARC
5
6ec
100
AcDbEntity
8
1-0
6
CONTINUOUS
62
4
100
AcDbCircle
10
31449.130000000001
20
28263.810000000001
30
0.0
40
299.999997209656
100
AcDbArc
50
11.876556396484
51
152.934143066406
0
ARC
5
6ed
100
AcDbEntity
8
1-0
6
CONTINUOUS
62
4
100
AcDbCircle
10
32099.000000000000
20
18815.459999999999
30
0.0
40
299.999997209656
100
AcDbArc
50
281.876556396484
51
422.934158325195
0
ARC
5
6ee
100
AcDbEntity
8
1-0
6
CONTINUOUS
62
4
100
AcDbCircle
10
32248.340000000000
20
19935.549999999999
30
0.0
40
299.999997209656
100
AcDbArc
50
281.876556396484
51
422.934158325195
0
ARC
5
6ef
100
AcDbEntity
8
1-0
6
CONTINUOUS
62
4
100
AcDbCircle
10
27085.619999999999
20
28845.619999999999
30
0.0
40
299.999997209656
100
AcDbArc
50
11.876556396484
51
152.934143066406
0
ARC
5
6f0
100
AcDbEntity
8
1-0
6
CONTINUOUS
62
4
100
AcDbCircle
10
5032.000000000000
20
47111.099999999999
30
0.0
40
299.999997209656
100
AcDbArc
50
284.181762695313
51
425.239379882813
0
ARC
5
6f1
100
AcDbEntity
8
1-0
6
CONTINUOUS
62
4
100
AcDbCircle
10
5084.080000000000
20
47673.690000000002
30
0.0
40
299.999997209656
100
AcDbArc
50
284.181762695313
51
425.239379882813
0
ARC
5
6f2
100
AcDbEntity
8
1-0
6
CONTINUOUS
62
4
100
AcDbCircle
10
4979.910000000000
20
46548.510000000002
30
0.0
40
299.999997209656
100
AcDbArc
50
284.181762695313
51
425.239379882813
0
ARC
5
6f3
100
AcDbEntity
8
1-0
6
CONTINUOUS
62
4
100
AcDbCircle
10
25965.529999999999
20
28994.959999999999
30
0.0
40
299.999997209656
100
AcDbArc
50
11.876556396484
51
152.934143066406
0
ARC
5
6f4
100
AcDbEntity
8
1-0
6
CONTINUOUS
62
4
100
AcDbCircle
10
24295.259999999998
20
37672.800000000003
30
0.0
40
299.999997209656
100
AcDbArc
50
14.921325683594
51
155.978927612305
0
ARC
5
6f5
100
AcDbEntity
8
1-0
6
CONTINUOUS
62
4
100
AcDbCircle
10
26548.130000000001
20
37493.519999999997
30
0.0
40
299.999997209656
100
AcDbArc
50
14.921325683594
51
155.978927612305
0
ARC
5
6f6
100
AcDbEntity
8
1-0
6
CONTINUOUS
62
4
100
AcDbCircle
10
27645.660000000000
20
28770.950000000001
30
0.0
40
299.999997209656
100
AcDbArc
50
11.876556396484
51
152.934143066406
0
ARC
5
6f7
100
AcDbEntity
8
1-0
6
CONTINUOUS
62
4
100
AcDbCircle
10
26525.570000000000
20
28920.290000000001
30
0.0
40
299.999997209656
100
AcDbArc
50
11.876556396484
51
152.934143066406
0
ARC
5
6f8
100
AcDbEntity
8
1-0
6
CONTINUOUS
62
4
100
AcDbCircle
10
30379.259999999998
20
28406.459999999999
30
0.0
40
299.999997209656
100
AcDbArc
50
11.876556396484
51
152.934143066406
0
ARC
5
6f9
100
AcDbEntity
8
1-0
6
CONTINUOUS
62
4
100
AcDbCircle
10
2768.970000000000
20
58041.940000000002
30
0.0
40
299.999997209656
100
AcDbArc
50
12.484283447266
51
153.541870117188
0
ARC
5
6fa
100
AcDbEntity
8
1-0
6
CONTINUOUS
62
4
100
AcDbCircle
10
5347.550000000000
20
50679.830000000002
30
0.0
40
299.999997209656
100
AcDbArc
50
288.013092041016
51
69.070693969727
0
ARC
5
6fb
100
AcDbEntity
8
1-0
6
CONTINUOUS
62
4
100
AcDbCircle
10
5152.790000000000
20
46246.279999999999
30
0.0
40
299.999997209656
100
AcDbArc
50
284.181762695313
51
425.239379882813
0
ARC
5
6fc
100
AcDbEntity
8
1-0
6
CONTINUOUS
62
4
100
AcDbCircle
10
5484.210000000000
20
56048.500000000000
30
0.0
40
299.999997209656
100
AcDbArc
50
288.013092041016
51
69.070693969727
0
ARC
5
6fd
100
AcDbEntity
8
1-0
6
CONTINUOUS
62
4
100
AcDbCircle
10
5498.580000000000
20
56613.320000000000
30
0.0
40
299.999997209656
100
AcDbArc
50
288.013092041016
51
69.070693969727
0
ARC
5
6fe
100
AcDbEntity
8
1-0
6
CONTINUOUS
62
4
100
AcDbCircle
10
5512.960000000000
20
57178.139999999999
30
0.0
40
299.999997209656
100
AcDbArc
50
288.013092041016
51
69.070693969727
0
ARC
5
6ff
100
AcDbEntity
8
1-0
6
CONTINUOUS
62
4
100
AcDbCircle
10
3458.010000000000
20
30109.889999999999
30
0.0
40
299.999997209656
100
AcDbArc
50
284.181762695313
51
425.239379882813
0
ARC
5
700
100
AcDbEntity
8
1-0
6
CONTINUOUS
62
4
100
AcDbCircle
10
3787.140000000000
20
31495.439999999999
30
0.0
40
299.999997209656
100
AcDbArc
50
284.181762695313
51
425.239379882813
0
ARC
5
701
100
AcDbEntity
8
1-0
6
CONTINUOUS
62
4
100
AcDbCircle
10
3527.710000000000
20
27102.830000000002
30
0.0
40
299.999997209656
100
AcDbArc
50
292.173492431641
51
73.231109619141
0
ARC
5
702
100
AcDbEntity
8
1-0
6
CONTINUOUS
62
4
100
AcDbCircle
10
4927.830000000000
20
45985.910000000003
30
0.0
40
299.999997209656
100
AcDbArc
50
284.181762695313
51
425.239379882813
0
ARC
5
703
100
AcDbEntity
8
1-0
6
CONTINUOUS
62
4
100
AcDbCircle
10
3890.570000000000
20
57904.480000000003
30
0.0
40
299.999997209656
100
AcDbArc
50
12.484283447266
51
153.541870117188
0
ARC
5
704
100
AcDbEntity
8
1-0
6
CONTINUOUS
62
4
100
AcDbCircle
10
3329.770000000000
20
57973.209999999999
30
0.0
40
299.999997209656
100
AcDbArc
50
12.484283447266
51
153.541870117188
0
ARC
5
705
100
AcDbEntity
8
1-0
6
CONTINUOUS
62
4
100
AcDbCircle
10
8477.870000000001
20
27338.470000000001
30
0.0
40
299.999997209656
100
AcDbArc
50
118.101135253906
51
259.158737182617
0
ARC
5
706
100
AcDbEntity
8
1-0
6
CONTINUOUS
62
4
100
AcDbCircle
10
8562.639999999999
20
26779.869999999999
30
0.0
40
299.999997209656
100
AcDbArc
50
118.101135253906
51
259.158737182617
0
ARC
5
707
100
AcDbEntity
8
1-0
6
CONTINUOUS
62
4
100
AcDbCircle
10
8322.139999999999
20
27031.630000000001
30
0.0
40
299.999997209656
100
AcDbArc
50
118.101135253906
51
259.158737182617
0
ARC
5
708
100
AcDbEntity
8
1-0
6
CONTINUOUS
62
4
100
AcDbCircle
10
8406.930000000000
20
26473.029999999999
30
0.0
40
299.999997209656
100
AcDbArc
50
118.101135253906
51
259.158737182617
0
ARC
5
709
100
AcDbEntity
8
1-0
6
CONTINUOUS
62
4
100
AcDbCircle
10
8491.709999999999
20
25914.419999999998
30
0.0
40
299.999997209656
100
AcDbArc
50
118.101135253906
51
259.158737182617
0
ARC
5
70a
100
AcDbEntity
8
1-0
6
CONTINUOUS
62
4
100
AcDbCircle
10
3580.990000000000
20
25974.080000000002
30
0.0
40
299.999997209656
100
AcDbArc
50
292.173492431641
51
73.231109619141
0
ARC
5
70b
100
AcDbEntity
8
1-0
6
CONTINUOUS
62
4
100
AcDbCircle
10
5469.820000000000
20
55483.690000000002
30
0.0
40
299.999997209656
100
AcDbArc
50
288.013092041016
51
69.070693969727
0
ARC
5
70c
100
AcDbEntity
8
1-0
6
CONTINUOUS
62
4
100
AcDbCircle
10
4647.100000000000
20
40784.199999999997
30
0.0
40
299.999997209656
100
AcDbArc
50
284.181762695313
51
425.239379882813
0
ARC
5
70d
100
AcDbEntity
8
1-0
6
CONTINUOUS
62
4
100
AcDbCircle
10
5390.690000000000
20
52374.290000000001
30
0.0
40
299.999997209656
100
AcDbArc
50
288.013092041016
51
69.070693969727
0
ARC
5
70e
100
AcDbEntity
8
1-0
6
CONTINUOUS
62
4
100
AcDbCircle
10
8393.090000000000
20
27897.070000000000
30
0.0
40
299.999997209656
100
AcDbArc
50
118.101135253906
51
259.158737182617
0
ARC
5
70f
100
AcDbEntity
8
1-0
6
CONTINUOUS
62
4
100
AcDbCircle
10
5183.620000000000
20
52099.449999999997
30
0.0
40
299.999997209656
100
AcDbArc
50
288.013092041016
51
69.070693969727
0
ARC
5
710
100
AcDbEntity
8
1-0
6
CONTINUOUS
62
4
100
AcDbCircle
10
5198.010000000000
20
52664.269999999997
30
0.0
40
299.999997209656
100
AcDbArc
50
288.013092041016
51
69.070693969727
0
ARC
5
711
100
AcDbEntity
8
1-0
6
CONTINUOUS
62
4
100
AcDbCircle
10
3394.410000000000
20
25684.970000000001
30
0.0
40
299.999997209656
100
AcDbArc
50
292.173492431641
51
73.231109619141
0
ARC
5
712
100
AcDbEntity
8
1-0
6
CONTINUOUS
62
4
100
AcDbCircle
10
9414.370000000001
20
53253.629999999997
30
0.0
40
299.999997209656
100
AcDbArc
50
108.013076782227
51
249.070693969727
0
ARC
5
713
100
AcDbEntity
8
1-0
6
CONTINUOUS
62
4
100
AcDbCircle
10
9091.540000000001
20
48431.000000000000
30
0.0
40
299.999997209656
100
AcDbArc
50
108.013076782227
51
249.070693969727
0
ARC
5
714
100
AcDbEntity
8
1-0
6
CONTINUOUS
62
4
100
AcDbCircle
10
3682.970000000000
20
30370.259999999998
30
0.0
40
299.999997209656
100
AcDbArc
50
284.181762695313
51
425.239379882813
0
ARC
5
715
100
AcDbEntity
8
1-0
6
CONTINUOUS
62
4
100
AcDbCircle
10
9105.920000000000
20
48995.820000000000
30
0.0
40
299.999997209656
100
AcDbArc
50
108.013076782227
51
249.070693969727
0
ARC
5
716
100
AcDbEntity
8
1-0
6
CONTINUOUS
62
4
100
AcDbCircle
10
3341.130000000000
20
26813.709999999999
30
0.0
40
299.999997209656
100
AcDbArc
50
292.173492431641
51
73.231109619141
0
ARC
5
717
100
AcDbEntity
8
1-0
6
CONTINUOUS
62
4
100
AcDbCircle
10
4526.310000000000
20
41649.010000000002
30
0.0
40
299.999997209656
100
AcDbArc
50
284.181762695313
51
425.239379882813
0
ARC
5
718
100
AcDbEntity
8
1-0
6
CONTINUOUS
62
4
100
AcDbCircle
10
4102.480000000000
20
37071.040000000001
30
0.0
40
299.999997209656
100
AcDbArc
50
284.181762695313
51
425.239379882813
0
ARC
5
719
100
AcDbEntity
8
1-0
6
CONTINUOUS
62
4
100
AcDbCircle
10
4154.560000000000
20
37633.639999999999
30
0.0
40
299.999997209656
100
AcDbArc
50
284.181762695313
51
425.239379882813
0
ARC
5
71a
100
AcDbEntity
8
1-0
6
CONTINUOUS
62
4
100
AcDbCircle
10
9207.299999999999
20
52978.809999999998
30
0.0
40
299.999997209656
100
AcDbArc
50
108.013076782227
51
249.070693969727
0
ARC
5
71b
100
AcDbEntity
8
1-0
6
CONTINUOUS
62
4
100
AcDbCircle
10
5320.280000000000
20
57468.129999999997
30
0.0
40
299.999997209656
100
AcDbArc
50
288.013092041016
51
69.070693969727
0
ARC
5
71c
100
AcDbEntity
8
1-0
6
CONTINUOUS
62
4
100
AcDbCircle
10
5291.530000000000
20
56338.500000000000
30
0.0
40
299.999997209656
100
AcDbArc
50
288.013092041016
51
69.070693969727
0
ARC
5
71d
100
AcDbEntity
8
1-0
6
CONTINUOUS
62
4
100
AcDbCircle
10
5012.180000000000
20
57767.029999999999
30
0.0
40
299.999997209656
100
AcDbArc
50
12.484283447266
51
153.541870117188
0
ARC
5
71e
100
AcDbEntity
8
1-0
6
CONTINUOUS
62
4
100
AcDbCircle
10
4451.380000000000
20
57835.750000000000
30
0.0
40
299.999997209656
100
AcDbArc
50
12.484283447266
51
153.541870117188
0
ARC
5
71f
100
AcDbEntity
8
1-0
6
CONTINUOUS
62
4
100
AcDbCircle
10
3421.050000000000
20
25120.599999999999
30
0.0
40
299.999997209656
100
AcDbArc
50
292.173492431641
51
73.231109619141
0
ARC
5
720
100
AcDbEntity
8
1-0
6
CONTINUOUS
62
4
100
AcDbCircle
10
4275.350000000000
20
36768.820000000000
30
0.0
40
299.999997209656
100
AcDbArc
50
284.181762695313
51
425.239379882813
0
ARC
5
721
100
AcDbEntity
8
1-0
6
CONTINUOUS
62
4
100
AcDbCircle
10
4327.440000000000
20
37331.419999999998
30
0.0
40
299.999997209656
100
AcDbArc
50
284.181762695313
51
425.239379882813
0
ARC
5
722
100
AcDbEntity
8
1-0
6
CONTINUOUS
62
4
100
AcDbCircle
10
3839.220000000000
20
32058.040000000001
30
0.0
40
299.999997209656
100
AcDbArc
50
284.181762695313
51
425.239379882813
0
ARC
5
723
100
AcDbEntity
8
1-0
6
CONTINUOUS
62
4
100
AcDbCircle
10
9077.160000000000
20
47866.180000000000
30
0.0
40
299.999997209656
100
AcDbArc
50
108.013076782227
51
249.070693969727
0
ARC
5
724
100
AcDbEntity
8
1-0
6
CONTINUOUS
62
4
100
AcDbCircle
10
3735.050000000000
20
30932.849999999999
30
0.0
40
299.999997209656
100
AcDbArc
50
284.181762695313
51
425.239379882813
0
ARC
5
725
100
AcDbEntity
8
1-0
6
CONTINUOUS
62
4
100
AcDbCircle
10
9443.120000000001
20
54383.260000000002
30
0.0
40
299.999997209656
100
AcDbArc
50
108.013076782227
51
249.070693969727
0
ARC
5
726
100
AcDbEntity
8
1-0
6
CONTINUOUS
62
4
100
AcDbCircle
10
3314.500000000000
20
27378.080000000002
30
0.0
40
299.999997209656
100
AcDbArc
50
292.173492431641
51
73.231109619141
0
ARC
5
727
100
AcDbEntity
8
1-0
6
CONTINUOUS
62
4
100
AcDbCircle
10
3367.770000000000
20
26249.330000000002
30
0.0
40
299.999997209656
100
AcDbArc
50
292.173492431641
51
73.231109619141
0
ARC
5
728
100
AcDbEntity
8
1-0
6
CONTINUOUS
62
4
100
AcDbCircle
10
9221.690000000001
20
53543.629999999997
30
0.0
40
299.999997209656
100
AcDbArc
50
108.013076782227
51
249.070693969727
0
ARC
5
729
100
AcDbEntity
8
1-0
6
CONTINUOUS
62
4
100
AcDbCircle
10
27528.240000000002
20
19194.110000000001
30
0.0
40
299.999997209656
100
AcDbArc
50
191.876556396484
51
332.934158325195
0
ARC
5
72a
100
AcDbEntity
8
1-0
6
CONTINUOUS
62
4
100
AcDbCircle
10
12903.719999999999
20
11017.059999999999
30
0.0
40
299.999997209656
100
AcDbArc
50
351.904708862305
51
132.962310791016
0
ARC
5
72b
100
AcDbEntity
8
1-0
6
CONTINUOUS
62
4
100
AcDbCircle
10
11245.490000000000
20
12108.340000000000
30
0.0
40
299.999997209656
100
AcDbArc
50
351.904708862305
51
132.962310791016
0
ARC
5
72c
100
AcDbEntity
8
1-0
6
CONTINUOUS
62
4
100
AcDbCircle
10
11902.010000000000
20
11540.000000000000
30
0.0
40
299.999997209656
100
AcDbArc
50
351.904708862305
51
132.962310791016
0
ARC
5
72d
100
AcDbEntity
8
1-0
6
CONTINUOUS
62
4
100
AcDbCircle
10
21837.860000000001
20
8026.970000000000
30
0.0
40
299.999997209656
100
AcDbArc
50
6.343734741211
51
147.401321411133
0
ARC
5
72e
100
AcDbEntity
8
1-0
6
CONTINUOUS
62
4
100
AcDbCircle
10
10900.290000000001
20
12062.930000000000
30
0.0
40
299.999997209656
100
AcDbArc
50
351.904708862305
51
132.962310791016
0
ARC
5
72f
100
AcDbEntity
8
1-0
6
CONTINUOUS
62
4
100
AcDbCircle
10
29208.369999999999
20
18970.099999999999
30
0.0
40
299.999997209656
100
AcDbArc
50
191.876556396484
51
332.934158325195
0
ARC
5
730
100
AcDbEntity
8
1-0
6
CONTINUOUS
62
4
100
AcDbCircle
10
24721.740000000002
20
19568.310000000001
30
0.0
40
299.999997209656
100
AcDbArc
50
191.876556396484
51
332.934158325195
0
ARC
5
731
100
AcDbEntity
8
1-0
6
CONTINUOUS
62
4
100
AcDbCircle
10
25841.830000000002
20
19418.970000000001
30
0.0
40
299.999997209656
100
AcDbArc
50
191.876556396484
51
332.934158325195
0
ARC
5
732
100
AcDbEntity
8
1-0
6
CONTINUOUS
62
4
100
AcDbCircle
10
32777.459999999999
20
23903.919999999998
30
0.0
40
299.999997209656
100
AcDbArc
50
281.876556396484
51
422.934158325195
0
ARC
5
733
100
AcDbEntity
8
1-0
6
CONTINUOUS
62
4
100
AcDbCircle
10
30205.340000000000
20
18837.160000000000
30
0.0
40
299.999997209656
100
AcDbArc
50
191.876556396484
51
332.934158325195
0
ARC
5
734
100
AcDbEntity
8
1-0
6
CONTINUOUS
62
4
100
AcDbCircle
10
29768.410000000000
20
18895.419999999998
30
0.0
40
299.999997209656
100
AcDbArc
50
191.876556396484
51
332.934158325195
0
ARC
5
735
100
AcDbEntity
8
1-0
6
CONTINUOUS
62
4
100
AcDbCircle
10
30765.380000000001
20
18762.490000000002
30
0.0
40
299.999997209656
100
AcDbArc
50
191.876556396484
51
332.934158325195
0
ARC
5
736
100
AcDbEntity
8
1-0
6
CONTINUOUS
62
4
100
AcDbCircle
10
31885.470000000001
20
18613.139999999999
30
0.0
40
299.999997209656
100
AcDbArc
50
191.876556396484
51
332.934158325195
0
ARC
5
737
100
AcDbEntity
8
1-0
6
CONTINUOUS
62
4
100
AcDbCircle
10
28088.279999999999
20
19119.439999999999
30
0.0
40
299.999997209656
100
AcDbArc
50
191.876556396484
51
332.934158325195
0
ARC
5
738
100
AcDbEntity
8
1-0
6
CONTINUOUS
62
4
100
AcDbCircle
10
25281.779999999999
20
19493.639999999999
30
0.0
40
299.999997209656
100
AcDbArc
50
191.876556396484
51
332.934158325195
0
ARC
5
739
100
AcDbEntity
8
1-0
6
CONTINUOUS
62
4
100
AcDbCircle
10
28648.320000000000
20
19044.770000000000
30
0.0
40
299.999997209656
100
AcDbArc
50
191.876556396484
51
332.934158325195
0
ARC
5
73a
100
AcDbEntity
8
1-0
6
CONTINUOUS
62
4
100
AcDbCircle
10
31325.419999999998
20
18687.820000000000
30
0.0
40
299.999997209656
100
AcDbArc
50
191.876556396484
51
332.934158325195
0
ARC
5
73b
100
AcDbEntity
8
1-0
6
CONTINUOUS
62
4
100
AcDbCircle
10
20510.130000000001
20
8541.980000000000
30
0.0
40
299.999997209656
100
AcDbArc
50
6.343734741211
51
147.401321411133
0
ARC
5
73c
100
AcDbEntity
8
1-0
6
CONTINUOUS
62
4
100
AcDbCircle
10
20187.150000000001
20
8411.940000000001
30
0.0
40
299.999997209656
100
AcDbArc
50
6.343734741211
51
147.401321411133
0
ARC
5
73d
100
AcDbEntity
8
1-0
6
CONTINUOUS
62
4
100
AcDbCircle
10
22388.090000000000
20
7898.660000000000
30
0.0
40
299.999997209656
100
AcDbArc
50
6.343734741211
51
147.401321411133
0
ARC
5
73e
100
AcDbEntity
8
1-0
6
CONTINUOUS
62
4
100
AcDbCircle
10
17809.029999999999
20
9013.549999999999
30
0.0
40
299.999997209656
100
AcDbArc
50
357.491775512695
51
138.549392700195
0
ARC
5
73f
100
AcDbEntity
8
1-0
6
CONTINUOUS
62
4
100
AcDbCircle
10
16761.150000000001
20
9436.480000000000
30
0.0
40
299.999997209656
100
AcDbArc
50
357.491775512695
51
138.549392700195
0
ARC
5
740
100
AcDbEntity
8
1-0
6
CONTINUOUS
62
4
100
AcDbCircle
10
20737.389999999999
20
8283.620000000001
30
0.0
40
299.999997209656
100
AcDbArc
50
6.343734741211
51
147.401321411133
0
ARC
5
741
100
AcDbEntity
8
1-0
6
CONTINUOUS
62
4
100
AcDbCircle
10
16237.219999999999
20
9647.940000000001
30
0.0
40
299.999997209656
100
AcDbArc
50
357.491775512695
51
138.549392700195
0
ARC
5
742
100
AcDbEntity
8
1-0
6
CONTINUOUS
62
4
100
AcDbCircle
10
21060.360000000001
20
8413.660000000000
30
0.0
40
299.999997209656
100
AcDbArc
50
6.343734741211
51
147.401321411133
0
ARC
5
743
100
AcDbEntity
8
1-0
6
CONTINUOUS
62
4
100
AcDbCircle
10
25670.860000000001
20
7012.520000000000
30
0.0
40
299.999997209656
100
AcDbArc
50
4.404968261719
51
145.462570190430
0
ARC
5
744
100
AcDbEntity
8
1-0
6
CONTINUOUS
62
4
100
AcDbCircle
10
21287.619999999999
20
8155.300000000000
30
0.0
40
299.999997209656
100
AcDbArc
50
6.343734741211
51
147.401321411133
0
ARC
5
745
100
AcDbEntity
8
1-0
6
CONTINUOUS
62
4
100
AcDbCircle
10
25125.279999999999
20
7159.380000000000
30
0.0
40
299.999997209656
100
AcDbArc
50
4.404968261719
51
145.462570190430
0
ARC
5
746
100
AcDbEntity
8
1-0
6
CONTINUOUS
62
4
100
AcDbCircle
10
21610.590000000000
20
8285.340000000000
30
0.0
40
299.999997209656
100
AcDbArc
50
6.343734741211
51
147.401321411133
0
ARC
5
747
100
AcDbEntity
8
1-0
6
CONTINUOUS
62
4
100
AcDbCircle
10
17100.299999999999
20
9515.270000000000
30
0.0
40
299.999997209656
100
AcDbArc
50
357.491775512695
51
138.549392700195
0
ARC
5
748
100
AcDbEntity
8
1-0
6
CONTINUOUS
62
4
100
AcDbCircle
10
12748.059999999999
20
11323.930000000000
30
0.0
40
299.999997209656
100
AcDbArc
50
351.904708862305
51
132.962310791016
0
ARC
5
749
100
AcDbEntity
8
1-0
6
CONTINUOUS
62
4
100
AcDbCircle
10
15713.290000000001
20
9859.410000000000
30
0.0
40
299.999997209656
100
AcDbArc
50
357.491775512695
51
138.549392700195
0
ARC
5
74a
100
AcDbEntity
8
1-0
6
CONTINUOUS
62
4
100
AcDbCircle
10
12402.860000000001
20
11278.530000000001
30
0.0
40
299.999997209656
100
AcDbArc
50
351.904708862305
51
132.962310791016
0
ARC
5
74b
100
AcDbEntity
8
1-0
6
CONTINUOUS
62
4
100
AcDbCircle
10
11401.150000000000
20
11801.469999999999
30
0.0
40
299.999997209656
100
AcDbArc
50
351.904708862305
51
132.962310791016
0
ARC
5
74c
100
AcDbEntity
8
1-0
6
CONTINUOUS
62
4
100
AcDbCircle
10
17285.090000000000
20
9225.010000000000
30
0.0
40
299.999997209656
100
AcDbArc
50
357.491775512695
51
138.549392700195
0
ARC
5
74d
100
AcDbEntity
8
1-0
6
CONTINUOUS
62
4
100
AcDbCircle
10
31952.299999999999
20
5528.740000000000
30
0.0
40
299.999997209656
100
AcDbArc
50
4.404968261719
51
145.462570190430
0
ARC
5
74e
100
AcDbEntity
8
1-0
6
CONTINUOUS
62
4
100
AcDbCircle
10
16052.430000000000
20
9938.200000000001
30
0.0
40
299.999997209656
100
AcDbArc
50
357.491775512695
51
138.549392700195
0
ARC
5
74f
100
AcDbEntity
8
1-0
6
CONTINUOUS
62
4
100
AcDbCircle
10
16576.360000000001
20
9726.740000000000
30
0.0
40
299.999997209656
100
AcDbArc
50
357.491775512695
51
138.549392700195
0
ARC
5
750
100
AcDbEntity
8
1-0
6
CONTINUOUS
62
4
100
AcDbCircle
10
12247.209999999999
20
11585.400000000000
30
0.0
40
299.999997209656
100
AcDbArc
50
351.904708862305
51
132.962310791016
0
ARC
5
751
100
AcDbEntity
8
1-0
6
CONTINUOUS
62
4
100
AcDbCircle
10
17624.230000000000
20
9303.810000000000
30
0.0
40
299.999997209656
100
AcDbArc
50
357.491775512695
51
138.549392700195
0
ARC
5
752
100
AcDbEntity
8
1-0
6
CONTINUOUS
62
4
100
AcDbCircle
10
26216.439999999999
20
6865.650000000000
30
0.0
40
299.999997209656
100
AcDbArc
50
4.404968261719
51
145.462570190430
0
ARC
5
753
100
AcDbEntity
8
1-0
6
CONTINUOUS
62
4
100
AcDbCircle
10
27237.880000000001
20
38040.489999999998
30
0.0
40
299.999997209656
100
AcDbArc
50
14.921386718750
51
155.978988647461
0
ARC
5
754
100
AcDbEntity
8
1-0
6
CONTINUOUS
62
4
100
AcDbCircle
10
24659.590000000000
20
35378.040000000001
30
0.0
40
299.999997209656
100
AcDbArc
50
194.921325683594
51
335.978912353516
0
ARC
5
755
100
AcDbEntity
8
1-0
6
CONTINUOUS
62
4
100
AcDbCircle
10
25786.029999999999
20
35288.410000000003
30
0.0
40
299.999997209656
100
AcDbArc
50
194.921325683594
51
335.978912353516
0
CIRCLE
5
756
100
AcDbEntity
8
1-0
6
CONTINUOUS
62
3
100
AcDbCircle
10
39676.790000000001
20
11055.400000000000
30
0.0
40
199.999998139770
0
ARC
5
757
100
AcDbEntity
8
1-0
6
CONTINUOUS
62
4
100
AcDbCircle
10
28071.040000000001
20
34445.870000000003
30
0.0
40
299.999997209656
100
AcDbArc
50
194.921829223633
51
335.979415893555
0
ARC
5
758
100
AcDbEntity
8
1-0
6
CONTINUOUS
62
4
100
AcDbCircle
10
24096.369999999999
20
35422.860000000001
30
0.0
40
299.999997209656
100
AcDbArc
50
194.921325683594
51
335.978912353516
0
ARC
5
759
100
AcDbEntity
8
1-0
6
CONTINUOUS
62
4
100
AcDbCircle
10
28634.250000000000
20
34401.050000000003
30
0.0
40
299.999997209656
100
AcDbArc
50
194.921829223633
51
335.979415893555
0
ARC
5
75a
100
AcDbEntity
8
1-0
6
CONTINUOUS
62
4
100
AcDbCircle
10
29490.750000000000
20
37861.220000000001
30
0.0
40
299.999997209656
100
AcDbArc
50
14.921386718750
51
155.978988647461
0
ARC
5
75b
100
AcDbEntity
8
1-0
6
CONTINUOUS
62
4
100
AcDbCircle
10
28364.320000000000
20
37950.860000000001
30
0.0
40
299.999997209656
100
AcDbArc
50
14.921386718750
51
155.978988647461
0
ARC
5
75c
100
AcDbEntity
8
1-0
6
CONTINUOUS
62
4
100
AcDbCircle
10
25222.810000000001
20
35333.220000000001
30
0.0
40
299.999997209656
100
AcDbArc
50
194.921325683594
51
335.978912353516
0
ARC
5
75d
100
AcDbEntity
8
1-0
6
CONTINUOUS
62
4
100
AcDbCircle
10
27801.090000000000
20
37995.669999999998
30
0.0
40
299.999997209656
100
AcDbArc
50
14.921386718750
51
155.978988647461
0
ARC
5
75e
100
AcDbEntity
8
1-0
6
CONTINUOUS
62
4
100
AcDbCircle
10
29197.480000000000
20
34356.239999999998
30
0.0
40
299.999997209656
100
AcDbArc
50
194.921829223633
51
335.979415893555
0
ARC
5
75f
100
AcDbEntity
8
1-0
6
CONTINUOUS
62
4
100
AcDbCircle
10
33129.260000000002
20
28039.790000000001
30
0.0
40
299.999997209656
100
AcDbArc
50
11.876556396484
51
152.934143066406
0
ARC
5
760
100
AcDbEntity
8
1-0
6
CONTINUOUS
62
4
100
AcDbCircle
10
29634.369999999999
20
36663.809999999998
30
0.0
40
299.999997209656
100
AcDbArc
50
284.921401977539
51
425.979003906250
0
ARC
5
761
100
AcDbEntity
8
1-0
6
CONTINUOUS
62
4
100
AcDbCircle
10
29589.549999999999
20
36100.589999999997
30
0.0
40
299.999997209656
100
AcDbArc
50
284.921401977539
51
425.979003906250
0
ARC
5
762
100
AcDbEntity
8
1-0
6
CONTINUOUS
62
4
100
AcDbCircle
10
29259.180000000000
20
28555.810000000001
30
0.0
40
299.999997209656
100
AcDbArc
50
11.876556396484
51
152.934143066406
0
ARC
5
763
100
AcDbEntity
8
1-0
6
CONTINUOUS
62
4
100
AcDbCircle
10
28139.090000000000
20
28705.150000000001
30
0.0
40
299.999997209656
100
AcDbArc
50
11.876556396484
51
152.934143066406
0
ARC
5
764
100
AcDbEntity
8
1-0
6
CONTINUOUS
62
4
100
AcDbCircle
10
32569.209999999999
20
28114.470000000001
30
0.0
40
299.999997209656
100
AcDbArc
50
11.876556396484
51
152.934143066406
0
ARC
5
765
100
AcDbEntity
8
1-0
6
CONTINUOUS
62
4
100
AcDbCircle
10
29544.740000000002
20
35537.370000000003
30
0.0
40
299.999997209656
100
AcDbArc
50
284.921401977539
51
425.979003906250
0
CIRCLE
5
766
100
AcDbEntity
8
1-0
6
CONTINUOUS
62
3
100
AcDbCircle
10
40707.379999999997
20
10670.879999999999
30
0.0
40
199.999998139770
0
ARC
5
767
100
AcDbEntity
8
1-0
6
CONTINUOUS
62
4
100
AcDbCircle
10
29499.910000000000
20
34974.150000000001
30
0.0
40
299.999997209656
100
AcDbArc
50
284.921401977539
51
425.979003906250
0
ARC
5
768
100
AcDbEntity
8
1-0
6
CONTINUOUS
62
4
100
AcDbCircle
10
29679.189999999999
20
37227.029999999999
30
0.0
40
299.999997209656
100
AcDbArc
50
284.921401977539
51
425.979003906250
0
ARC
5
769
100
AcDbEntity
8
1-0
6
CONTINUOUS
62
4
100
AcDbCircle
10
27507.820000000000
20
34490.680000000000
30
0.0
40
299.999997209656
100
AcDbArc
50
194.921829223633
51
335.979415893555
0
ARC
5
76a
100
AcDbEntity
8
1-0
6
CONTINUOUS
62
4
100
AcDbCircle
10
26944.599999999999
20
34535.500000000000
30
0.0
40
299.999997209656
100
AcDbArc
50
194.921829223633
51
335.979415893555
0
ARC
5
76b
100
AcDbEntity
8
1-0
6
CONTINUOUS
62
4
100
AcDbCircle
10
32999.230000000003
20
25567.209999999999
30
0.0
40
299.999997209656
100
AcDbArc
50
281.876556396484
51
422.934158325195
0
ARC
5
76c
100
AcDbEntity
8
1-0
6
CONTINUOUS
62
4
100
AcDbCircle
10
33148.570000000000
20
26687.299999999999
30
0.0
40
299.999997209656
100
AcDbArc
50
281.876556396484
51
422.934158325195
0
ARC
5
76d
100
AcDbEntity
8
1-0
6
CONTINUOUS
62
4
100
AcDbCircle
10
33297.919999999998
20
27807.389999999999
30
0.0
40
299.999997209656
100
AcDbArc
50
281.876556396484
51
422.934158325195
0
ARC
5
76e
100
AcDbEntity
8
1-0
6
CONTINUOUS
62
4
100
AcDbCircle
10
24592.299999999999
20
27362.150000000001
30
0.0
40
299.999997209656
100
AcDbArc
50
11.876632690430
51
152.934234619141
0
ARC
5
76f
100
AcDbEntity
8
1-0
6
CONTINUOUS
62
4
100
AcDbCircle
10
24375.340000000000
20
21430.419999999998
30
0.0
40
299.999997209656
100
AcDbArc
50
191.876632690430
51
332.934234619141
0
ARC
5
770
100
AcDbEntity
8
1-0
6
CONTINUOUS
62
4
100
AcDbCircle
10
33073.900000000001
20
26127.259999999998
30
0.0
40
299.999997209656
100
AcDbArc
50
281.876556396484
51
422.934158325195
0
ARC
5
771
100
AcDbEntity
8
1-0
6
CONTINUOUS
62
4
100
AcDbCircle
10
32397.689999999999
20
21055.630000000001
30
0.0
40
299.999997209656
100
AcDbArc
50
281.876556396484
51
422.934158325195
0
ARC
5
772
100
AcDbEntity
8
1-0
6
CONTINUOUS
62
4
100
AcDbCircle
10
32702.790000000001
20
23343.869999999999
30
0.0
40
299.999997209656
100
AcDbArc
50
281.876556396484
51
422.934158325195
0
ARC
5
773
100
AcDbEntity
8
1-0
6
CONTINUOUS
62
4
100
AcDbCircle
10
32852.129999999997
20
24463.959999999999
30
0.0
40
299.999997209656
100
AcDbArc
50
281.876556396484
51
422.934158325195
0
ARC
5
774
100
AcDbEntity
8
1-0
6
CONTINUOUS
62
4
100
AcDbCircle
10
33223.239999999998
20
27247.340000000000
30
0.0
40
299.999997209656
100
AcDbArc
50
281.876556396484
51
422.934158325195
0
ARC
5
775
100
AcDbEntity
8
1-0
6
CONTINUOUS
62
4
100
AcDbCircle
10
32926.800000000003
20
25024.000000000000
30
0.0
40
299.999997209656
100
AcDbArc
50
281.876556396484
51
422.934158325195
0
ARC
5
776
100
AcDbEntity
8
1-0
6
CONTINUOUS
62
4
100
AcDbCircle
10
32628.110000000001
20
22783.830000000002
30
0.0
40
299.999997209656
100
AcDbArc
50
281.876556396484
51
422.934158325195
0
ARC
5
777
100
AcDbEntity
8
1-0
6
CONTINUOUS
62
4
100
AcDbCircle
10
22912.169999999998
20
27586.169999999998
30
0.0
40
299.999997209656
100
AcDbArc
50
11.876632690430
51
152.934234619141
0
ARC
5
778
100
AcDbEntity
8
1-0
6
CONTINUOUS
62
4
100
AcDbCircle
10
22695.209999999999
20
21654.430000000000
30
0.0
40
299.999997209656
100
AcDbArc
50
191.876632690430
51
332.934234619141
0
ARC
5
779
100
AcDbEntity
8
1-0
6
CONTINUOUS
62
4
100
AcDbCircle
10
23815.299999999999
20
21505.090000000000
30
0.0
40
299.999997209656
100
AcDbArc
50
191.876632690430
51
332.934234619141
0
ARC
5
77a
100
AcDbEntity
8
1-0
6
CONTINUOUS
62
4
100
AcDbCircle
10
28927.540000000001
20
37906.029999999999
30
0.0
40
299.999997209656
100
AcDbArc
50
14.921386718750
51
155.978988647461
0
ARC
5
77b
100
AcDbEntity
8
1-0
6
CONTINUOUS
62
4
100
AcDbCircle
10
32323.009999999998
20
20495.590000000000
30
0.0
40
299.999997209656
100
AcDbArc
50
281.876556396484
51
422.934158325195
0
ARC
5
77c
100
AcDbEntity
8
1-0
6
CONTINUOUS
62
4
100
AcDbCircle
10
22135.169999999998
20
21729.110000000001
30
0.0
40
299.999997209656
100
AcDbArc
50
191.876632690430
51
332.934234619141
0
ARC
5
77d
100
AcDbEntity
8
1-0
6
CONTINUOUS
62
4
100
AcDbCircle
10
26401.869999999999
20
19344.299999999999
30
0.0
40
299.999997209656
100
AcDbArc
50
191.876556396484
51
332.934158325195
0
ARC
5
77e
100
AcDbEntity
8
1-0
6
CONTINUOUS
62
4
100
AcDbCircle
10
25152.340000000000
20
27287.470000000001
30
0.0
40
299.999997209656
100
AcDbArc
50
11.876632690430
51
152.934234619141
0
ARC
5
77f
100
AcDbEntity
8
1-0
6
CONTINUOUS
62
4
100
AcDbCircle
10
24032.259999999998
20
27436.820000000000
30
0.0
40
299.999997209656
100
AcDbArc
50
11.876632690430
51
152.934234619141
0
ARC
5
780
100
AcDbEntity
8
1-0
6
CONTINUOUS
62
4
100
AcDbCircle
10
23255.259999999998
20
21579.759999999998
30
0.0
40
299.999997209656
100
AcDbArc
50
191.876632690430
51
332.934234619141
0
ARC
5
781
100
AcDbEntity
8
1-0
6
CONTINUOUS
62
4
100
AcDbCircle
10
23472.209999999999
20
27511.500000000000
30
0.0
40
299.999997209656
100
AcDbArc
50
11.876632690430
51
152.934234619141
0
ARC
5
782
100
AcDbEntity
8
1-0
6
CONTINUOUS
62
4
100
AcDbCircle
10
26961.910000000000
20
19269.619999999999
30
0.0
40
299.999997209656
100
AcDbArc
50
191.876556396484
51
332.934158325195
0
CIRCLE
5
783
100
AcDbEntity
8
1-0
6
CONTINUOUS
62
4
100
AcDbCircle
10
23584.529999999999
20
55119.080000000002
30
0.0
40
99.999999069885
0
CIRCLE
5
784
100
AcDbEntity
8
1-0
6
CONTINUOUS
62
4
100
AcDbCircle
10
30812.349999999999
20
48135.120000000003
30
0.0
40
99.999999069885
0
CIRCLE
5
785
100
AcDbEntity
8
1-0
6
CONTINUOUS
62
4
100
AcDbCircle
10
37434.980000000003
20
40879.290000000001
30
0.0
40
99.999999069885
0
CIRCLE
5
786
100
AcDbEntity
8
1-0
6
CONTINUOUS
62
4
100
AcDbCircle
10
44844.889999999999
20
34410.050000000003
30
0.0
40
99.999999069885
0
CIRCLE
5
787
100
AcDbEntity
8
1-0
6
CONTINUOUS
62
4
100
AcDbCircle
10
55311.830000000002
20
28530.259999999998
30
0.0
40
99.999999069885
0
CIRCLE
5
788
100
AcDbEntity
8
1-0
6
CONTINUOUS
62
4
100
AcDbCircle
10
62349.160000000003
20
22810.950000000001
30
0.0
40
99.999999069885
0
CIRCLE
5
789
100
AcDbEntity
8
1-0
6
CONTINUOUS
62
4
100
AcDbCircle
10
70530.619999999995
20
17235.990000000002
30
0.0
40
99.999999069885
0
CIRCLE
5
78a
100
AcDbEntity
8
1-0
6
CONTINUOUS
62
4
100
AcDbCircle
10
78936.860000000001
20
12411.020000000000
30
0.0
40
99.999999069885
0
TEXT
5
78b
100
AcDbEntity
8
1-0
62
2
100
AcDbText
10
75755.680
20
35422.520
30
0.0
40
390.000
1
（8.55）
41
1.050
50
0.000
100
AcDbText
0
TEXT
5
78c
100
AcDbEntity
8
1-0
62
2
100
AcDbText
10
76140.140
20
35871.050
30
0.0
40
390.000
1
8.58
41
1.050
50
0.000
100
AcDbText
0
TEXT
5
78d
100
AcDbEntity
8
1-0
62
2
100
AcDbText
10
54324.430
20
28323.720
30
0.0
40
390.000
1
T-33
41
1.050
50
0.000
100
AcDbText
0
TEXT
5
78e
100
AcDbEntity
8
1-0
62
2
100
AcDbText
10
23801.520
20
54914.090
30
0.0
40
390.000
1
T-37
41
1.050
50
0.000
100
AcDbText
0
TEXT
5
78f
100
AcDbEntity
8
1-0
62
3
100
AcDbText
10
72707.900
20
46858.700
30
0.0
40
341.250
1
Scale　1/100
41
1.000
50
0.000
100
AcDbText
0
TEXT
5
790
100
AcDbEntity
8
1-0
62
6
100
AcDbText
10
70579.340
20
48677.920
30
0.0
40
585.000
1
縮尺 壱百分之壱
41
1.083
50
0.000
100
AcDbText
0
TEXT
5
791
100
AcDbEntity
8
1-0
62
7
100
AcDbText
10
73270.230
20
46333.420
30
0.0
40
195.000
1
1
41
1.000
50
0.000
100
AcDbText
0
TEXT
5
792
100
AcDbEntity
8
1-0
62
7
100
AcDbText
10
71275.970
20
46346.240
30
0.0
40
195.000
1
1
41
1.000
50
0.000
100
AcDbText
0
TEXT
5
793
100
AcDbEntity
8
1-0
62
6
100
AcDbText
10
67403.940
20
50794.850
30
0.0
40
585.000
1
大覚寺望雲邸現況平面図
41
1.083
50
0.000
100
AcDbText
0
TEXT
5
794
100
AcDbEntity
8
1-0
62
2
100
AcDbText
10
45103.630
20
34209.360
30
0.0
40
390.000
1
T-34
41
1.050
50
0.000
100
AcDbText
0
TEXT
5
795
100
AcDbEntity
8
1-0
62
6
100
AcDbText
10
60437.640
20
10113.780
30
0.0
40
585.000
1
望雲亭
41
1.083
50
344.424
100
AcDbText
0
TEXT
5
796
100
AcDbEntity
8
1-0
62
2
100
AcDbText
10
37682.250
20
40688.980
30
0.0
40
390.000
1
T-35
41
1.050
50
0.000
100
AcDbText
0
TEXT
5
797
100
AcDbEntity
8
1-0
62
2
100
AcDbText
10
79190.130
20
12209.880
30
0.0
40
390.000
1
T-30
41
1.050
50
0.000
100
AcDbText
0
TEXT
5
798
100
AcDbEntity
8
1-0
62
6
100
AcDbText
10
38878.860
20
5498.550
30
0.0
40
585.000
1
有栖川
41
1.083
50
345.203
100
AcDbText
0
TEXT
5
799
100
AcDbEntity
8
1-0
62
2
100
AcDbText
10
61329.640
20
22565.350
30
0.0
40
390.000
1
T-32
41
1.050
50
0.000
100
AcDbText
0
TEXT
5
79a
100
AcDbEntity
8
1-0
62
2
100
AcDbText
10
44383.160
20
50560.440
30
0.0
40
390.000
1
（8.27）
41
1.050
50
0.000
100
AcDbText
0
TEXT
5
79b
100
AcDbEntity
8
1-0
62
2
100
AcDbText
10
44789.420
20
51026.150
30
0.0
40
390.000
1
8.56
41
1.050
50
0.000
100
AcDbText
0
TEXT
5
79c
100
AcDbEntity
8
1-0
62
2
100
AcDbText
10
30981.460
20
47945.440
30
0.0
40
390.000
1
T-36
41
1.050
50
0.000
100
AcDbText
0
TEXT
5
79d
100
AcDbEntity
8
1-0
62
2
100
AcDbText
10
69555.820
20
17006.140
30
0.0
40
390.000
1
T-31
41
1.050
50
0.000
100
AcDbText
0
TEXT
5
79e
100
AcDbEntity
8
1-0
62
3
100
AcDbText
10
5654.900
20
2788.300
30
0.0
40
292.500
1
ソウギョ・バスターズ
41
1.000
50
0.000
100
AcDbText
0
TEXT
5
79f
100
AcDbEntity
8
1-0
62
3
100
AcDbText
10
5932.670
20
5027.880
30
0.0
40
292.500
1
望雲邸現況平面図
41
1.000
50
0.000
100
AcDbText
0
TEXT
5
7a0
100
AcDbEntity
8
1-0
62
3
100
AcDbText
10
3160.770
20
3935.210
30
0.0
40
292.500
1
測
41
1.000
50
0.000
100
AcDbText
0
TEXT
5
7a1
100
AcDbEntity
8
1-0
62
3
100
AcDbText
10
4330.770
20
3935.210
30
0.0
40
292.500
1
量
41
1.000
50
0.000
100
AcDbText
0
TEXT
5
7a2
100
AcDbEntity
8
1-0
62
3
100
AcDbText
10
4891.000
20
3913.300
30
0.0
40
292.500
1
平成13年8月17日～平成17年11月6日
41
1.000
50
0.000
100
AcDbText
0
TEXT
5
7a3
100
AcDbEntity
8
1-0
62
3
100
AcDbText
10
6894.720
20
4476.100
30
0.0
40
292.500
1
図面番号
41
1.000
50
0.000
100
AcDbText
0
TEXT
5
7a4
100
AcDbEntity
8
1-0
62
3
100
AcDbText
10
5236.730
20
4476.100
30
0.0
40
292.500
1
1/
41
1.000
50
0.000
100
AcDbText
0
TEXT
5
7a5
100
AcDbEntity
8
1-0
62
6
100
AcDbText
10
60428.830
20
37308.580
30
0.0
40
585.000
1
大　沢　池
41
1.083
50
0.000
100
AcDbText
0
TEXT
5
7a6
100
AcDbEntity
8
1-0
62
3
100
AcDbText
10
5556.170
20
4476.100
30
0.0
40
292.500
1
100
41
1.000
50
0.000
100
AcDbText
0
TEXT
5
7a7
100
AcDbEntity
8
1-0
62
3
100
AcDbText
10
5207.880
20
5575.730
30
0.0
40
292.500
1
大沢の池環境管理プロジェクト
41
1.000
50
0.000
100
AcDbText
0
TEXT
5
7a8
100
AcDbEntity
8
1-0
62
3
100
AcDbText
10
3160.770
20
3372.710
30
0.0
40
292.500
1
調
41
1.000
50
0.000
100
AcDbText
0
TEXT
5
7a9
100
AcDbEntity
8
1-0
62
3
100
AcDbText
10
4330.770
20
3372.710
30
0.0
40
292.500
1
製
41
1.000
50
0.000
100
AcDbText
0
TEXT
5
7aa
100
AcDbEntity
8
1-0
62
7
100
AcDbText
10
76270.230
20
46333.420
30
0.0
40
195.000
1
4 m
41
1.000
50
0.000
100
AcDbText
0
TEXT
5
7ab
100
AcDbEntity
8
1-0
62
7
100
AcDbText
10
74270.560
20
46327.000
30
0.0
40
195.000
1
2
41
1.000
50
0.000
100
AcDbText
0
TEXT
5
7ac
100
AcDbEntity
8
1-0
62
7
100
AcDbText
10
75270.900
20
46333.420
30
0.0
40
195.000
1
3
41
1.000
50
0.000
100
AcDbText
0
TEXT
5
7ad
100
AcDbEntity
8
1-0
62
7
100
AcDbText
10
72309.790
20
46354.950
30
0.0
40
195.000
1
0
41
1.000
50
0.000
100
AcDbText
0
TEXT
5
7ae
100
AcDbEntity
8
1-0
62
3
100
AcDbText
10
6071.550
20
3350.800
30
0.0
40
292.500
1
平成17年12月1日
41
1.000
50
0.000
100
AcDbText
0
TEXT
5
7af
100
AcDbEntity
8
1-0
62
3
100
AcDbText
10
3160.770
20
5612.290
30
0.0
40
292.500
1
事
41
1.000
50
0.000
100
AcDbText
0
TEXT
5
7b0
100
AcDbEntity
8
1-0
62
3
100
AcDbText
10
3745.770
20
5612.290
30
0.0
40
292.500
1
業
41
1.000
50
0.000
100
AcDbText
0
TEXT
5
7b1
100
AcDbEntity
8
1-0
62
3
100
AcDbText
10
4330.770
20
5612.290
30
0.0
40
292.500
1
名
41
1.000
50
0.000
100
AcDbText
0
TEXT
5
7b2
100
AcDbEntity
8
1-0
62
3
100
AcDbText
10
3160.770
20
5049.790
30
0.0
40
292.500
1
図
41
1.000
50
0.000
100
AcDbText
0
TEXT
5
7b3
100
AcDbEntity
8
1-0
62
3
100
AcDbText
10
3745.770
20
5049.790
30
0.0
40
292.500
1
面
41
1.000
50
0.000
100
AcDbText
0
TEXT
5
7b4
100
AcDbEntity
8
1-0
62
3
100
AcDbText
10
4330.770
20
5049.790
30
0.0
40
292.500
1
名
41
1.000
50
0.000
100
AcDbText
0
TEXT
5
7b5
100
AcDbEntity
8
1-0
62
3
100
AcDbText
10
3160.770
20
2810.210
30
0.0
40
292.500
1
作
41
1.000
50
0.000
100
AcDbText
0
TEXT
5
7b6
100
AcDbEntity
8
1-0
62
3
100
AcDbText
10
3550.770
20
2810.210
30
0.0
40
292.500
1
業
41
1.000
50
0.000
100
AcDbText
0
TEXT
5
7b7
100
AcDbEntity
8
1-0
62
3
100
AcDbText
10
3940.770
20
2810.210
30
0.0
40
292.500
1
機
41
1.000
50
0.000
100
AcDbText
0
TEXT
5
7b8
100
AcDbEntity
8
1-0
62
3
100
AcDbText
10
4330.770
20
2810.210
30
0.0
40
292.500
1
関
41
1.000
50
0.000
100
AcDbText
0
TEXT
5
7b9
100
AcDbEntity
8
1-0
62
3
100
AcDbText
10
3160.770
20
4492.510
30
0.0
40
292.500
1
縮
41
1.000
50
0.000
100
AcDbText
0
TEXT
5
7ba
100
AcDbEntity
8
1-0
62
3
100
AcDbText
10
4330.770
20
4492.510
30
0.0
40
292.500
1
尺
41
1.000
50
0.000
100
AcDbText
0
POINT
5
7bb
100
AcDbEntity
8
1-0
62
7
100
AcDbPoint
10
78936.860000000001
20
12411.020000000000
30
0.0
0
POINT
5
7bc
100
AcDbEntity
8
1-0
62
7
100
AcDbPoint
10
30812.349999999999
20
48135.120000000003
30
0.0
0
POINT
5
7bd
100
AcDbEntity
8
1-0
62
7
100
AcDbPoint
10
44393.570000000000
20
51045.099999999999
30
0.0
0
POINT
5
7be
100
AcDbEntity
8
1-0
62
7
100
AcDbPoint
10
75766.080000000002
20
35901.330000000002
30
0.0
0
POINT
5
7bf
100
AcDbEntity
8
1-0
62
7
100
AcDbPoint
10
44844.889999999999
20
34410.050000000003
30
0.0
0
POINT
5
7c0
100
AcDbEntity
8
1-0
62
7
100
AcDbPoint
10
62349.160000000003
20
22810.950000000001
30
0.0
0
POINT
5
7c1
100
AcDbEntity
8
1-0
62
7
100
AcDbPoint
10
70530.619999999995
20
17235.990000000002
30
0.0
0
POINT
5
7c2
100
AcDbEntity
8
1-0
62
7
100
AcDbPoint
10
55311.830000000002
20
28530.259999999998
30
0.0
0
POINT
5
7c3
100
AcDbEntity
8
1-0
62
7
100
AcDbPoint
10
23584.529999999999
20
55119.080000000002
30
0.0
0
POINT
5
7c4
100
AcDbEntity
8
1-0
62
7
100
AcDbPoint
10
37434.980000000003
20
40879.290000000001
30
0.0
0
ENDSEC
0
EOF
