0
SECTION
2
HEADER
9
$ACADVER
1
AC1009
9
$EXTMIN
10
0.000
20
0.000
30
0.0
9
$EXTMAX
10
84100.000
20
59400.000
30
0.0
9
$LTSCALE
40
100.000
9
$PDMODE
70
0
9
$PDSIZE
40
40.0
0
ENDSEC
0
SECTION
2
TABLES
0
TABLE
2
LTYPE
70
9
0
LTYPE
5
1f4
2
CONTINUOUS
70
64
3
SolidLine
72
65
73
0
40
0.0
0
LTYPE
5
1f5
2
DOT
70
64
3
--  --  --  --  --  --  --  --     
72
65
73
2
40
3.000
49
1.000
49
-2.000
0
LTYPE
5
1f6
2
DASHED
70
64
3
----    ----    ----    ----    
72
65
73
2
40
5.000
49
2.000
49
-3.000
0
LTYPE
5
1f7
2
DASHED2
70
64
3
------  ------  ------  ------ 
72
65
73
2
40
10.000
49
4.000
49
-6.000
0
LTYPE
5
1f8
2
CENTER
70
64
3
----- - ----- - ----- - ----- - 
72
65
73
4
40
10.000
49
6.000
49
-3.000
49
1.000
49
-3.000
0
LTYPE
5
1f9
2
CENTER2
70
64
3
----------  --  ----------  -- 
72
65
73
4
40
17.000
49
12.000
49
-5.000
49
2.000
49
-5.000
0
LTYPE
5
1fa
2
PHANTOM
70
64
3
--- - - --- - - --- - - --- - -
72
65
73
6
40
13.000
49
5.000
49
-3.000
49
1.000
49
-3.000
49
1.000
49
-3.000
0
LTYPE
5
1fb
2
PHANTOM2
70
64
3
--------  -  -  --------  -  -
72
65
73
6
40
20.000
49
6.000
49
-5.000
49
2.000
49
-5.000
49
2.000
49
-5.000
0
LTYPE
5
1fc
2
HIDDEN
70
64
3
-   -   -   -   -   -   -   -   
72
65
73
2
40
3.000
49
0.500
49
-2.500
0
ENDTAB
0
TABLE
2
STYLE
70
1
0
STYLE
5
1fd
100
AcDbSymbolTableRecord
100
AcDbTextStyleTableRecord
2
STANDARD
70
0
40
0.0
41
1.0
50
0.0
71
0
42
0.0
3
txt.shx
4
extfont.shx
0
STYLE
5
1fe
100
AcDbSymbolTableRecord
100
AcDbTextStyleTableRecord
2
TATEGAKI
70
4
40
0.0
41
1.0
50
0.0
71
0
42
0.0
3
txt.shx
4
extfont.shx
0
STYLE
5
1ff
100
AcDbSymbolTableRecord
100
AcDbTextStyleTableRecord
2
DIM
70
0
40
0.0
41
0.75
50
0.0
71
0
42
0.0
3
txt.shx
4
extfont.shx
0
STYLE
5
200
100
AcDbSymbolTableRecord
100
AcDbTextStyleTableRecord
2
_Gothic_
70
0
40
0.0
41
1.0
50
0.0
71
0
42
0.0
3
MS Gothic
4

0
STYLE
5
201
100
AcDbSymbolTableRecord
100
AcDbTextStyleTableRecord
2
_TateGothic_
70
4
40
0.0
41
1.0
50
0.0
71
0
42
0.0
3
@MS Gothic
4

0
ENDTAB
0
TABLE
2
LAYER
5
403
100
AcDbSymbolTable
70
10
0
LAYER
5
404
100
AcDbSymbolTableRecord
100
AcDbLayerTableRecord
2
1-0
70
0
62
7
6
CONTINUOUS
0
LAYER
5
405
100
AcDbSymbolTableRecord
100
AcDbLayerTableRecord
2
2-0
70
0
62
-7
6
CONTINUOUS
0
ENDTAB
0
ENDSEC
0
SECTION
2
ENTITIES
0
LINE
5
406
100
AcDbEntity
8
1-0
6
CONTINUOUS
62
3
100
AcDbLine
10
72382.619999999995
20
24920.520000000000
30
0.0
11
74541.610000000001
21
24539.540000000001
31
0.0
0
LINE
5
407
100
AcDbEntity
8
1-0
6
CONTINUOUS
62
4
100
AcDbLine
10
54198.070000000000
20
14550.070000000000
30
0.0
11
54110.680000000000
21
14416.059999999999
31
0.0
0
LINE
5
408
100
AcDbEntity
8
1-0
6
CONTINUOUS
62
4
100
AcDbLine
10
52913.930000000000
20
12668.469999999999
30
0.0
11
52848.120000000003
21
12568.129999999999
31
0.0
0
LINE
5
409
100
AcDbEntity
8
1-0
6
CONTINUOUS
62
3
100
AcDbLine
10
73525.619999999995
20
24158.529999999999
30
0.0
11
74541.610000000001
21
24539.540000000001
31
0.0
0
LINE
5
40a
100
AcDbEntity
8
1-0
6
CONTINUOUS
62
4
100
AcDbLine
10
70375.139999999999
20
31884.540000000001
30
0.0
11
70707.020000000004
21
30983.720000000001
31
0.0
0
LINE
5
40b
100
AcDbEntity
8
1-0
6
CONTINUOUS
62
4
100
AcDbLine
10
63836.410000000003
20
23700.889999999999
30
0.0
11
64074.110000000001
21
23193.830000000002
31
0.0
0
LINE
5
40c
100
AcDbEntity
8
1-0
6
CONTINUOUS
62
4
100
AcDbLine
10
55004.320000000000
20
15713.090000000000
30
0.0
11
54895.070000000000
21
15545.580000000000
31
0.0
0
LINE
5
40d
100
AcDbEntity
8
1-0
6
CONTINUOUS
62
4
100
AcDbLine
10
53424.610000000001
20
13447.190000000001
30
0.0
11
53625.290000000001
21
13315.570000000000
31
0.0
0
LINE
5
40e
100
AcDbEntity
8
1-0
6
CONTINUOUS
62
4
100
AcDbLine
10
52244.160000000003
20
11756.700000000001
30
0.0
11
52046.739999999998
21
11455.639999999999
31
0.0
0
LINE
5
40f
100
AcDbEntity
8
1-0
6
CONTINUOUS
62
4
100
AcDbLine
10
64157.309999999998
20
24005.910000000000
30
0.0
11
63396.720000000001
21
23649.369999999999
31
0.0
0
LINE
5
410
100
AcDbEntity
8
1-0
6
CONTINUOUS
62
4
100
AcDbLine
10
68797.009999999995
20
24640.520000000000
30
0.0
11
68517.009999999995
21
24640.520000000000
31
0.0
0
LINE
5
411
100
AcDbEntity
8
1-0
6
CONTINUOUS
62
4
100
AcDbLine
10
70635.889999999999
20
31639.570000000000
30
0.0
11
70746.529999999999
21
31339.310000000001
31
0.0
0
LINE
5
412
100
AcDbEntity
8
1-0
6
CONTINUOUS
62
3
100
AcDbLine
10
70858.630000000005
20
35715.559999999998
30
0.0
11
70858.630000000005
21
33175.559999999998
31
0.0
0
LINE
5
413
100
AcDbEntity
8
1-0
6
CONTINUOUS
62
3
100
AcDbLine
10
78031.089999999997
20
23764.090000000000
30
0.0
11
80317.800000000003
21
22462.240000000002
31
0.0
0
LINE
5
414
100
AcDbEntity
8
1-0
6
CONTINUOUS
62
4
100
AcDbLine
10
71256.089999999997
20
29956.230000000000
30
0.0
11
71366.720000000001
21
29655.959999999999
31
0.0
0
LINE
5
415
100
AcDbEntity
8
1-0
6
CONTINUOUS
62
4
100
AcDbLine
10
53473.150000000001
20
13630.600000000000
30
0.0
11
53275.730000000003
21
13329.580000000000
31
0.0
0
LINE
5
416
100
AcDbEntity
8
1-0
6
CONTINUOUS
62
4
100
AcDbLine
10
54154.379999999997
20
14483.080000000000
30
0.0
11
54422.410000000003
21
14308.280000000001
31
0.0
0
LINE
5
417
100
AcDbEntity
8
1-0
6
CONTINUOUS
62
6
100
AcDbLine
10
2302.770000000000
20
15566.700000000001
30
0.0
11
4293.000000000000
21
18269.849999999999
31
0.0
0
LINE
5
418
100
AcDbEntity
8
1-0
6
CONTINUOUS
62
4
100
AcDbLine
10
56455.690000000002
20
18048.360000000001
30
0.0
11
55996.830000000002
21
17344.740000000002
31
0.0
0
LINE
5
419
100
AcDbEntity
8
1-0
6
CONTINUOUS
62
3
100
AcDbLine
10
84639.250000000000
20
28093.400000000001
30
0.0
11
82369.960000000006
21
26168.540000000001
31
0.0
0
LINE
5
41a
100
AcDbEntity
8
1-0
6
CONTINUOUS
62
3
100
AcDbLine
10
88056.020000000004
20
38895.129999999997
30
0.0
11
87802.009999999995
21
38641.129999999997
31
0.0
0
LINE
5
41b
100
AcDbEntity
8
1-0
6
CONTINUOUS
62
4
100
AcDbLine
10
76589.910000000003
20
50443.220000000001
30
0.0
11
75101.570000000007
21
49855.940000000002
31
0.0
0
LINE
5
41c
100
AcDbEntity
8
1-0
6
CONTINUOUS
62
4
100
AcDbLine
10
75992.559999999998
20
49777.500000000000
30
0.0
11
76270.009999999995
21
49074.379999999997
31
0.0
0
LINE
5
41d
100
AcDbEntity
8
1-0
6
CONTINUOUS
62
3
100
AcDbLine
10
82722.009999999995
20
21115.130000000001
30
0.0
11
83303.250000000000
21
21096.480000000000
31
0.0
0
LINE
5
41e
100
AcDbEntity
8
1-0
6
CONTINUOUS
62
3
100
AcDbLine
10
83303.250000000000
20
21096.480000000000
30
0.0
11
86749.860000000001
21
19094.470000000001
31
0.0
0
LINE
5
41f
100
AcDbEntity
8
1-0
6
CONTINUOUS
62
3
100
AcDbLine
10
87802.009999999995
20
38641.129999999997
30
0.0
11
86974.570000000007
21
37004.110000000001
31
0.0
0
LINE
5
420
100
AcDbEntity
8
1-0
6
CONTINUOUS
62
3
100
AcDbLine
10
80317.800000000003
20
22462.240000000002
30
0.0
11
82722.009999999995
21
21115.130000000001
31
0.0
0
LINE
5
421
100
AcDbEntity
8
1-0
6
CONTINUOUS
62
3
100
AcDbLine
10
87167.029999999999
20
31529.130000000001
30
0.0
11
86532.020000000004
21
29624.099999999999
31
0.0
0
LINE
5
422
100
AcDbEntity
8
1-0
6
CONTINUOUS
62
4
100
AcDbLine
10
72026.639999999999
20
44552.830000000002
30
0.0
11
71479.860000000001
21
43049.150000000001
31
0.0
0
LINE
5
423
100
AcDbEntity
8
1-0
6
CONTINUOUS
62
3
100
AcDbLine
10
78031.089999999997
20
23764.090000000000
30
0.0
11
80383.630000000005
21
21745.529999999999
31
0.0
0
LINE
5
424
100
AcDbEntity
8
1-0
6
CONTINUOUS
62
6
100
AcDbLine
10
2020.710000000000
20
9526.200000000001
30
0.0
11
2302.770000000000
21
15566.700000000001
31
0.0
0
LINE
5
425
100
AcDbEntity
8
1-0
6
DASHED
62
3
100
AcDbLine
10
49149.940000000002
20
11510.360000000001
30
0.0
11
51315.830000000002
21
10037.219999999999
31
0.0
0
LINE
5
426
100
AcDbEntity
8
1-0
6
CONTINUOUS
62
4
100
AcDbLine
10
70073.350000000006
20
33166.519999999997
30
0.0
11
70183.970000000001
21
32866.260000000002
31
0.0
0
LINE
5
427
100
AcDbEntity
8
1-0
6
CONTINUOUS
62
4
100
AcDbLine
10
70182.830000000002
20
37538.730000000003
30
0.0
11
70130.570000000007
21
36941.010000000002
31
0.0
0
LINE
5
428
100
AcDbEntity
8
1-0
6
CONTINUOUS
62
4
100
AcDbLine
10
70753.850000000006
20
40745.550000000003
30
0.0
11
70705.339999999997
21
40551.519999999997
31
0.0
0
LINE
5
429
100
AcDbEntity
8
1-0
6
CONTINUOUS
62
4
100
AcDbLine
10
81944.509999999995
20
51510.879999999997
30
0.0
11
81744.910000000003
21
51498.040000000001
31
0.0
0
LINE
5
42a
100
AcDbEntity
8
1-0
6
CONTINUOUS
62
3
100
AcDbLine
10
84627.009999999995
20
28354.139999999999
30
0.0
11
84937.509999999995
21
28334.599999999999
31
0.0
0
LINE
5
42b
100
AcDbEntity
8
1-0
6
CONTINUOUS
62
4
100
AcDbLine
10
79250.169999999998
20
51277.910000000003
30
0.0
11
78692.029999999999
21
51057.680000000000
31
0.0
0
LINE
5
42c
100
AcDbEntity
8
1-0
6
CONTINUOUS
62
4
100
AcDbLine
10
57577.379999999997
20
18856.220000000001
30
0.0
11
57365.800000000003
21
18672.810000000001
31
0.0
0
LINE
5
42d
100
AcDbEntity
8
1-0
6
CONTINUOUS
62
4
100
AcDbLine
10
61508.349999999999
20
22611.259999999998
30
0.0
11
60914.370000000003
21
22017.290000000001
31
0.0
0
LINE
5
42e
100
AcDbEntity
8
1-0
6
CONTINUOUS
62
4
100
AcDbLine
10
60433.150000000001
20
21516.470000000001
30
0.0
11
59798.370000000003
21
20966.330000000002
31
0.0
0
LINE
5
42f
100
AcDbEntity
8
1-0
6
CONTINUOUS
62
4
100
AcDbLine
10
70512.100000000006
20
24640.520000000000
30
0.0
11
70512.100000000006
21
24080.520000000000
31
0.0
0
LINE
5
430
100
AcDbEntity
8
1-0
6
CONTINUOUS
62
4
100
AcDbLine
10
56343.529999999999
20
17620.070000000000
30
0.0
11
56812.580000000002
21
17314.169999999998
31
0.0
0
LINE
5
431
100
AcDbEntity
8
1-0
6
CONTINUOUS
62
3
100
AcDbLine
10
86749.860000000001
20
19094.470000000001
30
0.0
11
87659.559999999998
21
18563.459999999999
31
0.0
0
LINE
5
432
100
AcDbEntity
8
1-0
6
CONTINUOUS
62
4
100
AcDbLine
10
54218.459999999999
20
14727.799999999999
30
0.0
11
53956.250000000000
21
14325.730000000000
31
0.0
0
LINE
5
433
100
AcDbEntity
8
1-0
6
CONTINUOUS
62
4
100
AcDbLine
10
58806.720000000001
20
19921.650000000001
30
0.0
11
59173.480000000003
21
19498.459999999999
31
0.0
0
LINE
5
434
100
AcDbEntity
8
1-0
6
CONTINUOUS
62
3
100
AcDbLine
10
49147.339999999997
20
11503.860000000001
30
0.0
11
47677.879999999997
21
9343.370000000001
31
0.0
0
LINE
5
435
100
AcDbEntity
8
1-0
6
CONTINUOUS
62
4
100
AcDbLine
10
67177.779999999999
20
24780.500000000000
30
0.0
11
66337.779999999999
21
24780.500000000000
31
0.0
0
LINE
5
436
100
AcDbEntity
8
1-0
6
CONTINUOUS
62
3
100
AcDbLine
10
53653.050000000003
20
23787.560000000001
30
0.0
11
49176.389999999999
21
20312.669999999998
31
0.0
0
LINE
5
437
100
AcDbEntity
8
1-0
6
CONTINUOUS
62
3
100
AcDbLine
10
69588.610000000001
20
35334.519999999997
30
0.0
11
69583.940000000002
21
33526.959999999999
31
0.0
0
LINE
5
438
100
AcDbEntity
8
1-0
6
CONTINUOUS
62
4
100
AcDbLine
10
62545.269999999997
20
23095.660000000000
30
0.0
11
62291.739999999998
21
22976.820000000000
31
0.0
0
LINE
5
439
100
AcDbEntity
8
1-0
6
CONTINUOUS
62
4
100
AcDbLine
10
70932.080000000002
20
24780.500000000000
30
0.0
11
70092.089999999997
21
24780.500000000000
31
0.0
0
LINE
5
43a
100
AcDbEntity
8
1-0
6
CONTINUOUS
62
4
100
AcDbLine
10
52881.019999999997
20
12618.299999999999
30
0.0
11
53081.709999999999
21
12486.680000000000
31
0.0
0
LINE
5
43b
100
AcDbEntity
8
1-0
6
CONTINUOUS
62
4
100
AcDbLine
10
65340.360000000001
20
24405.869999999999
30
0.0
11
65086.839999999997
21
24287.009999999998
31
0.0
0
LINE
5
43c
100
AcDbEntity
8
1-0
6
CONTINUOUS
62
4
100
AcDbLine
10
60313.250000000000
20
21227.279999999999
30
0.0
11
60101.639999999999
21
21043.900000000001
31
0.0
0
LINE
5
43d
100
AcDbEntity
8
1-0
6
CONTINUOUS
62
3
100
AcDbLine
10
54983.629999999997
20
14760.520000000000
30
0.0
11
56634.629999999997
21
16919.509999999998
31
0.0
0
LINE
5
43e
100
AcDbEntity
8
1-0
6
CONTINUOUS
62
4
100
AcDbLine
10
60207.440000000002
20
21135.610000000001
30
0.0
11
60574.199999999997
21
20712.419999999998
31
0.0
0
LINE
5
43f
100
AcDbEntity
8
1-0
6
CONTINUOUS
62
4
100
AcDbLine
10
65213.610000000001
20
24346.419999999998
30
0.0
11
65451.279999999999
21
23839.369999999999
31
0.0
0
LINE
5
440
100
AcDbEntity
8
1-0
6
CONTINUOUS
62
6
100
AcDbLine
10
2020.710000000000
20
9526.200000000001
30
0.0
11
2302.770000000000
21
15566.700000000001
31
0.0
0
LINE
5
441
100
AcDbEntity
8
1-0
6
CONTINUOUS
62
4
100
AcDbLine
10
62418.500000000000
20
23036.240000000002
30
0.0
11
62656.190000000002
21
22529.189999999999
31
0.0
0
LINE
5
442
100
AcDbEntity
8
1-0
6
CONTINUOUS
62
3
100
AcDbLine
10
49852.099999999999
20
7838.760000000000
30
0.0
11
50030.629999999997
21
7013.540000000000
31
0.0
0
LINE
5
443
100
AcDbEntity
8
1-0
6
CONTINUOUS
62
4
100
AcDbLine
10
61409.349999999999
20
22314.290000000001
30
0.0
11
61211.349999999999
21
22116.290000000001
31
0.0
0
LINE
5
444
100
AcDbEntity
8
1-0
6
CONTINUOUS
62
4
100
AcDbLine
10
52195.629999999997
20
11573.260000000000
30
0.0
11
52396.320000000000
21
11441.639999999999
31
0.0
0
LINE
5
445
100
AcDbEntity
8
1-0
6
CONTINUOUS
62
4
100
AcDbLine
10
69812.580000000002
20
33411.480000000003
30
0.0
11
70144.460000000006
21
32510.660000000000
31
0.0
0
LINE
5
446
100
AcDbEntity
8
1-0
6
CONTINUOUS
62
4
100
AcDbLine
10
69077.009999999995
20
24780.500000000000
30
0.0
11
68237.020000000004
21
24780.500000000000
31
0.0
0
LINE
5
447
100
AcDbEntity
8
1-0
6
CONTINUOUS
62
3
100
AcDbLine
10
78511.309999999998
20
25925.080000000002
30
0.0
11
78031.089999999997
21
23764.090000000000
31
0.0
0
LINE
5
448
100
AcDbEntity
8
1-0
6
CONTINUOUS
62
3
100
AcDbLine
10
72382.619999999995
20
29746.540000000001
30
0.0
11
75023.669999999998
21
26700.090000000000
31
0.0
0
LINE
5
449
100
AcDbEntity
8
1-0
6
CONTINUOUS
62
3
100
AcDbLine
10
69588.610000000001
20
33556.540000000001
30
0.0
11
71366.619999999995
21
28730.549999999999
31
0.0
0
LINE
5
44a
100
AcDbEntity
8
1-0
6
CONTINUOUS
62
3
100
AcDbLine
10
71366.619999999995
20
28730.549999999999
30
0.0
11
75023.669999999998
21
26700.090000000000
31
0.0
0
LINE
5
44b
100
AcDbEntity
8
1-0
6
CONTINUOUS
62
3
100
AcDbLine
10
50030.629999999997
20
7013.540000000000
30
0.0
11
49141.620000000003
21
4854.510000000000
31
0.0
0
LINE
5
44c
100
AcDbEntity
8
1-0
6
CONTINUOUS
62
4
100
AcDbLine
10
58912.519999999997
20
20013.320000000000
30
0.0
11
58700.930000000000
21
19829.939999999999
31
0.0
0
LINE
5
44d
100
AcDbEntity
8
1-0
6
CONTINUOUS
62
3
100
AcDbLine
10
54475.599999999999
20
15268.540000000001
30
0.0
11
51127.010000000002
21
10162.680000000000
31
0.0
0
LINE
5
44e
100
AcDbEntity
8
1-0
6
CONTINUOUS
62
4
100
AcDbLine
10
57697.279999999999
20
19145.369999999999
30
0.0
11
57062.510000000002
21
18595.230000000000
31
0.0
0
LINE
5
44f
100
AcDbEntity
8
1-0
6
CONTINUOUS
62
3
100
AcDbLine
10
56380.629999999997
20
18189.529999999999
30
0.0
11
60190.629999999997
21
21491.529999999999
31
0.0
0
LINE
5
450
100
AcDbEntity
8
1-0
6
CONTINUOUS
62
4
100
AcDbLine
10
66897.779999999999
20
24640.520000000000
30
0.0
11
66617.779999999999
21
24640.520000000000
31
0.0
0
LINE
5
451
100
AcDbEntity
8
1-0
6
CONTINUOUS
62
4
100
AcDbLine
10
65534.470000000001
20
24651.450000000001
30
0.0
11
64773.879999999997
21
24294.939999999999
31
0.0
0
LINE
5
452
100
AcDbEntity
8
1-0
6
CONTINUOUS
62
4
100
AcDbLine
10
71311.389999999999
20
29806.080000000002
30
0.0
11
71911.940000000002
21
30027.330000000002
31
0.0
0
LINE
5
453
100
AcDbEntity
8
1-0
6
CONTINUOUS
62
4
100
AcDbLine
10
72043.729999999996
20
44014.589999999997
30
0.0
11
71838.690000000002
21
43450.699999999997
31
0.0
0
LINE
5
454
100
AcDbEntity
8
1-0
6
CONTINUOUS
62
4
100
AcDbLine
10
70608.320000000007
20
40988.080000000002
30
0.0
11
70462.800000000003
21
40405.989999999998
31
0.0
0
LINE
5
455
100
AcDbEntity
8
1-0
6
CONTINUOUS
62
4
100
AcDbLine
10
82617.369999999995
20
51955.000000000000
30
0.0
11
81020.669999999998
21
51852.290000000001
31
0.0
0
LINE
5
456
100
AcDbEntity
8
1-0
6
CONTINUOUS
62
4
100
AcDbLine
10
79044.520000000004
20
50981.750000000000
30
0.0
11
79309.389999999999
21
50310.470000000001
31
0.0
0
LINE
5
457
100
AcDbEntity
8
1-0
6
CONTINUOUS
62
4
100
AcDbLine
10
73642.169999999998
20
47272.400000000001
30
0.0
11
74146.250000000000
21
47050.620000000003
31
0.0
0
LINE
5
458
100
AcDbEntity
8
1-0
6
CONTINUOUS
62
4
100
AcDbLine
10
73598.229999999996
20
48165.739999999998
30
0.0
11
72953.860000000001
21
46701.239999999998
31
0.0
0
LINE
5
459
100
AcDbEntity
8
1-0
6
CONTINUOUS
62
4
100
AcDbLine
10
79137.539999999994
20
51018.459999999999
30
0.0
11
78951.470000000001
21
50945.040000000001
31
0.0
0
LINE
5
45a
100
AcDbEntity
8
1-0
6
CONTINUOUS
62
4
100
AcDbLine
10
82131.240000000005
20
51723.309999999998
30
0.0
11
81532.479999999996
21
51684.800000000003
31
0.0
0
LINE
5
45b
100
AcDbEntity
8
1-0
6
CONTINUOUS
62
3
100
AcDbLine
10
86974.570000000007
20
37004.110000000001
30
0.0
11
87167.029999999999
21
31529.130000000001
31
0.0
0
LINE
5
45c
100
AcDbEntity
8
1-0
6
CONTINUOUS
62
4
100
AcDbLine
10
70355.940000000002
20
37222.440000000002
30
0.0
11
70953.660000000003
21
37170.199999999997
31
0.0
0
LINE
5
45d
100
AcDbEntity
8
1-0
6
CONTINUOUS
62
4
100
AcDbLine
10
76198.229999999996
20
50073.660000000003
30
0.0
11
75640.100000000006
21
49853.419999999998
31
0.0
0
LINE
5
45e
100
AcDbEntity
8
1-0
6
CONTINUOUS
62
4
100
AcDbLine
10
70729.600000000006
20
40648.529999999999
30
0.0
11
71311.679999999993
21
40503.010000000002
31
0.0
0
LINE
5
45f
100
AcDbEntity
8
1-0
6
CONTINUOUS
62
4
100
AcDbLine
10
81926.380000000005
20
26348.639999999999
30
0.0
11
82000.990000000005
21
26356.400000000001
31
0.0
0
LINE
5
460
100
AcDbEntity
8
1-0
6
CONTINUOUS
62
4
100
AcDbLine
10
70027.130000000005
20
38054.239999999998
30
0.0
11
69887.779999999999
21
36460.330000000002
31
0.0
0
LINE
5
461
100
AcDbEntity
8
1-0
6
CONTINUOUS
62
4
100
AcDbLine
10
72163.350000000006
20
43758.290000000001
30
0.0
11
72094.990000000005
21
43570.320000000000
31
0.0
0
LINE
5
462
100
AcDbEntity
8
1-0
6
CONTINUOUS
62
3
100
AcDbLine
10
70403.020000000004
20
41816.120000000003
30
0.0
11
71419.029999999999
21
43467.080000000002
31
0.0
0
LINE
5
463
100
AcDbEntity
8
1-0
6
CONTINUOUS
62
4
100
AcDbLine
10
70535.550000000003
20
41521.669999999998
30
0.0
11
70147.509999999995
21
39969.440000000002
31
0.0
0
LINE
5
464
100
AcDbEntity
8
1-0
6
CONTINUOUS
62
4
100
AcDbLine
10
72129.169999999998
20
43664.290000000001
30
0.0
11
72656.449999999997
21
43472.550000000003
31
0.0
0
LINE
5
465
100
AcDbEntity
8
1-0
6
CONTINUOUS
62
4
100
AcDbLine
10
70364.649999999994
20
37322.070000000000
30
0.0
11
70347.229999999996
21
37122.820000000000
31
0.0
0
LINE
5
466
100
AcDbEntity
8
1-0
6
CONTINUOUS
62
6
100
AcDbLine
10
2302.770000000000
20
15566.700000000001
30
0.0
11
4293.000000000000
21
18269.849999999999
31
0.0
0
LINE
5
467
100
AcDbEntity
8
1-0
6
CONTINUOUS
62
6
100
AcDbLine
10
4293.000000000000
20
18269.849999999999
30
0.0
11
6641.710000000000
21
18878.369999999999
31
0.0
0
LINE
5
468
100
AcDbEntity
8
1-0
6
CONTINUOUS
62
3
100
AcDbLine
10
78511.309999999998
20
25925.080000000002
30
0.0
11
80182.020000000004
21
26449.110000000001
31
0.0
0
LINE
5
469
100
AcDbEntity
8
1-0
6
CONTINUOUS
62
6
100
AcDbLine
10
6630.020000000000
20
18319.320000000000
30
0.0
11
6682.560000000000
21
16031.670000000000
31
0.0
0
LINE
5
46a
100
AcDbEntity
8
1-0
6
CONTINUOUS
62
3
100
AcDbLine
10
86532.020000000004
20
29624.099999999999
30
0.0
11
84639.250000000000
21
28093.400000000001
31
0.0
0
LINE
5
46b
100
AcDbEntity
8
1-0
6
CONTINUOUS
62
6
100
AcDbLine
10
4293.000000000000
20
18269.849999999999
30
0.0
11
4291.550000000000
21
18267.869999999999
31
0.0
0
LINE
5
46c
100
AcDbEntity
8
1-0
6
CONTINUOUS
62
6
100
AcDbLine
10
6641.710000000000
20
18878.369999999999
30
0.0
11
6630.020000000000
21
18319.320000000000
31
0.0
0
LINE
5
46d
100
AcDbEntity
8
1-0
6
CONTINUOUS
62
4
100
AcDbLine
10
76085.580000000002
20
49814.209999999999
30
0.0
11
75899.550000000003
21
49740.779999999999
31
0.0
0
LINE
5
46e
100
AcDbEntity
8
1-0
6
CONTINUOUS
62
4
100
AcDbLine
10
73682.460000000006
20
47363.940000000002
30
0.0
11
73601.889999999999
21
47180.870000000003
31
0.0
0
LINE
5
46f
100
AcDbEntity
8
1-0
6
CONTINUOUS
62
4
100
AcDbLine
10
87125.820000000007
20
18527.639999999999
30
0.0
11
86931.500000000000
21
18641.070000000000
31
0.0
0
LINE
5
470
100
AcDbEntity
8
1-0
6
CONTINUOUS
62
4
100
AcDbLine
10
84730.399999999994
20
19920.570000000000
30
0.0
11
84535.850000000006
21
20033.570000000000
31
0.0
0
LINE
5
471
100
AcDbEntity
8
1-0
6
CONTINUOUS
62
4
100
AcDbLine
10
73579.919999999998
20
47627.550000000003
30
0.0
11
73338.289999999994
21
47078.349999999999
31
0.0
0
LINE
5
472
100
AcDbEntity
8
1-0
6
CONTINUOUS
62
3
100
AcDbLine
10
74541.610000000001
20
24539.540000000001
30
0.0
11
78031.089999999997
21
23764.090000000000
31
0.0
0
LINE
5
473
100
AcDbEntity
8
1-0
6
CONTINUOUS
62
4
100
AcDbLine
10
86953.050000000003
20
18454.810000000001
30
0.0
11
86726.210000000006
21
18066.180000000000
31
0.0
0
LINE
5
474
100
AcDbEntity
8
1-0
6
CONTINUOUS
62
3
100
AcDbLine
10
78511.309999999998
20
25925.080000000002
30
0.0
11
80182.020000000004
21
25941.119999999999
31
0.0
0
LINE
5
475
100
AcDbEntity
8
1-0
6
CONTINUOUS
62
4
100
AcDbLine
10
86119.809999999998
20
19286.990000000002
30
0.0
11
85600.990000000005
21
19588.349999999999
31
0.0
0
LINE
5
476
100
AcDbEntity
8
1-0
6
CONTINUOUS
62
4
100
AcDbLine
10
85709.710000000006
20
19178.259999999998
30
0.0
11
85483.669999999998
21
18789.139999999999
31
0.0
0
LINE
5
477
100
AcDbEntity
8
1-0
6
CONTINUOUS
62
4
100
AcDbLine
10
87363.360000000001
20
18562.669999999998
30
0.0
11
86845.199999999997
21
18865.150000000001
31
0.0
0
LINE
5
478
100
AcDbEntity
8
1-0
6
CONTINUOUS
62
4
100
AcDbLine
10
82620.809999999998
20
21085.860000000001
30
0.0
11
82097.399999999994
21
21379.150000000001
31
0.0
0
LINE
5
479
100
AcDbEntity
8
1-0
6
CONTINUOUS
62
4
100
AcDbLine
10
81859.529999999999
20
26266.279999999999
30
0.0
11
82083.339999999997
21
26289.549999999999
31
0.0
0
LINE
5
47a
100
AcDbEntity
8
1-0
6
CONTINUOUS
62
4
100
AcDbLine
10
86985.440000000002
20
18435.900000000001
30
0.0
11
86920.660000000003
21
18473.730000000000
31
0.0
0
LINE
5
47b
100
AcDbEntity
8
1-0
6
CONTINUOUS
62
4
100
AcDbLine
10
83428.630000000005
20
20503.250000000000
30
0.0
11
83363.750000000000
21
20540.930000000000
31
0.0
0
LINE
5
47c
100
AcDbEntity
8
1-0
6
CONTINUOUS
62
4
100
AcDbLine
10
83396.179999999993
20
20522.099999999999
30
0.0
11
83170.149999999994
21
20132.980000000000
31
0.0
0
LINE
5
47d
100
AcDbEntity
8
1-0
6
CONTINUOUS
62
4
100
AcDbLine
10
80334.850000000006
20
22193.619999999999
30
0.0
11
80269.660000000003
21
22230.730000000000
31
0.0
0
LINE
5
47e
100
AcDbEntity
8
1-0
6
CONTINUOUS
62
4
100
AcDbLine
10
85882.339999999997
20
19251.450000000001
30
0.0
11
85687.759999999995
21
19364.459999999999
31
0.0
0
LINE
5
47f
100
AcDbEntity
8
1-0
6
CONTINUOUS
62
4
100
AcDbLine
10
81373.690000000002
20
21612.700000000001
30
0.0
11
81308.240000000005
21
21649.369999999999
31
0.0
0
LINE
5
480
100
AcDbEntity
8
1-0
6
CONTINUOUS
62
4
100
AcDbLine
10
85742.149999999994
20
19159.410000000000
30
0.0
11
85677.279999999999
21
19197.090000000000
31
0.0
0
LINE
5
481
100
AcDbEntity
8
1-0
6
CONTINUOUS
62
4
100
AcDbLine
10
82420.589999999997
20
21112.080000000002
30
0.0
11
82224.300000000003
21
21222.060000000001
31
0.0
0
LINE
5
482
100
AcDbEntity
8
1-0
6
CONTINUOUS
62
4
100
AcDbLine
10
80302.259999999995
20
22212.180000000000
30
0.0
11
80190.929999999993
21
22016.639999999999
31
0.0
0
LINE
5
483
100
AcDbEntity
8
1-0
6
CONTINUOUS
62
4
100
AcDbLine
10
83722.350000000006
20
27610.709999999999
30
0.0
11
83779.550000000003
21
27659.230000000000
31
0.0
0
LINE
5
484
100
AcDbEntity
8
1-0
6
CONTINUOUS
62
4
100
AcDbLine
10
79641.850000000006
20
51647.480000000003
30
0.0
11
78153.529999999999
21
51060.199999999997
31
0.0
0
LINE
5
485
100
AcDbEntity
8
1-0
6
CONTINUOUS
62
4
100
AcDbLine
10
83713.669999999998
20
27504.990000000002
30
0.0
11
83885.259999999995
21
27650.549999999999
31
0.0
0
LINE
5
486
100
AcDbEntity
8
1-0
6
CONTINUOUS
62
4
100
AcDbLine
10
81844.690000000002
20
51504.470000000001
30
0.0
11
81904.740000000005
21
50571.000000000000
31
0.0
0
LINE
5
487
100
AcDbEntity
8
1-0
6
CONTINUOUS
62
3
100
AcDbLine
10
82369.960000000006
20
26168.540000000001
30
0.0
11
80182.020000000004
21
25941.119999999999
31
0.0
0
LINE
5
488
100
AcDbEntity
8
1-0
6
CONTINUOUS
62
4
100
AcDbLine
10
81680.800000000003
20
26172.310000000001
30
0.0
11
82277.580000000002
21
26234.330000000002
31
0.0
0
LINE
5
489
100
AcDbEntity
8
1-0
6
CONTINUOUS
62
4
100
AcDbLine
10
80637.169999999998
20
22194.099999999999
30
0.0
11
80115.759999999995
21
22490.950000000001
31
0.0
0
LINE
5
48a
100
AcDbEntity
8
1-0
6
CONTINUOUS
62
4
100
AcDbLine
10
81475.770000000004
20
21641.470000000001
30
0.0
11
81279.479999999996
21
21751.450000000001
31
0.0
0
LINE
5
48b
100
AcDbEntity
8
1-0
6
CONTINUOUS
62
4
100
AcDbLine
10
81675.990000000005
20
21615.250000000000
30
0.0
11
81152.570000000007
21
21908.540000000001
31
0.0
0
LINE
5
48c
100
AcDbEntity
8
1-0
6
CONTINUOUS
62
4
100
AcDbLine
10
81340.949999999997
20
21631.029999999999
30
0.0
11
81230.970000000001
21
21434.740000000002
31
0.0
0
LINE
5
48d
100
AcDbEntity
8
1-0
6
CONTINUOUS
62
3
100
AcDbLine
10
75610.020000000004
20
48674.120000000003
30
0.0
11
74467.009999999995
21
47785.110000000001
31
0.0
0
LINE
5
48e
100
AcDbEntity
8
1-0
6
CONTINUOUS
62
4
100
AcDbLine
10
83750.960000000006
20
27634.970000000001
30
0.0
11
83605.399999999994
21
27806.549999999999
31
0.0
0
LINE
5
48f
100
AcDbEntity
8
1-0
6
CONTINUOUS
62
3
100
AcDbLine
10
71165.009999999995
20
40038.110000000001
30
0.0
11
70858.630000000005
21
35715.559999999998
31
0.0
0
LINE
5
490
100
AcDbEntity
8
1-0
6
CONTINUOUS
62
4
100
AcDbLine
10
80010.410000000003
20
26089.480000000000
30
0.0
11
80235.399999999994
21
26091.630000000001
31
0.0
0
LINE
5
491
100
AcDbEntity
8
1-0
6
CONTINUOUS
62
4
100
AcDbLine
10
84967.899999999994
20
19956.099999999999
30
0.0
11
84449.059999999998
21
20257.459999999999
31
0.0
0
LINE
5
492
100
AcDbEntity
8
1-0
6
CONTINUOUS
62
4
100
AcDbLine
10
82318.520000000004
20
21083.320000000000
30
0.0
11
82253.059999999998
21
21119.980000000000
31
0.0
0
LINE
5
493
100
AcDbEntity
8
1-0
6
CONTINUOUS
62
4
100
AcDbLine
10
84590.229999999996
20
19828.520000000000
30
0.0
11
84525.350000000006
21
19866.200000000001
31
0.0
0
LINE
5
494
100
AcDbEntity
8
1-0
6
CONTINUOUS
62
4
100
AcDbLine
10
84557.779999999999
20
19847.369999999999
30
0.0
11
84331.750000000000
21
19458.250000000000
31
0.0
0
LINE
5
495
100
AcDbEntity
8
1-0
6
CONTINUOUS
62
4
100
AcDbLine
10
83568.809999999998
20
20595.290000000001
30
0.0
11
83374.229999999996
21
20708.299999999999
31
0.0
0
LINE
5
496
100
AcDbEntity
8
1-0
6
CONTINUOUS
62
3
100
AcDbLine
10
70022.020000000004
20
40292.139999999999
30
0.0
11
70403.020000000004
21
41816.120000000003
31
0.0
0
LINE
5
497
100
AcDbEntity
8
1-0
6
CONTINUOUS
62
4
100
AcDbLine
10
80437.149999999994
20
22221.680000000000
30
0.0
11
80241.589999999997
21
22333.009999999998
31
0.0
0
LINE
5
498
100
AcDbEntity
8
1-0
6
DASHED2
62
3
100
AcDbLine
10
4547.050000000000
20
18335.680000000000
30
0.0
11
4712.570000000000
21
23876.119999999999
31
0.0
0
LINE
5
499
100
AcDbEntity
8
1-0
6
CONTINUOUS
62
4
100
AcDbLine
10
83806.279999999999
20
20630.830000000002
30
0.0
11
83287.460000000006
21
20932.189999999999
31
0.0
0
LINE
5
49a
100
AcDbEntity
8
1-0
6
CONTINUOUS
62
4
100
AcDbLine
10
82285.779999999999
20
21101.639999999999
30
0.0
11
82175.789999999994
21
20905.349999999999
31
0.0
0
LINE
5
49b
100
AcDbEntity
8
1-0
6
CONTINUOUS
62
4
100
AcDbLine
10
80084.679999999993
20
26165.189999999999
30
0.0
11
80159.679999999993
21
26165.910000000000
31
0.0
0
LINE
5
49c
100
AcDbEntity
8
1-0
6
CONTINUOUS
62
3
100
AcDbLine
10
74467.009999999995
20
47785.110000000001
30
0.0
11
71165.009999999995
21
40038.110000000001
31
0.0
0
LINE
5
49d
100
AcDbEntity
8
1-0
6
CONTINUOUS
62
3
100
AcDbLine
10
71927.020000000004
20
44864.089999999997
30
0.0
11
73324.009999999995
21
48039.110000000001
31
0.0
0
LINE
5
49e
100
AcDbEntity
8
1-0
6
CONTINUOUS
62
4
100
AcDbLine
10
79823.639999999999
20
26012.680000000000
30
0.0
11
80423.619999999995
21
26018.439999999999
31
0.0
0
LINE
5
49f
100
AcDbEntity
8
1-0
6
CONTINUOUS
62
4
100
AcDbLine
10
80122.179999999993
20
26165.560000000001
30
0.0
11
80120.029999999999
21
26390.549999999999
31
0.0
0
LINE
5
4a0
100
AcDbEntity
8
1-0
6
CONTINUOUS
62
3
100
AcDbLine
10
4848.310000000000
20
54516.190000000002
30
0.0
11
4937.900000000000
21
54157.779999999999
31
0.0
0
LINE
5
4a1
100
AcDbEntity
8
1-0
6
CONTINUOUS
62
3
100
AcDbLine
10
4431.130000000000
20
48991.809999999998
30
0.0
11
4668.030000000000
21
49386.760000000002
31
0.0
0
LINE
5
4a2
100
AcDbEntity
8
1-0
6
CONTINUOUS
62
4
100
AcDbLine
10
5027.510000000000
20
54516.190000000002
30
0.0
11
4937.900000000000
21
54157.779999999999
31
0.0
0
LINE
5
4a3
100
AcDbEntity
8
1-0
6
CONTINUOUS
62
4
100
AcDbLine
10
4304.250000000000
20
50132.239999999998
30
0.0
11
5571.560000000000
21
48864.940000000002
31
0.0
0
LINE
5
4a4
100
AcDbEntity
8
1-0
6
CONTINUOUS
62
3
100
AcDbLine
10
5444.690000000000
20
50005.360000000001
30
0.0
11
5207.780000000000
21
49610.410000000003
31
0.0
0
LINE
5
4a5
100
AcDbEntity
8
1-0
6
CONTINUOUS
62
4
100
AcDbLine
10
6281.900000000000
20
49498.589999999997
30
0.0
11
5064.600000000000
21
49625.290000000001
31
0.0
0
LINE
5
4a6
100
AcDbEntity
8
1-0
6
CONTINUOUS
62
4
100
AcDbLine
10
5444.690000000000
20
50005.360000000001
30
0.0
11
5059.230000000000
21
49774.010000000002
31
0.0
0
LINE
5
4a7
100
AcDbEntity
8
1-0
6
CONTINUOUS
62
4
100
AcDbLine
10
4937.900000000000
20
47706.589999999997
30
0.0
11
5064.600000000000
21
49371.889999999999
31
0.0
0
LINE
5
4a8
100
AcDbEntity
8
1-0
6
CONTINUOUS
62
3
100
AcDbLine
10
4758.700000000000
20
56308.190000000002
30
0.0
11
4758.700000000000
21
56845.790000000001
31
0.0
0
LINE
5
4a9
100
AcDbEntity
8
1-0
6
CONTINUOUS
62
4
100
AcDbLine
10
4937.900000000000
20
55770.589999999997
30
0.0
11
4937.900000000000
21
46810.589999999997
31
0.0
0
LINE
5
4aa
100
AcDbEntity
8
1-0
6
CONTINUOUS
62
3
100
AcDbLine
10
4431.130000000000
20
50005.360000000001
30
0.0
11
4816.580000000000
21
49774.010000000002
31
0.0
0
LINE
5
4ab
100
AcDbEntity
8
1-0
6
CONTINUOUS
62
4
100
AcDbLine
10
4431.130000000000
20
48991.809999999998
30
0.0
11
4822.320000000000
21
49226.379999999997
31
0.0
0
LINE
5
4ac
100
AcDbEntity
8
1-0
6
CONTINUOUS
62
4
100
AcDbLine
10
5571.560000000000
20
50132.239999999998
30
0.0
11
4304.250000000000
21
48864.930000000000
31
0.0
0
LINE
5
4ad
100
AcDbEntity
8
1-0
6
CONTINUOUS
62
3
100
AcDbLine
10
6281.900000000000
20
49498.589999999997
30
0.0
11
5064.600000000000
21
49371.889999999999
31
0.0
0
LINE
5
4ae
100
AcDbEntity
8
1-0
6
CONTINUOUS
62
3
100
AcDbLine
10
5117.100000000000
20
56308.180000000000
30
0.0
11
5117.110000000000
21
56845.790000000001
31
0.0
0
LINE
5
4af
100
AcDbEntity
8
1-0
6
CONTINUOUS
62
4
100
AcDbLine
10
4937.900000000000
20
55770.589999999997
30
0.0
11
4848.300000000000
21
54874.580000000002
31
0.0
0
LINE
5
4b0
100
AcDbEntity
8
1-0
6
CONTINUOUS
62
3
100
AcDbLine
10
4937.900000000000
20
47706.589999999997
30
0.0
11
4811.210000000000
21
49371.889999999999
31
0.0
0
LINE
5
4b1
100
AcDbEntity
8
1-0
6
CONTINUOUS
62
3
100
AcDbLine
10
4758.700000000000
20
56845.790000000001
30
0.0
11
5117.100000000000
21
56308.180000000000
31
0.0
0
LINE
5
4b2
100
AcDbEntity
8
1-0
6
CONTINUOUS
62
3
100
AcDbLine
10
5444.680000000000
20
48991.809999999998
30
0.0
11
5053.490000000000
21
49226.379999999997
31
0.0
0
LINE
5
4b3
100
AcDbEntity
8
1-0
6
CONTINUOUS
62
3
100
AcDbLine
10
51320.900000000001
20
10040.030000000001
30
0.0
11
49831.379999999997
21
7850.020000000000
31
0.0
0
LINE
5
4b4
100
AcDbEntity
8
1-0
6
CONTINUOUS
62
4
100
AcDbLine
10
71808.179999999993
20
28805.619999999999
30
0.0
11
72053.000000000000
21
28669.730000000000
31
0.0
0
LINE
5
4b5
100
AcDbEntity
8
1-0
6
CONTINUOUS
62
4
100
AcDbLine
10
52228.529999999999
20
11623.430000000000
30
0.0
11
52162.730000000003
21
11523.090000000000
31
0.0
0
LINE
5
4b6
100
AcDbEntity
8
1-0
6
CONTINUOUS
62
4
100
AcDbLine
10
57471.589999999997
20
18764.509999999998
30
0.0
11
57838.349999999999
21
18341.330000000002
31
0.0
0
LINE
5
4b7
100
AcDbEntity
8
1-0
6
CONTINUOUS
62
3
100
AcDbLine
10
49176.389999999999
20
20312.669999999998
30
0.0
11
45991.349999999999
21
24415.939999999999
31
0.0
0
LINE
5
4b8
100
AcDbEntity
8
1-0
6
CONTINUOUS
62
6
100
AcDbLine
10
6630.030000000000
20
18319.320000000000
30
0.0
11
6682.560000000000
21
16031.629999999999
31
0.0
0
LINE
5
4b9
100
AcDbEntity
8
1-0
6
CONTINUOUS
62
6
100
AcDbLine
10
4293.000000000000
20
18269.849999999999
30
0.0
11
4291.550000000000
21
18267.869999999999
31
0.0
0
LINE
5
4ba
100
AcDbEntity
8
1-0
6
CONTINUOUS
62
6
100
AcDbLine
10
6641.710000000000
20
18878.369999999999
30
0.0
11
6630.030000000000
21
18319.320000000000
31
0.0
0
LINE
5
4bb
100
AcDbEntity
8
1-0
6
CONTINUOUS
62
4
100
AcDbLine
10
70652.080000000002
20
24640.520000000000
30
0.0
11
70372.089999999997
21
24640.520000000000
31
0.0
0
LINE
5
4bc
100
AcDbEntity
8
1-0
6
CONTINUOUS
62
6
100
AcDbLine
10
49149.940000000002
20
11510.360000000001
30
0.0
11
49318.129999999997
21
11509.260000000000
31
0.0
0
LINE
5
4bd
100
AcDbEntity
8
1-0
6
CONTINUOUS
62
4
100
AcDbLine
10
3593.910000000000
20
49498.589999999997
30
0.0
11
4811.210000000000
21
49371.889999999999
31
0.0
0
LINE
5
4be
100
AcDbEntity
8
1-0
6
CONTINUOUS
62
3
100
AcDbLine
10
5027.500000000000
20
54874.580000000002
30
0.0
11
4848.310000000000
21
54516.190000000002
31
0.0
0
LINE
5
4bf
100
AcDbEntity
8
1-0
6
CONTINUOUS
62
3
100
AcDbLine
10
4937.900000000000
20
53082.589999999997
30
0.0
11
5064.600000000000
21
49625.290000000001
31
0.0
0
LINE
5
4c0
100
AcDbEntity
8
1-0
6
CONTINUOUS
62
4
100
AcDbLine
10
4937.900000000000
20
53082.589999999997
30
0.0
11
4811.210000000000
21
49625.290000000001
31
0.0
0
LINE
5
4c1
100
AcDbEntity
8
1-0
6
CONTINUOUS
62
4
100
AcDbLine
10
5444.680000000000
20
48991.809999999998
30
0.0
11
5207.780000000000
21
49386.769999999997
31
0.0
0
LINE
5
4c2
100
AcDbEntity
8
1-0
6
CONTINUOUS
62
3
100
AcDbLine
10
3593.910000000000
20
49498.589999999997
30
0.0
11
4811.210000000000
21
49625.290000000001
31
0.0
0
LINE
5
4c3
100
AcDbEntity
8
1-0
6
CONTINUOUS
62
4
100
AcDbLine
10
3145.910000000000
20
49498.589999999997
30
0.0
11
6729.910000000000
21
49498.589999999997
31
0.0
0
LINE
5
4c4
100
AcDbEntity
8
1-0
6
CONTINUOUS
62
3
100
AcDbLine
10
4937.900000000000
20
55770.589999999997
30
0.0
11
5027.500000000000
21
54874.580000000002
31
0.0
0
LINE
5
4c5
100
AcDbEntity
8
1-0
6
CONTINUOUS
62
4
100
AcDbLine
10
4431.130000000000
20
50005.360000000001
30
0.0
11
4668.020000000000
21
49610.410000000003
31
0.0
0
LINE
5
4c6
100
AcDbEntity
8
1-0
6
CONTINUOUS
62
4
100
AcDbLine
10
4848.300000000000
20
54874.580000000002
30
0.0
11
5027.510000000000
21
54516.190000000002
31
0.0
0
LINE
5
4c7
100
AcDbEntity
8
1-0
6
CONTINUOUS
62
4
100
AcDbLine
10
12790.280000000001
20
48278.139999999999
30
0.0
11
12790.280000000001
21
48378.139999999999
31
0.0
0
LINE
5
4c8
100
AcDbEntity
8
1-0
6
CONTINUOUS
62
4
100
AcDbLine
10
12790.280000000001
20
48338.139999999999
30
0.0
11
17790.270000000000
21
48338.139999999999
31
0.0
0
LINE
5
4c9
100
AcDbEntity
8
1-0
6
CONTINUOUS
62
4
100
AcDbLine
10
73900.220000000001
20
5373.710000000000
30
0.0
11
81181.470000000001
21
5373.710000000000
31
0.0
0
LINE
5
4ca
100
AcDbEntity
8
1-0
6
CONTINUOUS
62
4
100
AcDbLine
10
75452.289999999994
20
5936.210000000000
30
0.0
11
75452.289999999994
21
2571.620000000000
31
0.0
0
LINE
5
4cb
100
AcDbEntity
8
1-0
6
CONTINUOUS
62
4
100
AcDbLine
10
16790.270000000000
20
48278.139999999999
30
0.0
11
16790.270000000000
21
48378.139999999999
31
0.0
0
LINE
5
4cc
100
AcDbEntity
8
1-0
6
CONTINUOUS
62
4
100
AcDbLine
10
17790.270000000000
20
48278.139999999999
30
0.0
11
17790.270000000000
21
48378.139999999999
31
0.0
0
LINE
5
4cd
100
AcDbEntity
8
1-0
6
CONTINUOUS
62
4
100
AcDbLine
10
13190.280000000001
20
48278.139999999999
30
0.0
11
13190.280000000001
21
48336.260000000002
31
0.0
0
LINE
5
4ce
100
AcDbEntity
8
1-0
6
CONTINUOUS
62
4
100
AcDbLine
10
15790.270000000000
20
48278.139999999999
30
0.0
11
15790.270000000000
21
48378.139999999999
31
0.0
0
LINE
5
4cf
100
AcDbEntity
8
1-0
6
CONTINUOUS
62
4
100
AcDbLine
10
17290.270000000000
20
48278.139999999999
30
0.0
11
17290.270000000000
21
48358.860000000001
31
0.0
0
LINE
5
4d0
100
AcDbEntity
8
1-0
6
CONTINUOUS
62
4
100
AcDbLine
10
73900.220000000001
20
4259.120000000000
30
0.0
11
81181.470000000001
21
4259.120000000000
31
0.0
0
LINE
5
4d1
100
AcDbEntity
8
1-0
6
CONTINUOUS
62
4
100
AcDbLine
10
73900.220000000001
20
5936.210000000000
30
0.0
11
81181.470000000001
21
5936.210000000000
31
0.0
0
LINE
5
4d2
100
AcDbEntity
8
1-0
6
CONTINUOUS
62
4
100
AcDbLine
10
73900.220000000001
20
2571.620000000000
30
0.0
11
81181.470000000001
21
2571.620000000000
31
0.0
0
LINE
5
4d3
100
AcDbEntity
8
1-0
6
CONTINUOUS
62
4
100
AcDbLine
10
73900.220000000001
20
3696.630000000000
30
0.0
11
81181.470000000001
21
3696.630000000000
31
0.0
0
LINE
5
4d4
100
AcDbEntity
8
1-0
6
CONTINUOUS
62
4
100
AcDbLine
10
73900.220000000001
20
3134.130000000000
30
0.0
11
81181.470000000001
21
3134.130000000000
31
0.0
0
LINE
5
4d5
100
AcDbEntity
8
1-0
6
CONTINUOUS
62
4
100
AcDbLine
10
77410.630000000005
20
4811.210000000000
30
0.0
11
77410.630000000005
21
4259.120000000000
31
0.0
0
LINE
5
4d6
100
AcDbEntity
8
1-0
6
CONTINUOUS
62
4
100
AcDbLine
10
79296.059999999998
20
4811.210000000000
30
0.0
11
79296.059999999998
21
4259.120000000000
31
0.0
0
LINE
5
4d7
100
AcDbEntity
8
1-0
6
CONTINUOUS
62
4
100
AcDbLine
10
73900.220000000001
20
4811.210000000000
30
0.0
11
81181.470000000001
21
4811.210000000000
31
0.0
0
LINE
5
4d8
100
AcDbEntity
8
1-0
6
CONTINUOUS
62
4
100
AcDbLine
10
73900.220000000001
20
5936.210000000000
30
0.0
11
73900.220000000001
21
2571.620000000000
31
0.0
0
LINE
5
4d9
100
AcDbEntity
8
1-0
6
CONTINUOUS
62
4
100
AcDbLine
10
81181.470000000001
20
5936.210000000000
30
0.0
11
81181.470000000001
21
2571.620000000000
31
0.0
0
LINE
5
4da
100
AcDbEntity
8
1-0
6
CONTINUOUS
62
4
100
AcDbLine
10
15290.280000000001
20
48278.139999999999
30
0.0
11
15290.280000000001
21
48358.860000000001
31
0.0
0
LINE
5
4db
100
AcDbEntity
8
1-0
6
CONTINUOUS
62
4
100
AcDbLine
10
13290.270000000000
20
48278.139999999999
30
0.0
11
13290.270000000000
21
48358.860000000001
31
0.0
0
LINE
5
4dc
100
AcDbEntity
8
1-0
6
CONTINUOUS
62
4
100
AcDbLine
10
14290.280000000001
20
48278.139999999999
30
0.0
11
14290.280000000001
21
48358.860000000001
31
0.0
0
LINE
5
4dd
100
AcDbEntity
8
1-0
6
CONTINUOUS
62
4
100
AcDbLine
10
13690.270000000000
20
48278.139999999999
30
0.0
11
13690.270000000000
21
48339.489999999998
31
0.0
0
LINE
5
4de
100
AcDbEntity
8
1-0
6
CONTINUOUS
62
4
100
AcDbLine
10
15290.280000000001
20
48278.139999999999
30
0.0
11
15290.280000000001
21
48358.860000000001
31
0.0
0
LINE
5
4df
100
AcDbEntity
8
1-0
6
CONTINUOUS
62
4
100
AcDbLine
10
13590.280000000001
20
48278.139999999999
30
0.0
11
13590.280000000001
21
48337.879999999997
31
0.0
0
LINE
5
4e0
100
AcDbEntity
8
1-0
6
CONTINUOUS
62
4
100
AcDbLine
10
12990.270000000000
20
48278.139999999999
30
0.0
11
12990.270000000000
21
48336.260000000002
31
0.0
0
LINE
5
4e1
100
AcDbEntity
8
1-0
6
CONTINUOUS
62
4
100
AcDbLine
10
15290.280000000001
20
48278.139999999999
30
0.0
11
15290.280000000001
21
48358.860000000001
31
0.0
0
LINE
5
4e2
100
AcDbEntity
8
1-0
6
CONTINUOUS
62
4
100
AcDbLine
10
13490.280000000001
20
48278.139999999999
30
0.0
11
13490.280000000001
21
48336.260000000002
31
0.0
0
LINE
5
4e3
100
AcDbEntity
8
1-0
6
CONTINUOUS
62
4
100
AcDbLine
10
14790.280000000001
20
48278.139999999999
30
0.0
11
14790.280000000001
21
48378.139999999999
31
0.0
0
LINE
5
4e4
100
AcDbEntity
8
1-0
6
CONTINUOUS
62
4
100
AcDbLine
10
12790.280000000001
20
48278.139999999999
30
0.0
11
17790.270000000000
21
48278.139999999999
31
0.0
0
LINE
5
4e5
100
AcDbEntity
8
1-0
6
CONTINUOUS
62
4
100
AcDbLine
10
15290.280000000001
20
48278.139999999999
30
0.0
11
15290.280000000001
21
48358.860000000001
31
0.0
0
LINE
5
4e6
100
AcDbEntity
8
1-0
6
CONTINUOUS
62
4
100
AcDbLine
10
13790.270000000000
20
48278.139999999999
30
0.0
11
13790.270000000000
21
48378.139999999999
31
0.0
0
LINE
5
4e7
100
AcDbEntity
8
1-0
6
CONTINUOUS
62
4
100
AcDbLine
10
12890.280000000001
20
48278.139999999999
30
0.0
11
12890.280000000001
21
48336.260000000002
31
0.0
0
LINE
5
4e8
100
AcDbEntity
8
1-0
6
CONTINUOUS
62
4
100
AcDbLine
10
13090.280000000001
20
48278.139999999999
30
0.0
11
13090.280000000001
21
48337.879999999997
31
0.0
0
LINE
5
4e9
100
AcDbEntity
8
1-0
6
CONTINUOUS
62
4
100
AcDbLine
10
15790.270000000000
20
48278.139999999999
30
0.0
11
15790.270000000000
21
48378.139999999999
31
0.0
0
LINE
5
4ea
100
AcDbEntity
8
1-0
6
CONTINUOUS
62
4
100
AcDbLine
10
13390.280000000001
20
48278.139999999999
30
0.0
11
13390.280000000001
21
48334.650000000001
31
0.0
0
LINE
5
4eb
100
AcDbEntity
8
1-0
6
CONTINUOUS
62
4
100
AcDbLine
10
16290.280000000001
20
48278.139999999999
30
0.0
11
16290.280000000001
21
48358.860000000001
31
0.0
0
LINE
5
4ec
100
AcDbEntity
8
1-0
6
CONTINUOUS
62
4
100
AcDbLine
10
72698.839999999997
20
24780.500000000000
30
0.0
11
71858.830000000002
21
24780.500000000000
31
0.0
0
LINE
5
4ed
100
AcDbEntity
8
1-0
6
CONTINUOUS
62
3
100
AcDbLine
10
74541.610000000001
20
24539.540000000001
30
0.0
11
75022.059999999998
21
26701.490000000002
31
0.0
0
LINE
5
4ee
100
AcDbEntity
8
1-0
6
CONTINUOUS
62
3
100
AcDbLine
10
70858.630000000005
20
33175.559999999998
30
0.0
11
72382.619999999995
21
29746.540000000001
31
0.0
0
LINE
5
4ef
100
AcDbEntity
8
1-0
6
CONTINUOUS
62
4
100
AcDbLine
10
71495.440000000002
20
28819.139999999999
30
0.0
11
72229.839999999997
21
28411.389999999999
31
0.0
0
LINE
5
4f0
100
AcDbEntity
8
1-0
6
CONTINUOUS
62
6
100
AcDbLine
10
2020.710000000000
20
9526.200000000001
30
0.0
11
9391.160000000000
21
7284.750000000000
31
0.0
0
LINE
5
4f1
100
AcDbEntity
8
1-0
6
CONTINUOUS
62
4
100
AcDbLine
10
81183.750000000000
20
26271.439999999999
30
0.0
11
81258.350000000006
21
26279.209999999999
31
0.0
0
LINE
5
4f2
100
AcDbEntity
8
1-0
6
CONTINUOUS
62
4
100
AcDbLine
10
83141.679999999993
20
27118.169999999998
30
0.0
11
82996.130000000005
21
27289.750000000000
31
0.0
0
LINE
5
4f3
100
AcDbEntity
8
1-0
6
CONTINUOUS
62
4
100
AcDbLine
10
73952.399999999994
20
24582.570000000000
30
0.0
11
73597.860000000001
21
24645.160000000000
31
0.0
0
LINE
5
4f4
100
AcDbEntity
8
1-0
6
CONTINUOUS
62
4
100
AcDbLine
10
81116.899999999994
20
26189.090000000000
30
0.0
11
81340.710000000006
21
26212.360000000001
31
0.0
0
LINE
5
4f5
100
AcDbEntity
8
1-0
6
CONTINUOUS
62
3
100
AcDbLine
10
61968.620000000003
20
21872.520000000000
30
0.0
11
66159.619999999995
21
24031.509999999998
31
0.0
0
LINE
5
4f6
100
AcDbEntity
8
1-0
6
CONTINUOUS
62
4
100
AcDbLine
10
81963.679999999993
20
26352.529999999999
30
0.0
11
81940.410000000003
21
26576.310000000001
31
0.0
0
LINE
5
4f7
100
AcDbEntity
8
1-0
6
CONTINUOUS
62
3
100
AcDbLine
10
73324.009999999995
20
48039.110000000001
30
0.0
11
75102.009999999995
21
50071.129999999997
31
0.0
0
LINE
5
4f8
100
AcDbEntity
8
1-0
6
CONTINUOUS
62
3
100
AcDbLine
10
81254.889999999999
20
52067.769999999997
30
0.0
11
83539.729999999996
21
52214.739999999998
31
0.0
0
LINE
5
4f9
100
AcDbEntity
8
1-0
6
CONTINUOUS
62
3
100
AcDbLine
10
69588.610000000001
20
35334.519999999997
30
0.0
11
70022.020000000004
21
40292.139999999999
31
0.0
0
LINE
5
4fa
100
AcDbEntity
8
1-0
6
CONTINUOUS
62
4
100
AcDbLine
10
82389.240000000005
20
26283.240000000002
30
0.0
11
82846.809999999998
21
26671.360000000001
31
0.0
0
LINE
5
4fb
100
AcDbEntity
8
1-0
6
DASHED2
62
3
100
AcDbLine
10
3663.780000000000
20
17438.279999999999
30
0.0
11
3857.650000000000
21
23928.520000000000
31
0.0
0
LINE
5
4fc
100
AcDbEntity
8
1-0
6
CONTINUOUS
62
3
100
AcDbLine
10
53653.050000000003
20
23787.560000000001
30
0.0
11
50468.000000000000
21
27890.790000000001
31
0.0
0
LINE
5
4fd
100
AcDbEntity
8
1-0
6
CONTINUOUS
62
4
100
AcDbLine
10
83104.380000000005
20
26988.189999999999
30
0.0
11
83275.979999999996
21
27133.750000000000
31
0.0
0
LINE
5
4fe
100
AcDbEntity
8
1-0
6
CONTINUOUS
62
4
100
AcDbLine
10
81221.059999999998
20
26275.330000000002
30
0.0
11
81197.789999999994
21
26499.119999999999
31
0.0
0
LINE
5
4ff
100
AcDbEntity
8
1-0
6
CONTINUOUS
62
4
100
AcDbLine
10
55029.809999999998
20
15935.230000000000
30
0.0
11
54702.059999999998
21
15432.670000000000
31
0.0
0
LINE
5
500
100
AcDbEntity
8
1-0
6
CONTINUOUS
62
4
100
AcDbLine
10
73953.259999999995
20
27431.660000000000
30
0.0
11
74069.759999999995
21
27641.470000000001
31
0.0
0
LINE
5
501
100
AcDbEntity
8
1-0
6
CONTINUOUS
62
4
100
AcDbLine
10
55770.860000000001
20
17034.900000000001
30
0.0
11
55377.550000000003
21
16431.840000000000
31
0.0
0
LINE
5
502
100
AcDbEntity
8
1-0
6
CONTINUOUS
62
4
100
AcDbLine
10
61310.349999999999
20
22215.290000000001
30
0.0
11
61706.330000000002
21
21819.290000000001
31
0.0
0
LINE
5
503
100
AcDbEntity
8
1-0
6
CONTINUOUS
62
5
100
AcDbLine
10
31001.090000000000
20
16896.320000000000
30
0.0
11
31001.709999999999
21
16895.799999999999
31
0.0
0
LINE
5
504
100
AcDbEntity
8
1-0
6
CONTINUOUS
62
4
100
AcDbLine
10
68657.029999999999
20
24640.520000000000
30
0.0
11
68657.029999999999
21
24080.520000000000
31
0.0
0
LINE
5
505
100
AcDbEntity
8
1-0
6
CONTINUOUS
62
3
100
AcDbLine
10
56634.629999999997
20
16919.509999999998
30
0.0
11
61206.620000000003
21
21110.520000000000
31
0.0
0
LINE
5
506
100
AcDbEntity
8
1-0
6
CONTINUOUS
62
4
100
AcDbLine
10
59032.419999999998
20
20302.509999999998
30
0.0
11
58397.660000000003
21
19752.369999999999
31
0.0
0
LINE
5
507
100
AcDbEntity
8
1-0
6
CONTINUOUS
62
4
100
AcDbLine
10
52929.550000000003
20
12801.750000000000
30
0.0
11
52732.129999999997
21
12500.690000000001
31
0.0
0
LINE
5
508
100
AcDbEntity
8
1-0
6
CONTINUOUS
62
4
100
AcDbLine
10
53457.519999999997
20
13497.360000000001
30
0.0
11
53391.709999999999
21
13397.020000000000
31
0.0
0
LINE
5
509
100
AcDbEntity
8
1-0
6
CONTINUOUS
62
3
100
AcDbLine
10
54475.599999999999
20
15268.540000000001
30
0.0
11
56380.629999999997
21
18189.529999999999
31
0.0
0
LINE
5
50a
100
AcDbEntity
8
1-0
6
CONTINUOUS
62
3
100
AcDbLine
10
45712.629999999997
20
5235.520000000000
30
0.0
11
47667.410000000003
21
9324.690000000001
31
0.0
0
LINE
5
50b
100
AcDbEntity
8
1-0
6
CONTINUOUS
62
4
100
AcDbLine
10
83619.199999999997
20
27326.509999999998
30
0.0
11
84076.770000000004
21
27714.630000000001
31
0.0
0
LINE
5
50c
100
AcDbEntity
8
1-0
6
CONTINUOUS
62
3
100
AcDbLine
10
78511.309999999998
20
25925.080000000002
30
0.0
11
75023.669999999998
21
26700.090000000000
31
0.0
0
LINE
5
50d
100
AcDbEntity
8
1-0
6
DASHED
62
3
100
AcDbLine
10
47667.410000000003
20
9324.690000000001
30
0.0
11
49852.099999999999
21
7838.760000000000
31
0.0
0
LINE
5
50e
100
AcDbEntity
8
1-0
6
CONTINUOUS
62
4
100
AcDbLine
10
55674.730000000003
20
16667.799999999999
30
0.0
11
56076.769999999997
21
16405.599999999999
31
0.0
0
LINE
5
50f
100
AcDbEntity
8
1-0
6
CONTINUOUS
62
4
100
AcDbLine
10
72278.830000000002
20
24640.520000000000
30
0.0
11
72278.830000000002
21
24080.520000000000
31
0.0
0
LINE
5
510
100
AcDbEntity
8
1-0
6
CONTINUOUS
62
3
100
AcDbLine
10
61714.610000000001
20
23015.520000000000
30
0.0
11
65778.610000000001
21
24920.520000000000
31
0.0
0
LINE
5
511
100
AcDbEntity
8
1-0
6
CONTINUOUS
62
3
100
AcDbLine
10
66159.619999999995
20
24031.509999999998
30
0.0
11
73525.619999999995
21
24158.529999999999
31
0.0
0
LINE
5
512
100
AcDbEntity
8
1-0
6
CONTINUOUS
62
3
100
AcDbLine
10
79479.190000000002
20
51798.300000000003
30
0.0
11
81254.889999999999
21
52067.769999999997
31
0.0
0
LINE
5
513
100
AcDbEntity
8
1-0
6
CONTINUOUS
62
4
100
AcDbLine
10
73823.789999999994
20
24544.360000000001
30
0.0
11
73705.630000000005
21
24565.200000000001
31
0.0
0
LINE
5
514
100
AcDbEntity
8
1-0
6
CONTINUOUS
62
4
100
AcDbLine
10
62739.370000000003
20
23341.270000000000
30
0.0
11
61978.779999999999
21
22984.730000000000
31
0.0
0
LINE
5
515
100
AcDbEntity
8
1-0
6
CONTINUOUS
62
4
100
AcDbLine
10
70128.649999999994
20
33016.400000000001
30
0.0
11
70729.190000000002
21
33237.660000000003
31
0.0
0
LINE
5
516
100
AcDbEntity
8
1-0
6
CONTINUOUS
62
4
100
AcDbLine
10
56420.000000000000
20
17737.349999999999
30
0.0
11
56267.040000000001
21
17502.799999999999
31
0.0
0
LINE
5
517
100
AcDbEntity
8
1-0
6
CONTINUOUS
62
4
100
AcDbLine
10
69906.910000000003
20
34676.379999999997
30
0.0
11
70753.789999999994
21
34674.199999999997
31
0.0
0
LINE
5
518
100
AcDbEntity
8
1-0
6
CONTINUOUS
62
4
100
AcDbLine
10
69907.330000000002
20
34836.389999999999
30
0.0
11
69906.509999999995
21
34516.379999999997
31
0.0
0
LINE
5
519
100
AcDbEntity
8
1-0
6
CONTINUOUS
62
3
100
AcDbLine
10
50468.000000000000
20
27890.790000000001
30
0.0
11
45991.349999999999
21
24415.939999999999
31
0.0
0
LINE
5
51a
100
AcDbEntity
8
1-0
6
CONTINUOUS
62
4
100
AcDbLine
10
55740.279999999999
20
16768.330000000002
30
0.0
11
55609.180000000000
21
16567.310000000001
31
0.0
0
LINE
5
51b
100
AcDbEntity
8
1-0
6
CONTINUOUS
62
4
100
AcDbLine
10
63963.180000000000
20
23760.299999999999
30
0.0
11
63709.639999999999
21
23641.470000000001
31
0.0
0
LINE
5
51c
100
AcDbEntity
8
1-0
6
CONTINUOUS
62
3
100
AcDbLine
10
51320.900000000001
20
10040.030000000001
30
0.0
11
54983.629999999997
21
14760.520000000000
31
0.0
0
LINE
5
51d
100
AcDbEntity
8
1-0
6
CONTINUOUS
62
4
100
AcDbLine
10
69748.160000000003
20
35156.779999999999
30
0.0
11
69745.669999999998
21
34196.800000000003
31
0.0
0
LINE
5
51e
100
AcDbEntity
8
1-0
6
CONTINUOUS
62
4
100
AcDbLine
10
72418.839999999997
20
24640.520000000000
30
0.0
11
72138.820000000007
21
24640.520000000000
31
0.0
0
LINE
5
51f
100
AcDbEntity
8
1-0
6
CONTINUOUS
62
4
100
AcDbLine
10
54949.690000000002
20
15629.320000000000
30
0.0
11
55284.750000000000
21
15410.820000000000
31
0.0
0
LINE
5
520
100
AcDbEntity
8
1-0
6
CONTINUOUS
62
4
100
AcDbLine
10
73900.800000000003
20
27460.770000000000
30
0.0
11
74005.720000000001
21
27402.540000000001
31
0.0
0
LINE
5
521
100
AcDbEntity
8
1-0
6
CONTINUOUS
62
3
100
AcDbLine
10
60190.629999999997
20
21491.529999999999
30
0.0
11
61714.610000000001
21
23015.520000000000
31
0.0
0
LINE
5
522
100
AcDbEntity
8
1-0
6
CONTINUOUS
62
4
100
AcDbLine
10
72938.830000000002
20
28132.130000000001
30
0.0
11
73171.830000000002
21
28551.810000000001
31
0.0
0
LINE
5
523
100
AcDbEntity
8
1-0
6
CONTINUOUS
62
4
100
AcDbLine
10
70691.210000000006
20
31489.459999999999
30
0.0
11
71291.750000000000
21
31710.720000000001
31
0.0
0
LINE
5
524
100
AcDbEntity
8
1-0
6
CONTINUOUS
62
4
100
AcDbLine
10
71930.589999999997
20
28737.689999999999
30
0.0
11
72202.419999999998
21
29227.279999999999
31
0.0
0
LINE
5
525
100
AcDbEntity
8
1-0
6
CONTINUOUS
62
6
100
AcDbLine
10
4293.000000000000
20
18269.849999999999
30
0.0
11
6641.710000000000
21
18878.369999999999
31
0.0
0
LINE
5
526
100
AcDbEntity
8
1-0
6
CONTINUOUS
62
4
100
AcDbLine
10
82521.009999999995
20
26591.689999999999
30
0.0
11
82375.449999999997
21
26763.279999999999
31
0.0
0
LINE
5
527
100
AcDbEntity
8
1-0
6
CONTINUOUS
62
3
100
AcDbLine
10
79674.009999999995
20
50325.120000000003
30
0.0
11
75610.020000000004
21
48674.120000000003
31
0.0
0
LINE
5
528
100
AcDbEntity
8
1-0
6
CONTINUOUS
62
4
100
AcDbLine
10
83113.070000000007
20
27093.910000000000
30
0.0
11
83170.270000000004
21
27142.430000000000
31
0.0
0
LINE
5
529
100
AcDbEntity
8
1-0
6
CONTINUOUS
62
4
100
AcDbLine
10
83009.919999999998
20
26809.709999999999
30
0.0
11
83467.490000000005
21
27197.830000000002
31
0.0
0
LINE
5
52a
100
AcDbEntity
8
1-0
6
CONTINUOUS
62
4
100
AcDbLine
10
82483.720000000001
20
26461.720000000001
30
0.0
11
82655.320000000007
21
26607.270000000000
31
0.0
0
LINE
5
52b
100
AcDbEntity
8
1-0
6
CONTINUOUS
62
3
100
AcDbLine
10
75102.009999999995
20
50071.129999999997
30
0.0
11
79479.190000000002
21
51798.300000000003
31
0.0
0
LINE
5
52c
100
AcDbEntity
8
1-0
6
CONTINUOUS
62
3
100
AcDbLine
10
71419.029999999999
20
43467.080000000002
30
0.0
11
71927.020000000004
21
44864.089999999997
31
0.0
0
LINE
5
52d
100
AcDbEntity
8
1-0
6
CONTINUOUS
62
4
100
AcDbLine
10
80938.160000000003
20
26095.110000000001
30
0.0
11
81534.949999999997
21
26157.139999999999
31
0.0
0
LINE
5
52e
100
AcDbEntity
8
1-0
6
CONTINUOUS
62
4
100
AcDbLine
10
82492.399999999994
20
26567.430000000000
30
0.0
11
82549.610000000001
21
26615.950000000001
31
0.0
0
LINE
5
52f
100
AcDbEntity
8
1-0
6
CONTINUOUS
62
3
100
AcDbLine
10
84500.009999999995
20
50706.139999999999
30
0.0
11
81833.020000000004
21
50452.110000000001
31
0.0
0
LINE
5
530
100
AcDbEntity
8
1-0
6
CONTINUOUS
62
4
100
AcDbLine
10
70995.309999999998
20
30201.189999999999
30
0.0
11
71327.190000000002
21
29300.369999999999
31
0.0
0
LINE
5
531
100
AcDbEntity
8
1-0
6
CONTINUOUS
62
3
100
AcDbLine
10
65778.610000000001
20
24920.520000000000
30
0.0
11
72382.619999999995
21
24920.520000000000
31
0.0
0
LINE
5
532
100
AcDbEntity
8
1-0
6
CONTINUOUS
62
4
100
AcDbLine
10
73764.699999999997
20
24554.770000000000
30
0.0
11
73723.009999999995
21
24318.439999999999
31
0.0
0
LINE
5
533
100
AcDbEntity
8
1-0
6
CONTINUOUS
62
4
100
AcDbLine
10
73766.770000000004
20
27466.570000000000
30
0.0
11
74081.509999999995
21
27291.830000000002
31
0.0
0
LINE
5
534
100
AcDbEntity
8
1-0
6
CONTINUOUS
62
3
100
AcDbLine
10
61206.620000000003
20
21110.520000000000
30
0.0
11
61968.620000000003
21
21872.520000000000
31
0.0
0
LINE
5
535
100
AcDbEntity
8
1-0
6
CONTINUOUS
62
4
100
AcDbLine
10
72833.910000000003
20
28190.389999999999
30
0.0
11
73043.750000000000
21
28073.900000000001
31
0.0
0
LINE
5
536
100
AcDbEntity
8
1-0
6
CONTINUOUS
62
3
100
AcDbLine
10
81833.020000000004
20
50452.110000000001
30
0.0
11
79674.009999999995
21
50325.120000000003
31
0.0
0
LINE
5
537
100
AcDbEntity
8
1-0
6
CONTINUOUS
62
4
100
AcDbLine
10
66757.770000000004
20
24640.520000000000
30
0.0
11
66757.770000000004
21
24080.520000000000
31
0.0
0
LINE
5
538
100
AcDbEntity
8
1-0
6
CONTINUOUS
62
4
100
AcDbLine
10
72565.839999999997
20
28201.980000000000
30
0.0
11
73195.320000000007
21
27852.470000000001
31
0.0
0
LINE
5
539
100
AcDbEntity
8
1-0
6
CONTINUOUS
62
3
100
AcDbLine
10
2145.590000000000
20
13754.290000000001
30
0.0
11
2184.590000000000
21
13740.709999999999
31
0.0
0
LINE
5
53a
100
AcDbEntity
8
1-0
6
CONTINUOUS
62
3
100
AcDbLine
10
2184.590000000000
20
13740.709999999999
30
0.0
11
2223.590000000000
21
13727.309999999999
31
0.0
0
LINE
5
53b
100
AcDbEntity
8
1-0
6
CONTINUOUS
62
3
100
AcDbLine
10
2223.590000000000
20
13727.309999999999
30
0.0
11
2262.590000000000
21
13714.280000000001
31
0.0
0
LINE
5
53c
100
AcDbEntity
8
1-0
6
CONTINUOUS
62
3
100
AcDbLine
10
2262.590000000000
20
13714.280000000001
30
0.0
11
2301.590000000000
21
13701.830000000000
31
0.0
0
LINE
5
53d
100
AcDbEntity
8
1-0
6
CONTINUOUS
62
3
100
AcDbLine
10
2301.590000000000
20
13701.830000000000
30
0.0
11
2340.590000000000
21
13690.139999999999
31
0.0
0
LINE
5
53e
100
AcDbEntity
8
1-0
6
CONTINUOUS
62
3
100
AcDbLine
10
2340.590000000000
20
13690.139999999999
30
0.0
11
2379.630000000000
21
13679.370000000001
31
0.0
0
LINE
5
53f
100
AcDbEntity
8
1-0
6
CONTINUOUS
62
3
100
AcDbLine
10
2379.630000000000
20
13679.370000000001
30
0.0
11
2418.660000000000
21
13669.760000000000
31
0.0
0
LINE
5
540
100
AcDbEntity
8
1-0
6
CONTINUOUS
62
3
100
AcDbLine
10
2418.660000000000
20
13669.760000000000
30
0.0
11
2457.720000000000
21
13661.430000000000
31
0.0
0
LINE
5
541
100
AcDbEntity
8
1-0
6
CONTINUOUS
62
3
100
AcDbLine
10
2457.720000000000
20
13661.430000000000
30
0.0
11
2496.780000000000
21
13654.650000000000
31
0.0
0
LINE
5
542
100
AcDbEntity
8
1-0
6
CONTINUOUS
62
3
100
AcDbLine
10
2496.780000000000
20
13654.650000000000
30
0.0
11
2535.880000000000
21
13649.520000000000
31
0.0
0
LINE
5
543
100
AcDbEntity
8
1-0
6
CONTINUOUS
62
3
100
AcDbLine
10
2535.880000000000
20
13649.520000000000
30
0.0
11
2574.970000000000
21
13646.290000000001
31
0.0
0
LINE
5
544
100
AcDbEntity
8
1-0
6
CONTINUOUS
62
3
100
AcDbLine
10
2574.970000000000
20
13646.290000000001
30
0.0
11
2614.110000000000
21
13645.129999999999
31
0.0
0
LINE
5
545
100
AcDbEntity
8
1-0
6
CONTINUOUS
62
3
100
AcDbLine
10
2614.110000000000
20
13645.129999999999
30
0.0
11
2653.280000000000
21
13646.230000000000
31
0.0
0
LINE
5
546
100
AcDbEntity
8
1-0
6
CONTINUOUS
62
3
100
AcDbLine
10
2653.280000000000
20
13646.230000000000
30
0.0
11
2692.460000000000
21
13649.459999999999
31
0.0
0
LINE
5
547
100
AcDbEntity
8
1-0
6
CONTINUOUS
62
3
100
AcDbLine
10
2692.460000000000
20
13649.459999999999
30
0.0
11
2731.680000000000
21
13654.590000000000
31
0.0
0
LINE
5
548
100
AcDbEntity
8
1-0
6
CONTINUOUS
62
3
100
AcDbLine
10
2731.680000000000
20
13654.590000000000
30
0.0
11
2770.920000000000
21
13661.150000000000
31
0.0
0
LINE
5
549
100
AcDbEntity
8
1-0
6
CONTINUOUS
62
3
100
AcDbLine
10
2770.920000000000
20
13661.150000000000
30
0.0
11
2810.230000000000
21
13668.840000000000
31
0.0
0
LINE
5
54a
100
AcDbEntity
8
1-0
6
CONTINUOUS
62
3
100
AcDbLine
10
2810.230000000000
20
13668.840000000000
30
0.0
11
2849.580000000000
21
13677.290000000001
31
0.0
0
LINE
5
54b
100
AcDbEntity
8
1-0
6
CONTINUOUS
62
3
100
AcDbLine
10
2849.580000000000
20
13677.290000000001
30
0.0
11
2889.000000000000
21
13686.139999999999
31
0.0
0
LINE
5
54c
100
AcDbEntity
8
1-0
6
CONTINUOUS
62
3
100
AcDbLine
10
2889.000000000000
20
13686.139999999999
30
0.0
11
2928.450000000000
21
13694.990000000000
31
0.0
0
LINE
5
54d
100
AcDbEntity
8
1-0
6
CONTINUOUS
62
3
100
AcDbLine
10
2928.450000000000
20
13694.990000000000
30
0.0
11
2967.990000000000
21
13703.540000000001
31
0.0
0
LINE
5
54e
100
AcDbEntity
8
1-0
6
CONTINUOUS
62
3
100
AcDbLine
10
2967.990000000000
20
13703.540000000001
30
0.0
11
3007.590000000000
21
13711.379999999999
31
0.0
0
LINE
5
54f
100
AcDbEntity
8
1-0
6
CONTINUOUS
62
3
100
AcDbLine
10
3007.590000000000
20
13711.379999999999
30
0.0
11
3047.270000000000
21
13718.190000000001
31
0.0
0
LINE
5
550
100
AcDbEntity
8
1-0
6
CONTINUOUS
62
3
100
AcDbLine
10
3047.270000000000
20
13718.190000000001
30
0.0
11
3087.020000000000
21
13723.559999999999
31
0.0
0
LINE
5
551
100
AcDbEntity
8
1-0
6
CONTINUOUS
62
3
100
AcDbLine
10
3087.020000000000
20
13723.559999999999
30
0.0
11
3126.880000000000
21
13727.160000000000
31
0.0
0
LINE
5
552
100
AcDbEntity
8
1-0
6
CONTINUOUS
62
3
100
AcDbLine
10
3126.880000000000
20
13727.160000000000
30
0.0
11
3166.810000000000
21
13728.750000000000
31
0.0
0
LINE
5
553
100
AcDbEntity
8
1-0
6
CONTINUOUS
62
3
100
AcDbLine
10
3166.810000000000
20
13728.750000000000
30
0.0
11
3206.770000000000
21
13728.260000000000
31
0.0
0
LINE
5
554
100
AcDbEntity
8
1-0
6
CONTINUOUS
62
3
100
AcDbLine
10
3206.770000000000
20
13728.260000000000
30
0.0
11
3246.720000000000
21
13725.790000000001
31
0.0
0
LINE
5
555
100
AcDbEntity
8
1-0
6
CONTINUOUS
62
3
100
AcDbLine
10
3246.720000000000
20
13725.790000000001
30
0.0
11
3286.610000000000
21
13721.450000000001
31
0.0
0
LINE
5
556
100
AcDbEntity
8
1-0
6
CONTINUOUS
62
3
100
AcDbLine
10
3286.610000000000
20
13721.450000000001
30
0.0
11
3326.370000000000
21
13715.320000000000
31
0.0
0
LINE
5
557
100
AcDbEntity
8
1-0
6
CONTINUOUS
62
3
100
AcDbLine
10
3326.370000000000
20
13715.320000000000
30
0.0
11
3365.950000000000
21
13707.389999999999
31
0.0
0
LINE
5
558
100
AcDbEntity
8
1-0
6
CONTINUOUS
62
3
100
AcDbLine
10
3365.950000000000
20
13707.389999999999
30
0.0
11
3405.320000000000
21
13697.860000000001
31
0.0
0
LINE
5
559
100
AcDbEntity
8
1-0
6
CONTINUOUS
62
3
100
AcDbLine
10
3405.320000000000
20
13697.860000000001
30
0.0
11
3444.420000000000
21
13686.690000000001
31
0.0
0
LINE
5
55a
100
AcDbEntity
8
1-0
6
CONTINUOUS
62
3
100
AcDbLine
10
3444.420000000000
20
13686.690000000001
30
0.0
11
3483.160000000000
21
13674.059999999999
31
0.0
0
LINE
5
55b
100
AcDbEntity
8
1-0
6
CONTINUOUS
62
3
100
AcDbLine
10
3483.160000000000
20
13674.059999999999
30
0.0
11
3521.530000000000
21
13659.959999999999
31
0.0
0
LINE
5
55c
100
AcDbEntity
8
1-0
6
CONTINUOUS
62
3
100
AcDbLine
10
3521.530000000000
20
13659.959999999999
30
0.0
11
3559.470000000000
21
13644.520000000000
31
0.0
0
LINE
5
55d
100
AcDbEntity
8
1-0
6
CONTINUOUS
62
3
100
AcDbLine
10
3559.470000000000
20
13644.520000000000
30
0.0
11
3596.900000000000
21
13627.799999999999
31
0.0
0
LINE
5
55e
100
AcDbEntity
8
1-0
6
CONTINUOUS
62
3
100
AcDbLine
10
3596.900000000000
20
13627.799999999999
30
0.0
11
3633.790000000000
21
13609.850000000000
31
0.0
0
LINE
5
55f
100
AcDbEntity
8
1-0
6
CONTINUOUS
62
3
100
AcDbLine
10
3633.790000000000
20
13609.850000000000
30
0.0
11
3670.090000000000
21
13590.809999999999
31
0.0
0
LINE
5
560
100
AcDbEntity
8
1-0
6
CONTINUOUS
62
3
100
AcDbLine
10
3670.090000000000
20
13590.809999999999
30
0.0
11
3705.740000000000
21
13570.670000000000
31
0.0
0
LINE
5
561
100
AcDbEntity
8
1-0
6
CONTINUOUS
62
3
100
AcDbLine
10
3705.740000000000
20
13570.670000000000
30
0.0
11
3740.620000000000
21
13549.430000000000
31
0.0
0
LINE
5
562
100
AcDbEntity
8
1-0
6
CONTINUOUS
62
3
100
AcDbLine
10
3740.620000000000
20
13549.430000000000
30
0.0
11
3774.580000000000
21
13527.030000000001
31
0.0
0
LINE
5
563
100
AcDbEntity
8
1-0
6
CONTINUOUS
62
3
100
AcDbLine
10
3774.580000000000
20
13527.030000000001
30
0.0
11
3807.540000000000
21
13503.469999999999
31
0.0
0
LINE
5
564
100
AcDbEntity
8
1-0
6
CONTINUOUS
62
3
100
AcDbLine
10
3807.540000000000
20
13503.469999999999
30
0.0
11
3839.370000000000
21
13478.719999999999
31
0.0
0
LINE
5
565
100
AcDbEntity
8
1-0
6
CONTINUOUS
62
3
100
AcDbLine
10
3839.370000000000
20
13478.719999999999
30
0.0
11
3869.950000000000
21
13452.690000000001
31
0.0
0
LINE
5
566
100
AcDbEntity
8
1-0
6
CONTINUOUS
62
3
100
AcDbLine
10
3869.950000000000
20
13452.690000000001
30
0.0
11
3899.130000000000
21
13425.340000000000
31
0.0
0
LINE
5
567
100
AcDbEntity
8
1-0
6
CONTINUOUS
62
3
100
AcDbLine
10
3899.130000000000
20
13425.340000000000
30
0.0
11
3926.810000000000
21
13396.719999999999
31
0.0
0
LINE
5
568
100
AcDbEntity
8
1-0
6
CONTINUOUS
62
3
100
AcDbLine
10
3926.810000000000
20
13396.719999999999
30
0.0
11
3952.850000000000
21
13366.660000000000
31
0.0
0
LINE
5
569
100
AcDbEntity
8
1-0
6
CONTINUOUS
62
3
100
AcDbLine
10
3952.850000000000
20
13366.660000000000
30
0.0
11
3977.160000000000
21
13335.190000000001
31
0.0
0
LINE
5
56a
100
AcDbEntity
8
1-0
6
CONTINUOUS
62
3
100
AcDbLine
10
3977.160000000000
20
13335.190000000001
30
0.0
11
3999.650000000000
21
13302.320000000000
31
0.0
0
LINE
5
56b
100
AcDbEntity
8
1-0
6
CONTINUOUS
62
3
100
AcDbLine
10
3999.650000000000
20
13302.320000000000
30
0.0
11
4020.330000000000
21
13268.180000000000
31
0.0
0
LINE
5
56c
100
AcDbEntity
8
1-0
6
CONTINUOUS
62
3
100
AcDbLine
10
4020.330000000000
20
13268.180000000000
30
0.0
11
4039.230000000000
21
13232.840000000000
31
0.0
0
LINE
5
56d
100
AcDbEntity
8
1-0
6
CONTINUOUS
62
3
100
AcDbLine
10
4039.230000000000
20
13232.840000000000
30
0.0
11
4056.380000000000
21
13196.400000000000
31
0.0
0
LINE
5
56e
100
AcDbEntity
8
1-0
6
CONTINUOUS
62
3
100
AcDbLine
10
4056.380000000000
20
13196.400000000000
30
0.0
11
4071.780000000000
21
13159.049999999999
31
0.0
0
LINE
5
56f
100
AcDbEntity
8
1-0
6
CONTINUOUS
62
3
100
AcDbLine
10
4071.780000000000
20
13159.049999999999
30
0.0
11
4085.470000000000
21
13120.840000000000
31
0.0
0
LINE
5
570
100
AcDbEntity
8
1-0
6
CONTINUOUS
62
3
100
AcDbLine
10
4085.470000000000
20
13120.840000000000
30
0.0
11
4097.450000000000
21
13081.930000000000
31
0.0
0
LINE
5
571
100
AcDbEntity
8
1-0
6
CONTINUOUS
62
3
100
AcDbLine
10
4097.450000000000
20
13081.930000000000
30
0.0
11
4107.750000000000
21
13042.379999999999
31
0.0
0
LINE
5
572
100
AcDbEntity
8
1-0
6
CONTINUOUS
62
3
100
AcDbLine
10
4107.750000000000
20
13042.379999999999
30
0.0
11
4116.410000000000
21
13002.340000000000
31
0.0
0
LINE
5
573
100
AcDbEntity
8
1-0
6
CONTINUOUS
62
3
100
AcDbLine
10
4116.410000000000
20
13002.340000000000
30
0.0
11
4123.430000000000
21
12961.900000000000
31
0.0
0
LINE
5
574
100
AcDbEntity
8
1-0
6
CONTINUOUS
62
3
100
AcDbLine
10
4123.430000000000
20
12961.900000000000
30
0.0
11
4128.820000000000
21
12921.190000000001
31
0.0
0
LINE
5
575
100
AcDbEntity
8
1-0
6
CONTINUOUS
62
3
100
AcDbLine
10
4128.820000000000
20
12921.190000000001
30
0.0
11
4132.620000000000
21
12880.360000000001
31
0.0
0
LINE
5
576
100
AcDbEntity
8
1-0
6
CONTINUOUS
62
3
100
AcDbLine
10
4132.620000000000
20
12880.360000000001
30
0.0
11
4134.810000000000
21
12839.469999999999
31
0.0
0
LINE
5
577
100
AcDbEntity
8
1-0
6
CONTINUOUS
62
3
100
AcDbLine
10
4134.810000000000
20
12839.469999999999
30
0.0
11
4135.180000000000
21
12798.690000000001
31
0.0
0
LINE
5
578
100
AcDbEntity
8
1-0
6
CONTINUOUS
62
3
100
AcDbLine
10
4135.180000000000
20
12798.690000000001
30
0.0
11
4133.500000000000
21
12758.200000000001
31
0.0
0
LINE
5
579
100
AcDbEntity
8
1-0
6
CONTINUOUS
62
3
100
AcDbLine
10
4133.500000000000
20
12758.200000000001
30
0.0
11
4129.580000000000
21
12718.160000000000
31
0.0
0
LINE
5
57a
100
AcDbEntity
8
1-0
6
CONTINUOUS
62
3
100
AcDbLine
10
4129.580000000000
20
12718.160000000000
30
0.0
11
4123.190000000000
21
12678.760000000000
31
0.0
0
LINE
5
57b
100
AcDbEntity
8
1-0
6
CONTINUOUS
62
3
100
AcDbLine
10
4123.190000000000
20
12678.760000000000
30
0.0
11
4114.090000000000
21
12640.120000000001
31
0.0
0
LINE
5
57c
100
AcDbEntity
8
1-0
6
CONTINUOUS
62
3
100
AcDbLine
10
4114.090000000000
20
12640.120000000001
30
0.0
11
4102.070000000000
21
12602.400000000000
31
0.0
0
LINE
5
57d
100
AcDbEntity
8
1-0
6
CONTINUOUS
62
3
100
AcDbLine
10
4102.070000000000
20
12602.400000000000
30
0.0
11
4087.130000000000
21
12565.719999999999
31
0.0
0
LINE
5
57e
100
AcDbEntity
8
1-0
6
CONTINUOUS
62
3
100
AcDbLine
10
4087.130000000000
20
12565.719999999999
30
0.0
11
4069.630000000000
21
12530.020000000000
31
0.0
0
LINE
5
57f
100
AcDbEntity
8
1-0
6
CONTINUOUS
62
3
100
AcDbLine
10
4069.630000000000
20
12530.020000000000
30
0.0
11
4049.980000000000
21
12495.100000000000
31
0.0
0
LINE
5
580
100
AcDbEntity
8
1-0
6
CONTINUOUS
62
3
100
AcDbLine
10
4049.980000000000
20
12495.100000000000
30
0.0
11
4028.630000000000
21
12460.920000000000
31
0.0
0
LINE
5
581
100
AcDbEntity
8
1-0
6
CONTINUOUS
62
3
100
AcDbLine
10
4028.630000000000
20
12460.920000000000
30
0.0
11
4006.000000000000
21
12427.360000000001
31
0.0
0
LINE
5
582
100
AcDbEntity
8
1-0
6
CONTINUOUS
62
3
100
AcDbLine
10
4006.000000000000
20
12427.360000000001
30
0.0
11
3982.530000000000
21
12394.299999999999
31
0.0
0
LINE
5
583
100
AcDbEntity
8
1-0
6
CONTINUOUS
62
3
100
AcDbLine
10
3982.530000000000
20
12394.299999999999
30
0.0
11
3958.620000000000
21
12361.680000000000
31
0.0
0
LINE
5
584
100
AcDbEntity
8
1-0
6
CONTINUOUS
62
3
100
AcDbLine
10
3958.620000000000
20
12361.680000000000
30
0.0
11
3934.710000000000
21
12329.330000000000
31
0.0
0
LINE
5
585
100
AcDbEntity
8
1-0
6
CONTINUOUS
62
3
100
AcDbLine
10
3934.710000000000
20
12329.330000000000
30
0.0
11
3911.120000000000
21
12297.170000000000
31
0.0
0
LINE
5
586
100
AcDbEntity
8
1-0
6
CONTINUOUS
62
3
100
AcDbLine
10
3911.120000000000
20
12297.170000000000
30
0.0
11
3887.930000000000
21
12264.969999999999
31
0.0
0
LINE
5
587
100
AcDbEntity
8
1-0
6
CONTINUOUS
62
3
100
AcDbLine
10
3887.930000000000
20
12264.969999999999
30
0.0
11
3865.210000000000
21
12232.590000000000
31
0.0
0
LINE
5
588
100
AcDbEntity
8
1-0
6
CONTINUOUS
62
3
100
AcDbLine
10
3865.210000000000
20
12232.590000000000
30
0.0
11
3843.070000000000
21
12199.790000000001
31
0.0
0
LINE
5
589
100
AcDbEntity
8
1-0
6
CONTINUOUS
62
3
100
AcDbLine
10
3843.070000000000
20
12199.790000000001
30
0.0
11
3821.580000000000
21
12166.430000000000
31
0.0
0
LINE
5
58a
100
AcDbEntity
8
1-0
6
CONTINUOUS
62
3
100
AcDbLine
10
3821.580000000000
20
12166.430000000000
30
0.0
11
3800.810000000000
21
12132.280000000001
31
0.0
0
LINE
5
58b
100
AcDbEntity
8
1-0
6
CONTINUOUS
62
3
100
AcDbLine
10
3800.810000000000
20
12132.280000000001
30
0.0
11
3780.870000000000
21
12097.180000000000
31
0.0
0
LINE
5
58c
100
AcDbEntity
8
1-0
6
CONTINUOUS
62
3
100
AcDbLine
10
3780.870000000000
20
12097.180000000000
30
0.0
11
3761.800000000000
21
12060.930000000000
31
0.0
0
LINE
5
58d
100
AcDbEntity
8
1-0
6
CONTINUOUS
62
3
100
AcDbLine
10
3761.800000000000
20
12060.930000000000
30
0.0
11
3743.730000000000
21
12023.360000000001
31
0.0
0
LINE
5
58e
100
AcDbEntity
8
1-0
6
CONTINUOUS
62
3
100
AcDbLine
10
3743.730000000000
20
12023.360000000001
30
0.0
11
3726.860000000000
21
11984.480000000000
31
0.0
0
LINE
5
58f
100
AcDbEntity
8
1-0
6
CONTINUOUS
62
3
100
AcDbLine
10
3726.860000000000
20
11984.480000000000
30
0.0
11
3711.500000000000
21
11944.570000000000
31
0.0
0
LINE
5
590
100
AcDbEntity
8
1-0
6
CONTINUOUS
62
3
100
AcDbLine
10
3711.500000000000
20
11944.570000000000
30
0.0
11
3698.110000000000
21
11903.950000000001
31
0.0
0
LINE
5
591
100
AcDbEntity
8
1-0
6
CONTINUOUS
62
3
100
AcDbLine
10
3698.110000000000
20
11903.950000000001
30
0.0
11
3686.980000000000
21
11862.870000000001
31
0.0
0
LINE
5
592
100
AcDbEntity
8
1-0
6
CONTINUOUS
62
3
100
AcDbLine
10
3686.980000000000
20
11862.870000000001
30
0.0
11
3678.530000000000
21
11821.670000000000
31
0.0
0
LINE
5
593
100
AcDbEntity
8
1-0
6
CONTINUOUS
62
3
100
AcDbLine
10
3678.530000000000
20
11821.670000000000
30
0.0
11
3673.110000000000
21
11780.629999999999
31
0.0
0
LINE
5
594
100
AcDbEntity
8
1-0
6
CONTINUOUS
62
3
100
AcDbLine
10
3673.110000000000
20
11780.629999999999
30
0.0
11
3671.100000000000
21
11740.040000000001
31
0.0
0
LINE
5
595
100
AcDbEntity
8
1-0
6
CONTINUOUS
62
3
100
AcDbLine
10
3671.100000000000
20
11740.040000000001
30
0.0
11
3672.880000000000
21
11700.180000000000
31
0.0
0
LINE
5
596
100
AcDbEntity
8
1-0
6
CONTINUOUS
62
3
100
AcDbLine
10
3672.880000000000
20
11700.180000000000
30
0.0
11
3678.810000000000
21
11661.330000000000
31
0.0
0
LINE
5
597
100
AcDbEntity
8
1-0
6
CONTINUOUS
62
3
100
AcDbLine
10
3678.810000000000
20
11661.330000000000
30
0.0
11
3689.260000000000
21
11623.860000000001
31
0.0
0
LINE
5
598
100
AcDbEntity
8
1-0
6
CONTINUOUS
62
3
100
AcDbLine
10
3689.260000000000
20
11623.860000000001
30
0.0
11
3704.550000000000
21
11587.969999999999
31
0.0
0
LINE
5
599
100
AcDbEntity
8
1-0
6
CONTINUOUS
62
3
100
AcDbLine
10
3704.550000000000
20
11587.969999999999
30
0.0
11
3724.200000000000
21
11553.610000000001
31
0.0
0
LINE
5
59a
100
AcDbEntity
8
1-0
6
CONTINUOUS
62
3
100
AcDbLine
10
3724.200000000000
20
11553.610000000001
30
0.0
11
3746.660000000000
21
11520.190000000001
31
0.0
0
LINE
5
59b
100
AcDbEntity
8
1-0
6
CONTINUOUS
62
3
100
AcDbLine
10
3746.660000000000
20
11520.190000000001
30
0.0
11
3770.370000000000
21
11487.200000000001
31
0.0
0
LINE
5
59c
100
AcDbEntity
8
1-0
6
CONTINUOUS
62
3
100
AcDbLine
10
3770.370000000000
20
11487.200000000001
30
0.0
11
3793.830000000000
21
11454.059999999999
31
0.0
0
LINE
5
59d
100
AcDbEntity
8
1-0
6
CONTINUOUS
62
3
100
AcDbLine
10
3793.830000000000
20
11454.059999999999
30
0.0
11
3815.430000000000
21
11420.209999999999
31
0.0
0
LINE
5
59e
100
AcDbEntity
8
1-0
6
CONTINUOUS
62
3
100
AcDbLine
10
3815.430000000000
20
11420.209999999999
30
0.0
11
3833.640000000000
21
11385.059999999999
31
0.0
0
LINE
5
59f
100
AcDbEntity
8
1-0
6
CONTINUOUS
62
3
100
AcDbLine
10
3833.640000000000
20
11385.059999999999
30
0.0
11
3847.310000000000
21
11348.250000000000
31
0.0
0
LINE
5
5a0
100
AcDbEntity
8
1-0
6
CONTINUOUS
62
3
100
AcDbLine
10
3847.310000000000
20
11348.250000000000
30
0.0
11
3856.710000000000
21
11309.950000000001
31
0.0
0
LINE
5
5a1
100
AcDbEntity
8
1-0
6
CONTINUOUS
62
3
100
AcDbLine
10
3856.710000000000
20
11309.950000000001
30
0.0
11
3862.510000000000
21
11270.459999999999
31
0.0
0
LINE
5
5a2
100
AcDbEntity
8
1-0
6
CONTINUOUS
62
3
100
AcDbLine
10
3862.510000000000
20
11270.459999999999
30
0.0
11
3865.280000000000
21
11230.090000000000
31
0.0
0
LINE
5
5a3
100
AcDbEntity
8
1-0
6
CONTINUOUS
62
3
100
AcDbLine
10
3865.280000000000
20
11230.090000000000
30
0.0
11
3865.650000000000
21
11189.100000000000
31
0.0
0
LINE
5
5a4
100
AcDbEntity
8
1-0
6
CONTINUOUS
62
3
100
AcDbLine
10
3865.650000000000
20
11189.100000000000
30
0.0
11
3864.250000000000
21
11147.879999999999
31
0.0
0
LINE
5
5a5
100
AcDbEntity
8
1-0
6
CONTINUOUS
62
3
100
AcDbLine
10
3864.250000000000
20
11147.879999999999
30
0.0
11
3861.680000000000
21
11106.620000000001
31
0.0
0
LINE
5
5a6
100
AcDbEntity
8
1-0
6
CONTINUOUS
62
3
100
AcDbLine
10
3861.680000000000
20
11106.620000000001
30
0.0
11
3858.570000000000
21
11065.719999999999
31
0.0
0
LINE
5
5a7
100
AcDbEntity
8
1-0
6
CONTINUOUS
62
3
100
AcDbLine
10
3858.570000000000
20
11065.719999999999
30
0.0
11
3855.240000000000
21
11025.219999999999
31
0.0
0
LINE
5
5a8
100
AcDbEntity
8
1-0
6
CONTINUOUS
62
3
100
AcDbLine
10
3855.240000000000
20
11025.219999999999
30
0.0
11
3851.790000000000
21
10985.090000000000
31
0.0
0
LINE
5
5a9
100
AcDbEntity
8
1-0
6
CONTINUOUS
62
3
100
AcDbLine
10
3851.790000000000
20
10985.090000000000
30
0.0
11
3848.330000000000
21
10945.209999999999
31
0.0
0
LINE
5
5aa
100
AcDbEntity
8
1-0
6
CONTINUOUS
62
3
100
AcDbLine
10
3848.330000000000
20
10945.209999999999
30
0.0
11
3844.930000000000
21
10905.540000000001
31
0.0
0
LINE
5
5ab
100
AcDbEntity
8
1-0
6
CONTINUOUS
62
3
100
AcDbLine
10
3844.930000000000
20
10905.540000000001
30
0.0
11
3841.660000000000
21
10865.950000000001
31
0.0
0
LINE
5
5ac
100
AcDbEntity
8
1-0
6
CONTINUOUS
62
3
100
AcDbLine
10
3841.660000000000
20
10865.950000000001
30
0.0
11
3838.660000000000
21
10826.400000000000
31
0.0
0
LINE
5
5ad
100
AcDbEntity
8
1-0
6
CONTINUOUS
62
3
100
AcDbLine
10
3838.660000000000
20
10826.400000000000
30
0.0
11
3835.970000000000
21
10786.850000000000
31
0.0
0
LINE
5
5ae
100
AcDbEntity
8
1-0
6
CONTINUOUS
62
3
100
AcDbLine
10
3835.970000000000
20
10786.850000000000
30
0.0
11
3833.700000000000
21
10747.120000000001
31
0.0
0
LINE
5
5af
100
AcDbEntity
8
1-0
6
CONTINUOUS
62
3
100
AcDbLine
10
3833.700000000000
20
10747.120000000001
30
0.0
11
3831.930000000000
21
10707.200000000001
31
0.0
0
LINE
5
5b0
100
AcDbEntity
8
1-0
6
CONTINUOUS
62
3
100
AcDbLine
10
3831.930000000000
20
10707.200000000001
30
0.0
11
3830.770000000000
21
10667.100000000000
31
0.0
0
LINE
5
5b1
100
AcDbEntity
8
1-0
6
CONTINUOUS
62
3
100
AcDbLine
10
3830.770000000000
20
10667.100000000000
30
0.0
11
3830.400000000000
21
10626.910000000000
31
0.0
0
LINE
5
5b2
100
AcDbEntity
8
1-0
6
CONTINUOUS
62
3
100
AcDbLine
10
3830.400000000000
20
10626.910000000000
30
0.0
11
3830.920000000000
21
10586.660000000000
31
0.0
0
LINE
5
5b3
100
AcDbEntity
8
1-0
6
CONTINUOUS
62
3
100
AcDbLine
10
3830.920000000000
20
10586.660000000000
30
0.0
11
3832.510000000000
21
10546.430000000000
31
0.0
0
LINE
5
5b4
100
AcDbEntity
8
1-0
6
CONTINUOUS
62
3
100
AcDbLine
10
3832.510000000000
20
10546.430000000000
30
0.0
11
3835.280000000000
21
10506.299999999999
31
0.0
0
LINE
5
5b5
100
AcDbEntity
8
1-0
6
CONTINUOUS
62
3
100
AcDbLine
10
3835.280000000000
20
10506.299999999999
30
0.0
11
3839.400000000000
21
10466.360000000001
31
0.0
0
LINE
5
5b6
100
AcDbEntity
8
1-0
6
CONTINUOUS
62
3
100
AcDbLine
10
3839.400000000000
20
10466.360000000001
30
0.0
11
3845.020000000000
21
10426.650000000000
31
0.0
0
LINE
5
5b7
100
AcDbEntity
8
1-0
6
CONTINUOUS
62
3
100
AcDbLine
10
3845.020000000000
20
10426.650000000000
30
0.0
11
3852.250000000000
21
10387.260000000000
31
0.0
0
LINE
5
5b8
100
AcDbEntity
8
1-0
6
CONTINUOUS
62
3
100
AcDbLine
10
3852.250000000000
20
10387.260000000000
30
0.0
11
3861.220000000000
21
10348.280000000001
31
0.0
0
LINE
5
5b9
100
AcDbEntity
8
1-0
6
CONTINUOUS
62
3
100
AcDbLine
10
3861.220000000000
20
10348.280000000001
30
0.0
11
3872.030000000000
21
10309.709999999999
31
0.0
0
LINE
5
5ba
100
AcDbEntity
8
1-0
6
CONTINUOUS
62
3
100
AcDbLine
10
3872.030000000000
20
10309.709999999999
30
0.0
11
3884.300000000000
21
10271.500000000000
31
0.0
0
LINE
5
5bb
100
AcDbEntity
8
1-0
6
CONTINUOUS
62
3
100
AcDbLine
10
3884.300000000000
20
10271.500000000000
30
0.0
11
3897.660000000000
21
10233.570000000000
31
0.0
0
LINE
5
5bc
100
AcDbEntity
8
1-0
6
CONTINUOUS
62
3
100
AcDbLine
10
3897.660000000000
20
10233.570000000000
30
0.0
11
3911.750000000000
21
10195.850000000000
31
0.0
0
LINE
5
5bd
100
AcDbEntity
8
1-0
6
CONTINUOUS
62
3
100
AcDbLine
10
3911.750000000000
20
10195.850000000000
30
0.0
11
3926.200000000000
21
10158.250000000000
31
0.0
0
LINE
5
5be
100
AcDbEntity
8
1-0
6
CONTINUOUS
62
3
100
AcDbLine
10
3926.200000000000
20
10158.250000000000
30
0.0
11
3940.600000000000
21
10120.709999999999
31
0.0
0
LINE
5
5bf
100
AcDbEntity
8
1-0
6
CONTINUOUS
62
3
100
AcDbLine
10
3940.600000000000
20
10120.709999999999
30
0.0
11
3954.610000000000
21
10083.120000000001
31
0.0
0
LINE
5
5c0
100
AcDbEntity
8
1-0
6
CONTINUOUS
62
3
100
AcDbLine
10
3954.610000000000
20
10083.120000000001
30
0.0
11
3967.820000000000
21
10045.400000000000
31
0.0
0
LINE
5
5c1
100
AcDbEntity
8
1-0
6
CONTINUOUS
62
3
100
AcDbLine
10
3967.820000000000
20
10045.400000000000
30
0.0
11
3979.910000000000
21
10007.459999999999
31
0.0
0
LINE
5
5c2
100
AcDbEntity
8
1-0
6
CONTINUOUS
62
3
100
AcDbLine
10
3979.910000000000
20
10007.459999999999
30
0.0
11
3990.420000000000
21
9969.260000000000
31
0.0
0
LINE
5
5c3
100
AcDbEntity
8
1-0
6
CONTINUOUS
62
3
100
AcDbLine
10
3990.420000000000
20
9969.260000000000
30
0.0
11
3999.040000000000
21
9930.680000000000
31
0.0
0
LINE
5
5c4
100
AcDbEntity
8
1-0
6
CONTINUOUS
62
3
100
AcDbLine
10
3999.040000000000
20
9930.680000000000
30
0.0
11
4005.650000000000
21
9891.709999999999
31
0.0
0
LINE
5
5c5
100
AcDbEntity
8
1-0
6
CONTINUOUS
62
3
100
AcDbLine
10
4005.650000000000
20
9891.709999999999
30
0.0
11
4010.560000000000
21
9852.370000000001
31
0.0
0
LINE
5
5c6
100
AcDbEntity
8
1-0
6
CONTINUOUS
62
3
100
AcDbLine
10
4010.560000000000
20
9852.370000000001
30
0.0
11
4014.120000000000
21
9812.730000000000
31
0.0
0
LINE
5
5c7
100
AcDbEntity
8
1-0
6
CONTINUOUS
62
3
100
AcDbLine
10
4014.120000000000
20
9812.730000000000
30
0.0
11
4016.680000000000
21
9772.810000000000
31
0.0
0
LINE
5
5c8
100
AcDbEntity
8
1-0
6
CONTINUOUS
62
3
100
AcDbLine
10
4016.680000000000
20
9772.810000000000
30
0.0
11
4018.600000000000
21
9732.650000000000
31
0.0
0
LINE
5
5c9
100
AcDbEntity
8
1-0
6
CONTINUOUS
62
3
100
AcDbLine
10
4018.600000000000
20
9732.650000000000
30
0.0
11
4020.190000000000
21
9692.310000000000
31
0.0
0
LINE
5
5ca
100
AcDbEntity
8
1-0
6
CONTINUOUS
62
3
100
AcDbLine
10
4020.190000000000
20
9692.310000000000
30
0.0
11
4021.840000000000
21
9651.840000000000
31
0.0
0
LINE
5
5cb
100
AcDbEntity
8
1-0
6
CONTINUOUS
62
3
100
AcDbLine
10
4021.840000000000
20
9651.840000000000
30
0.0
11
4023.880000000000
21
9611.280000000001
31
0.0
0
LINE
5
5cc
100
AcDbEntity
8
1-0
6
CONTINUOUS
62
3
100
AcDbLine
10
4023.880000000000
20
9611.280000000001
30
0.0
11
4026.580000000000
21
9570.670000000000
31
0.0
0
LINE
5
5cd
100
AcDbEntity
8
1-0
6
CONTINUOUS
62
3
100
AcDbLine
10
4026.580000000000
20
9570.670000000000
30
0.0
11
4030.110000000000
21
9530.080000000000
31
0.0
0
LINE
5
5ce
100
AcDbEntity
8
1-0
6
CONTINUOUS
62
3
100
AcDbLine
10
4030.110000000000
20
9530.080000000000
30
0.0
11
4034.550000000000
21
9489.670000000000
31
0.0
0
LINE
5
5cf
100
AcDbEntity
8
1-0
6
CONTINUOUS
62
3
100
AcDbLine
10
4034.550000000000
20
9489.670000000000
30
0.0
11
4040.030000000000
21
9449.480000000000
31
0.0
0
LINE
5
5d0
100
AcDbEntity
8
1-0
6
CONTINUOUS
62
3
100
AcDbLine
10
4040.030000000000
20
9449.480000000000
30
0.0
11
4046.680000000000
21
9409.590000000000
31
0.0
0
LINE
5
5d1
100
AcDbEntity
8
1-0
6
CONTINUOUS
62
3
100
AcDbLine
10
4046.680000000000
20
9409.590000000000
30
0.0
11
4054.600000000000
21
9370.160000000000
31
0.0
0
LINE
5
5d2
100
AcDbEntity
8
1-0
6
CONTINUOUS
62
3
100
AcDbLine
10
4054.600000000000
20
9370.160000000000
30
0.0
11
4063.890000000000
21
9331.219999999999
31
0.0
0
LINE
5
5d3
100
AcDbEntity
8
1-0
6
CONTINUOUS
62
3
100
AcDbLine
10
4063.890000000000
20
9331.219999999999
30
0.0
11
4074.690000000000
21
9292.930000000000
31
0.0
0
LINE
5
5d4
100
AcDbEntity
8
1-0
6
CONTINUOUS
62
3
100
AcDbLine
10
4074.690000000000
20
9292.930000000000
30
0.0
11
4087.120000000000
21
9255.299999999999
31
0.0
0
LINE
5
5d5
100
AcDbEntity
8
1-0
6
CONTINUOUS
62
3
100
AcDbLine
10
4087.120000000000
20
9255.299999999999
30
0.0
11
4101.240000000000
21
9218.490000000000
31
0.0
0
LINE
5
5d6
100
AcDbEntity
8
1-0
6
CONTINUOUS
62
3
100
AcDbLine
10
4101.240000000000
20
9218.490000000000
30
0.0
11
4117.210000000000
21
9182.540000000001
31
0.0
0
LINE
5
5d7
100
AcDbEntity
8
1-0
6
CONTINUOUS
62
3
100
AcDbLine
10
4117.210000000000
20
9182.540000000001
30
0.0
11
4134.940000000000
21
9147.480000000000
31
0.0
0
LINE
5
5d8
100
AcDbEntity
8
1-0
6
CONTINUOUS
62
3
100
AcDbLine
10
4134.940000000000
20
9147.480000000000
30
0.0
11
4154.280000000000
21
9113.209999999999
31
0.0
0
LINE
5
5d9
100
AcDbEntity
8
1-0
6
CONTINUOUS
62
3
100
AcDbLine
10
4154.280000000000
20
9113.209999999999
30
0.0
11
4175.140000000000
21
9079.670000000000
31
0.0
0
LINE
5
5da
100
AcDbEntity
8
1-0
6
CONTINUOUS
62
3
100
AcDbLine
10
4175.140000000000
20
9079.670000000000
30
0.0
11
4197.340000000000
21
9046.799999999999
31
0.0
0
LINE
5
5db
100
AcDbEntity
8
1-0
6
CONTINUOUS
62
3
100
AcDbLine
10
4197.340000000000
20
9046.799999999999
30
0.0
11
4220.780000000000
21
9014.510000000000
31
0.0
0
LINE
5
5dc
100
AcDbEntity
8
1-0
6
CONTINUOUS
62
3
100
AcDbLine
10
4220.780000000000
20
9014.510000000000
30
0.0
11
4245.290000000000
21
8982.780000000001
31
0.0
0
LINE
5
5dd
100
AcDbEntity
8
1-0
6
CONTINUOUS
62
3
100
AcDbLine
10
4245.290000000000
20
8982.780000000001
30
0.0
11
4270.740000000000
21
8951.459999999999
31
0.0
0
LINE
5
5de
100
AcDbEntity
8
1-0
6
CONTINUOUS
62
3
100
AcDbLine
10
4270.740000000000
20
8951.459999999999
30
0.0
11
4296.980000000000
21
8920.580000000000
31
0.0
0
LINE
5
5df
100
AcDbEntity
8
1-0
6
CONTINUOUS
62
3
100
AcDbLine
10
4296.980000000000
20
8920.580000000000
30
0.0
11
4323.930000000000
21
8890.000000000000
31
0.0
0
LINE
5
5e0
100
AcDbEntity
8
1-0
6
CONTINUOUS
62
3
100
AcDbLine
10
4323.930000000000
20
8890.000000000000
30
0.0
11
4351.370000000000
21
8859.700000000001
31
0.0
0
LINE
5
5e1
100
AcDbEntity
8
1-0
6
CONTINUOUS
62
3
100
AcDbLine
10
4351.370000000000
20
8859.700000000001
30
0.0
11
4379.230000000000
21
8829.580000000000
31
0.0
0
LINE
5
5e2
100
AcDbEntity
8
1-0
6
CONTINUOUS
62
3
100
AcDbLine
10
4379.230000000000
20
8829.580000000000
30
0.0
11
4407.340000000000
21
8799.610000000001
31
0.0
0
LINE
5
5e3
100
AcDbEntity
8
1-0
6
CONTINUOUS
62
3
100
AcDbLine
10
4407.340000000000
20
8799.610000000001
30
0.0
11
4431.780000000000
21
8773.670000000000
31
0.0
0
LINE
5
5e4
100
AcDbEntity
8
1-0
6
CONTINUOUS
62
3
100
AcDbLine
10
5329.320000000000
20
18538.349999999999
30
0.0
11
5322.530000000000
21
18499.349999999999
31
0.0
0
LINE
5
5e5
100
AcDbEntity
8
1-0
6
CONTINUOUS
62
3
100
AcDbLine
10
5322.530000000000
20
18499.349999999999
30
0.0
11
5315.720000000000
21
18460.310000000001
31
0.0
0
LINE
5
5e6
100
AcDbEntity
8
1-0
6
CONTINUOUS
62
3
100
AcDbLine
10
5315.720000000000
20
18460.310000000001
30
0.0
11
5308.790000000000
21
18421.310000000001
31
0.0
0
LINE
5
5e7
100
AcDbEntity
8
1-0
6
CONTINUOUS
62
3
100
AcDbLine
10
5308.790000000000
20
18421.310000000001
30
0.0
11
5301.780000000000
21
18382.310000000001
31
0.0
0
LINE
5
5e8
100
AcDbEntity
8
1-0
6
CONTINUOUS
62
3
100
AcDbLine
10
5301.780000000000
20
18382.310000000001
30
0.0
11
5294.570000000000
21
18343.279999999999
31
0.0
0
LINE
5
5e9
100
AcDbEntity
8
1-0
6
CONTINUOUS
62
3
100
AcDbLine
10
5294.570000000000
20
18343.279999999999
30
0.0
11
5287.160000000000
21
18304.250000000000
31
0.0
0
LINE
5
5ea
100
AcDbEntity
8
1-0
6
CONTINUOUS
62
3
100
AcDbLine
10
5287.160000000000
20
18304.250000000000
30
0.0
11
5279.500000000000
21
18265.189999999999
31
0.0
0
LINE
5
5eb
100
AcDbEntity
8
1-0
6
CONTINUOUS
62
3
100
AcDbLine
10
5279.500000000000
20
18265.189999999999
30
0.0
11
5271.530000000000
21
18226.119999999999
31
0.0
0
LINE
5
5ec
100
AcDbEntity
8
1-0
6
CONTINUOUS
62
3
100
AcDbLine
10
5271.530000000000
20
18226.119999999999
30
0.0
11
5263.230000000000
21
18187.060000000001
31
0.0
0
LINE
5
5ed
100
AcDbEntity
8
1-0
6
CONTINUOUS
62
3
100
AcDbLine
10
5263.230000000000
20
18187.060000000001
30
0.0
11
5254.570000000000
21
18148.000000000000
31
0.0
0
LINE
5
5ee
100
AcDbEntity
8
1-0
6
CONTINUOUS
62
3
100
AcDbLine
10
5254.570000000000
20
18148.000000000000
30
0.0
11
5245.470000000000
21
18108.869999999999
31
0.0
0
LINE
5
5ef
100
AcDbEntity
8
1-0
6
CONTINUOUS
62
3
100
AcDbLine
10
5245.470000000000
20
18108.869999999999
30
0.0
11
5235.900000000000
21
18069.750000000000
31
0.0
0
LINE
5
5f0
100
AcDbEntity
8
1-0
6
CONTINUOUS
62
3
100
AcDbLine
10
5235.900000000000
20
18069.750000000000
30
0.0
11
5225.850000000000
21
18030.630000000001
31
0.0
0
LINE
5
5f1
100
AcDbEntity
8
1-0
6
CONTINUOUS
62
3
100
AcDbLine
10
5225.850000000000
20
18030.630000000001
30
0.0
11
5215.230000000000
21
17991.470000000001
31
0.0
0
LINE
5
5f2
100
AcDbEntity
8
1-0
6
CONTINUOUS
62
3
100
AcDbLine
10
5215.230000000000
20
17991.470000000001
30
0.0
11
5204.030000000000
21
17952.290000000001
31
0.0
0
LINE
5
5f3
100
AcDbEntity
8
1-0
6
CONTINUOUS
62
3
100
AcDbLine
10
5204.030000000000
20
17952.290000000001
30
0.0
11
5192.190000000000
21
17913.070000000000
31
0.0
0
LINE
5
5f4
100
AcDbEntity
8
1-0
6
CONTINUOUS
62
3
100
AcDbLine
10
5192.190000000000
20
17913.070000000000
30
0.0
11
5179.640000000000
21
17873.919999999998
31
0.0
0
LINE
5
5f5
100
AcDbEntity
8
1-0
6
CONTINUOUS
62
3
100
AcDbLine
10
5179.640000000000
20
17873.919999999998
30
0.0
11
5166.190000000000
21
17835.009999999998
31
0.0
0
LINE
5
5f6
100
AcDbEntity
8
1-0
6
CONTINUOUS
62
3
100
AcDbLine
10
5166.190000000000
20
17835.009999999998
30
0.0
11
5151.610000000000
21
17796.560000000001
31
0.0
0
LINE
5
5f7
100
AcDbEntity
8
1-0
6
CONTINUOUS
62
3
100
AcDbLine
10
5151.610000000000
20
17796.560000000001
30
0.0
11
5135.700000000000
21
17758.900000000001
31
0.0
0
LINE
5
5f8
100
AcDbEntity
8
1-0
6
CONTINUOUS
62
3
100
AcDbLine
10
5135.700000000000
20
17758.900000000001
30
0.0
11
5118.270000000000
21
17722.220000000001
31
0.0
0
LINE
5
5f9
100
AcDbEntity
8
1-0
6
CONTINUOUS
62
3
100
AcDbLine
10
5118.270000000000
20
17722.220000000001
30
0.0
11
5099.080000000000
21
17686.759999999998
31
0.0
0
LINE
5
5fa
100
AcDbEntity
8
1-0
6
CONTINUOUS
62
3
100
AcDbLine
10
5099.080000000000
20
17686.759999999998
30
0.0
11
5077.940000000000
21
17652.759999999998
31
0.0
0
LINE
5
5fb
100
AcDbEntity
8
1-0
6
CONTINUOUS
62
3
100
AcDbLine
10
5077.940000000000
20
17652.759999999998
30
0.0
11
5054.640000000000
21
17620.529999999999
31
0.0
0
LINE
5
5fc
100
AcDbEntity
8
1-0
6
CONTINUOUS
62
3
100
AcDbLine
10
5054.640000000000
20
17620.529999999999
30
0.0
11
5028.950000000000
21
17590.259999999998
31
0.0
0
LINE
5
5fd
100
AcDbEntity
8
1-0
6
CONTINUOUS
62
3
100
AcDbLine
10
5028.950000000000
20
17590.259999999998
30
0.0
11
5000.670000000000
21
17562.180000000000
31
0.0
0
LINE
5
5fe
100
AcDbEntity
8
1-0
6
CONTINUOUS
62
3
100
AcDbLine
10
5000.670000000000
20
17562.180000000000
30
0.0
11
4969.780000000000
21
17536.419999999998
31
0.0
0
LINE
5
5ff
100
AcDbEntity
8
1-0
6
CONTINUOUS
62
3
100
AcDbLine
10
4969.780000000000
20
17536.419999999998
30
0.0
11
4936.710000000000
21
17512.619999999999
31
0.0
0
LINE
5
600
100
AcDbEntity
8
1-0
6
CONTINUOUS
62
3
100
AcDbLine
10
4936.710000000000
20
17512.619999999999
30
0.0
11
4902.070000000000
21
17490.279999999999
31
0.0
0
LINE
5
601
100
AcDbEntity
8
1-0
6
CONTINUOUS
62
3
100
AcDbLine
10
4902.070000000000
20
17490.279999999999
30
0.0
11
4866.440000000000
21
17468.980000000000
31
0.0
0
LINE
5
602
100
AcDbEntity
8
1-0
6
CONTINUOUS
62
3
100
AcDbLine
10
4866.440000000000
20
17468.980000000000
30
0.0
11
4830.360000000000
21
17448.259999999998
31
0.0
0
LINE
5
603
100
AcDbEntity
8
1-0
6
CONTINUOUS
62
3
100
AcDbLine
10
4830.360000000000
20
17448.259999999998
30
0.0
11
4794.420000000000
21
17427.660000000000
31
0.0
0
LINE
5
604
100
AcDbEntity
8
1-0
6
CONTINUOUS
62
3
100
AcDbLine
10
4794.420000000000
20
17427.660000000000
30
0.0
11
4759.200000000000
21
17406.700000000001
31
0.0
0
LINE
5
605
100
AcDbEntity
8
1-0
6
CONTINUOUS
62
3
100
AcDbLine
10
4759.200000000000
20
17406.700000000001
30
0.0
11
4725.270000000000
21
17384.939999999999
31
0.0
0
LINE
5
606
100
AcDbEntity
8
1-0
6
CONTINUOUS
62
3
100
AcDbLine
10
4725.270000000000
20
17384.939999999999
30
0.0
11
4693.190000000000
21
17361.930000000000
31
0.0
0
LINE
5
607
100
AcDbEntity
8
1-0
6
CONTINUOUS
62
3
100
AcDbLine
10
4693.190000000000
20
17361.930000000000
30
0.0
11
4663.560000000000
21
17337.209999999999
31
0.0
0
LINE
5
608
100
AcDbEntity
8
1-0
6
CONTINUOUS
62
3
100
AcDbLine
10
4663.560000000000
20
17337.209999999999
30
0.0
11
4636.950000000000
21
17310.290000000001
31
0.0
0
LINE
5
609
100
AcDbEntity
8
1-0
6
CONTINUOUS
62
3
100
AcDbLine
10
4636.950000000000
20
17310.290000000001
30
0.0
11
4613.910000000000
21
17280.779999999999
31
0.0
0
LINE
5
60a
100
AcDbEntity
8
1-0
6
CONTINUOUS
62
3
100
AcDbLine
10
4613.910000000000
20
17280.779999999999
30
0.0
11
4594.580000000000
21
17248.520000000000
31
0.0
0
LINE
5
60b
100
AcDbEntity
8
1-0
6
CONTINUOUS
62
3
100
AcDbLine
10
4594.580000000000
20
17248.520000000000
30
0.0
11
4578.510000000000
21
17213.860000000001
31
0.0
0
LINE
5
60c
100
AcDbEntity
8
1-0
6
CONTINUOUS
62
3
100
AcDbLine
10
4578.510000000000
20
17213.860000000001
30
0.0
11
4565.230000000000
21
17177.110000000001
31
0.0
0
LINE
5
60d
100
AcDbEntity
8
1-0
6
CONTINUOUS
62
3
100
AcDbLine
10
4565.230000000000
20
17177.110000000001
30
0.0
11
4554.280000000000
21
17138.630000000001
31
0.0
0
LINE
5
60e
100
AcDbEntity
8
1-0
6
CONTINUOUS
62
3
100
AcDbLine
10
4554.280000000000
20
17138.630000000001
30
0.0
11
4545.120000000000
21
17098.799999999999
31
0.0
0
LINE
5
60f
100
AcDbEntity
8
1-0
6
CONTINUOUS
62
3
100
AcDbLine
10
4545.120000000000
20
17098.799999999999
30
0.0
11
4537.330000000000
21
17058.000000000000
31
0.0
0
LINE
5
610
100
AcDbEntity
8
1-0
6
CONTINUOUS
62
3
100
AcDbLine
10
4537.330000000000
20
17058.000000000000
30
0.0
11
4530.380000000000
21
17016.529999999999
31
0.0
0
LINE
5
611
100
AcDbEntity
8
1-0
6
CONTINUOUS
62
3
100
AcDbLine
10
4530.380000000000
20
17016.529999999999
30
0.0
11
4523.810000000000
21
16974.779999999999
31
0.0
0
LINE
5
612
100
AcDbEntity
8
1-0
6
CONTINUOUS
62
3
100
AcDbLine
10
4523.810000000000
20
16974.779999999999
30
0.0
11
4517.140000000000
21
16933.090000000000
31
0.0
0
LINE
5
613
100
AcDbEntity
8
1-0
6
CONTINUOUS
62
3
100
AcDbLine
10
4517.140000000000
20
16933.090000000000
30
0.0
11
4509.880000000000
21
16891.799999999999
31
0.0
0
LINE
5
614
100
AcDbEntity
8
1-0
6
CONTINUOUS
62
3
100
AcDbLine
10
4509.880000000000
20
16891.799999999999
30
0.0
11
4501.760000000000
21
16851.119999999999
31
0.0
0
LINE
5
615
100
AcDbEntity
8
1-0
6
CONTINUOUS
62
3
100
AcDbLine
10
4501.760000000000
20
16851.119999999999
30
0.0
11
4492.720000000000
21
16811.020000000000
31
0.0
0
LINE
5
616
100
AcDbEntity
8
1-0
6
CONTINUOUS
62
3
100
AcDbLine
10
4492.720000000000
20
16811.020000000000
30
0.0
11
4482.760000000000
21
16771.529999999999
31
0.0
0
LINE
5
617
100
AcDbEntity
8
1-0
6
CONTINUOUS
62
3
100
AcDbLine
10
4482.760000000000
20
16771.529999999999
30
0.0
11
4471.790000000000
21
16732.709999999999
31
0.0
0
LINE
5
618
100
AcDbEntity
8
1-0
6
CONTINUOUS
62
3
100
AcDbLine
10
4471.790000000000
20
16732.709999999999
30
0.0
11
4459.780000000000
21
16694.480000000000
31
0.0
0
LINE
5
619
100
AcDbEntity
8
1-0
6
CONTINUOUS
62
3
100
AcDbLine
10
4459.780000000000
20
16694.480000000000
30
0.0
11
4446.690000000000
21
16656.880000000001
31
0.0
0
LINE
5
61a
100
AcDbEntity
8
1-0
6
CONTINUOUS
62
3
100
AcDbLine
10
4446.690000000000
20
16656.880000000001
30
0.0
11
4432.480000000000
21
16619.919999999998
31
0.0
0
LINE
5
61b
100
AcDbEntity
8
1-0
6
CONTINUOUS
62
3
100
AcDbLine
10
4432.480000000000
20
16619.919999999998
30
0.0
11
4417.070000000000
21
16583.610000000001
31
0.0
0
LINE
5
61c
100
AcDbEntity
8
1-0
6
CONTINUOUS
62
3
100
AcDbLine
10
4417.070000000000
20
16583.610000000001
30
0.0
11
4400.470000000000
21
16547.930000000000
31
0.0
0
LINE
5
61d
100
AcDbEntity
8
1-0
6
CONTINUOUS
62
3
100
AcDbLine
10
4400.470000000000
20
16547.930000000000
30
0.0
11
4382.620000000000
21
16512.900000000001
31
0.0
0
LINE
5
61e
100
AcDbEntity
8
1-0
6
CONTINUOUS
62
3
100
AcDbLine
10
4382.620000000000
20
16512.900000000001
30
0.0
11
4363.450000000000
21
16478.529999999999
31
0.0
0
LINE
5
61f
100
AcDbEntity
8
1-0
6
CONTINUOUS
62
3
100
AcDbLine
10
4363.450000000000
20
16478.529999999999
30
0.0
11
4343.040000000000
21
16444.810000000001
31
0.0
0
LINE
5
620
100
AcDbEntity
8
1-0
6
CONTINUOUS
62
3
100
AcDbLine
10
4343.040000000000
20
16444.810000000001
30
0.0
11
4321.460000000000
21
16411.669999999998
31
0.0
0
LINE
5
621
100
AcDbEntity
8
1-0
6
CONTINUOUS
62
3
100
AcDbLine
10
4321.460000000000
20
16411.669999999998
30
0.0
11
4298.800000000000
21
16379.110000000001
31
0.0
0
LINE
5
622
100
AcDbEntity
8
1-0
6
CONTINUOUS
62
3
100
AcDbLine
10
4298.800000000000
20
16379.110000000001
30
0.0
11
4275.160000000000
21
16347.090000000000
31
0.0
0
LINE
5
623
100
AcDbEntity
8
1-0
6
CONTINUOUS
62
3
100
AcDbLine
10
4275.160000000000
20
16347.090000000000
30
0.0
11
4250.610000000000
21
16315.540000000001
31
0.0
0
LINE
5
624
100
AcDbEntity
8
1-0
6
CONTINUOUS
62
3
100
AcDbLine
10
4250.610000000000
20
16315.540000000001
30
0.0
11
4225.250000000000
21
16284.440000000001
31
0.0
0
LINE
5
625
100
AcDbEntity
8
1-0
6
CONTINUOUS
62
3
100
AcDbLine
10
4225.250000000000
20
16284.440000000001
30
0.0
11
4199.180000000000
21
16253.770000000000
31
0.0
0
LINE
5
626
100
AcDbEntity
8
1-0
6
CONTINUOUS
62
3
100
AcDbLine
10
4199.180000000000
20
16253.770000000000
30
0.0
11
4172.440000000000
21
16223.500000000000
31
0.0
0
LINE
5
627
100
AcDbEntity
8
1-0
6
CONTINUOUS
62
3
100
AcDbLine
10
4172.440000000000
20
16223.500000000000
30
0.0
11
4145.190000000000
21
16193.530000000001
31
0.0
0
LINE
5
628
100
AcDbEntity
8
1-0
6
CONTINUOUS
62
3
100
AcDbLine
10
4145.190000000000
20
16193.530000000001
30
0.0
11
4117.450000000000
21
16163.930000000000
31
0.0
0
LINE
5
629
100
AcDbEntity
8
1-0
6
CONTINUOUS
62
3
100
AcDbLine
10
4117.450000000000
20
16163.930000000000
30
0.0
11
4089.340000000000
21
16134.570000000000
31
0.0
0
LINE
5
62a
100
AcDbEntity
8
1-0
6
CONTINUOUS
62
3
100
AcDbLine
10
4089.340000000000
20
16134.570000000000
30
0.0
11
4060.960000000000
21
16105.459999999999
31
0.0
0
LINE
5
62b
100
AcDbEntity
8
1-0
6
CONTINUOUS
62
3
100
AcDbLine
10
4060.960000000000
20
16105.459999999999
30
0.0
11
4032.380000000000
21
16076.590000000000
31
0.0
0
LINE
5
62c
100
AcDbEntity
8
1-0
6
CONTINUOUS
62
3
100
AcDbLine
10
4032.380000000000
20
16076.590000000000
30
0.0
11
4003.680000000000
21
16047.840000000000
31
0.0
0
LINE
5
62d
100
AcDbEntity
8
1-0
6
CONTINUOUS
62
3
100
AcDbLine
10
4003.680000000000
20
16047.840000000000
30
0.0
11
3974.890000000000
21
16019.340000000000
31
0.0
0
LINE
5
62e
100
AcDbEntity
8
1-0
6
CONTINUOUS
62
3
100
AcDbLine
10
3974.890000000000
20
16019.340000000000
30
0.0
11
3945.970000000000
21
15991.020000000000
31
0.0
0
LINE
5
62f
100
AcDbEntity
8
1-0
6
CONTINUOUS
62
3
100
AcDbLine
10
3945.970000000000
20
15991.020000000000
30
0.0
11
3916.890000000000
21
15962.940000000001
31
0.0
0
LINE
5
630
100
AcDbEntity
8
1-0
6
CONTINUOUS
62
3
100
AcDbLine
10
3916.890000000000
20
15962.940000000001
30
0.0
11
3887.640000000000
21
15935.170000000000
31
0.0
0
LINE
5
631
100
AcDbEntity
8
1-0
6
CONTINUOUS
62
3
100
AcDbLine
10
3887.640000000000
20
15935.170000000000
30
0.0
11
3858.170000000000
21
15907.700000000001
31
0.0
0
LINE
5
632
100
AcDbEntity
8
1-0
6
CONTINUOUS
62
3
100
AcDbLine
10
3858.170000000000
20
15907.700000000001
30
0.0
11
3828.510000000000
21
15880.600000000000
31
0.0
0
LINE
5
633
100
AcDbEntity
8
1-0
6
CONTINUOUS
62
3
100
AcDbLine
10
3828.510000000000
20
15880.600000000000
30
0.0
11
3798.570000000000
21
15853.870000000001
31
0.0
0
LINE
5
634
100
AcDbEntity
8
1-0
6
CONTINUOUS
62
3
100
AcDbLine
10
3798.570000000000
20
15853.870000000001
30
0.0
11
3768.360000000000
21
15827.590000000000
31
0.0
0
LINE
5
635
100
AcDbEntity
8
1-0
6
CONTINUOUS
62
3
100
AcDbLine
10
3768.360000000000
20
15827.590000000000
30
0.0
11
3737.840000000000
21
15801.780000000001
31
0.0
0
LINE
5
636
100
AcDbEntity
8
1-0
6
CONTINUOUS
62
3
100
AcDbLine
10
3737.840000000000
20
15801.780000000001
30
0.0
11
3706.990000000000
21
15776.420000000000
31
0.0
0
LINE
5
637
100
AcDbEntity
8
1-0
6
CONTINUOUS
62
3
100
AcDbLine
10
3706.990000000000
20
15776.420000000000
30
0.0
11
3675.770000000000
21
15751.629999999999
31
0.0
0
LINE
5
638
100
AcDbEntity
8
1-0
6
CONTINUOUS
62
3
100
AcDbLine
10
3675.770000000000
20
15751.629999999999
30
0.0
11
3644.180000000000
21
15727.370000000001
31
0.0
0
LINE
5
639
100
AcDbEntity
8
1-0
6
CONTINUOUS
62
3
100
AcDbLine
10
3644.180000000000
20
15727.370000000001
30
0.0
11
3612.190000000000
21
15703.719999999999
31
0.0
0
LINE
5
63a
100
AcDbEntity
8
1-0
6
CONTINUOUS
62
3
100
AcDbLine
10
3612.190000000000
20
15703.719999999999
30
0.0
11
3579.760000000000
21
15680.709999999999
31
0.0
0
LINE
5
63b
100
AcDbEntity
8
1-0
6
CONTINUOUS
62
3
100
AcDbLine
10
3579.760000000000
20
15680.709999999999
30
0.0
11
3546.860000000000
21
15658.340000000000
31
0.0
0
LINE
5
63c
100
AcDbEntity
8
1-0
6
CONTINUOUS
62
3
100
AcDbLine
10
3546.860000000000
20
15658.340000000000
30
0.0
11
3513.480000000000
21
15636.680000000000
31
0.0
0
LINE
5
63d
100
AcDbEntity
8
1-0
6
CONTINUOUS
62
3
100
AcDbLine
10
3513.480000000000
20
15636.680000000000
30
0.0
11
3479.600000000000
21
15615.740000000000
31
0.0
0
LINE
5
63e
100
AcDbEntity
8
1-0
6
CONTINUOUS
62
3
100
AcDbLine
10
3479.600000000000
20
15615.740000000000
30
0.0
11
3445.270000000000
21
15595.450000000001
31
0.0
0
LINE
5
63f
100
AcDbEntity
8
1-0
6
CONTINUOUS
62
3
100
AcDbLine
10
3445.270000000000
20
15595.450000000001
30
0.0
11
3410.600000000000
21
15575.639999999999
31
0.0
0
LINE
5
640
100
AcDbEntity
8
1-0
6
CONTINUOUS
62
3
100
AcDbLine
10
3410.600000000000
20
15575.639999999999
30
0.0
11
3375.630000000000
21
15556.200000000001
31
0.0
0
LINE
5
641
100
AcDbEntity
8
1-0
6
CONTINUOUS
62
3
100
AcDbLine
10
3375.630000000000
20
15556.200000000001
30
0.0
11
3340.490000000000
21
15537.040000000001
31
0.0
0
LINE
5
642
100
AcDbEntity
8
1-0
6
CONTINUOUS
62
3
100
AcDbLine
10
3340.490000000000
20
15537.040000000001
30
0.0
11
3305.240000000000
21
15517.959999999999
31
0.0
0
LINE
5
643
100
AcDbEntity
8
1-0
6
CONTINUOUS
62
3
100
AcDbLine
10
3305.240000000000
20
15517.959999999999
30
0.0
11
3269.980000000000
21
15498.889999999999
31
0.0
0
LINE
5
644
100
AcDbEntity
8
1-0
6
CONTINUOUS
62
3
100
AcDbLine
10
3269.980000000000
20
15498.889999999999
30
0.0
11
3234.790000000000
21
15479.660000000000
31
0.0
0
LINE
5
645
100
AcDbEntity
8
1-0
6
CONTINUOUS
62
3
100
AcDbLine
10
3234.790000000000
20
15479.660000000000
30
0.0
11
3199.760000000000
21
15460.129999999999
31
0.0
0
LINE
5
646
100
AcDbEntity
8
1-0
6
CONTINUOUS
62
3
100
AcDbLine
10
3199.760000000000
20
15460.129999999999
30
0.0
11
3164.980000000000
21
15440.200000000001
31
0.0
0
LINE
5
647
100
AcDbEntity
8
1-0
6
CONTINUOUS
62
3
100
AcDbLine
10
3164.980000000000
20
15440.200000000001
30
0.0
11
3130.540000000000
21
15419.730000000000
31
0.0
0
LINE
5
648
100
AcDbEntity
8
1-0
6
CONTINUOUS
62
3
100
AcDbLine
10
3130.540000000000
20
15419.730000000000
30
0.0
11
3096.520000000000
21
15398.610000000001
31
0.0
0
LINE
5
649
100
AcDbEntity
8
1-0
6
CONTINUOUS
62
3
100
AcDbLine
10
3096.520000000000
20
15398.610000000001
30
0.0
11
3063.010000000000
21
15376.639999999999
31
0.0
0
LINE
5
64a
100
AcDbEntity
8
1-0
6
CONTINUOUS
62
3
100
AcDbLine
10
3063.010000000000
20
15376.639999999999
30
0.0
11
3030.080000000000
21
15353.750000000000
31
0.0
0
LINE
5
64b
100
AcDbEntity
8
1-0
6
CONTINUOUS
62
3
100
AcDbLine
10
3030.080000000000
20
15353.750000000000
30
0.0
11
2997.840000000000
21
15329.820000000000
31
0.0
0
LINE
5
64c
100
AcDbEntity
8
1-0
6
CONTINUOUS
62
3
100
AcDbLine
10
2997.840000000000
20
15329.820000000000
30
0.0
11
2966.360000000000
21
15304.680000000000
31
0.0
0
LINE
5
64d
100
AcDbEntity
8
1-0
6
CONTINUOUS
62
3
100
AcDbLine
10
2966.360000000000
20
15304.680000000000
30
0.0
11
2935.750000000000
21
15278.190000000001
31
0.0
0
LINE
5
64e
100
AcDbEntity
8
1-0
6
CONTINUOUS
62
3
100
AcDbLine
10
2935.750000000000
20
15278.190000000001
30
0.0
11
2906.090000000000
21
15250.290000000001
31
0.0
0
LINE
5
64f
100
AcDbEntity
8
1-0
6
CONTINUOUS
62
3
100
AcDbLine
10
2906.090000000000
20
15250.290000000001
30
0.0
11
2877.430000000000
21
15220.750000000000
31
0.0
0
LINE
5
650
100
AcDbEntity
8
1-0
6
CONTINUOUS
62
3
100
AcDbLine
10
2877.430000000000
20
15220.750000000000
30
0.0
11
2849.720000000000
21
15189.900000000000
31
0.0
0
LINE
5
651
100
AcDbEntity
8
1-0
6
CONTINUOUS
62
3
100
AcDbLine
10
2849.720000000000
20
15189.900000000000
30
0.0
11
2822.340000000000
21
15159.049999999999
31
0.0
0
LINE
5
652
100
AcDbEntity
8
1-0
6
CONTINUOUS
62
3
100
AcDbLine
10
2822.340000000000
20
15159.049999999999
30
0.0
11
2794.570000000000
21
15129.750000000000
31
0.0
0
LINE
5
653
100
AcDbEntity
8
1-0
6
CONTINUOUS
62
3
100
AcDbLine
10
2794.570000000000
20
15129.750000000000
30
0.0
11
2765.730000000000
21
15103.620000000001
31
0.0
0
LINE
5
654
100
AcDbEntity
8
1-0
6
CONTINUOUS
62
3
100
AcDbLine
10
2765.730000000000
20
15103.620000000001
30
0.0
11
2735.060000000000
21
15082.139999999999
31
0.0
0
LINE
5
655
100
AcDbEntity
8
1-0
6
CONTINUOUS
62
3
100
AcDbLine
10
2735.060000000000
20
15082.139999999999
30
0.0
11
2702.230000000000
21
15066.150000000000
31
0.0
0
LINE
5
656
100
AcDbEntity
8
1-0
6
CONTINUOUS
62
3
100
AcDbLine
10
2702.230000000000
20
15066.150000000000
30
0.0
11
2667.350000000000
21
15055.290000000001
31
0.0
0
LINE
5
657
100
AcDbEntity
8
1-0
6
CONTINUOUS
62
3
100
AcDbLine
10
2667.350000000000
20
15055.290000000001
30
0.0
11
2630.630000000000
21
15049.090000000000
31
0.0
0
LINE
5
658
100
AcDbEntity
8
1-0
6
CONTINUOUS
62
3
100
AcDbLine
10
2630.630000000000
20
15049.090000000000
30
0.0
11
2592.270000000000
21
15046.980000000000
31
0.0
0
LINE
5
659
100
AcDbEntity
8
1-0
6
CONTINUOUS
62
3
100
AcDbLine
10
2592.270000000000
20
15046.980000000000
30
0.0
11
2552.450000000000
21
15048.540000000001
31
0.0
0
LINE
5
65a
100
AcDbEntity
8
1-0
6
CONTINUOUS
62
3
100
AcDbLine
10
2552.450000000000
20
15048.540000000001
30
0.0
11
2511.400000000000
21
15053.209999999999
31
0.0
0
LINE
5
65b
100
AcDbEntity
8
1-0
6
CONTINUOUS
62
3
100
AcDbLine
10
2511.400000000000
20
15053.209999999999
30
0.0
11
2469.290000000000
21
15060.530000000001
31
0.0
0
LINE
5
65c
100
AcDbEntity
8
1-0
6
CONTINUOUS
62
3
100
AcDbLine
10
2469.290000000000
20
15060.530000000001
30
0.0
11
2426.330000000000
21
15070.000000000000
31
0.0
0
LINE
5
65d
100
AcDbEntity
8
1-0
6
CONTINUOUS
62
3
100
AcDbLine
10
2426.330000000000
20
15070.000000000000
30
0.0
11
2382.720000000000
21
15081.100000000000
31
0.0
0
LINE
5
65e
100
AcDbEntity
8
1-0
6
CONTINUOUS
62
3
100
AcDbLine
10
2382.720000000000
20
15081.100000000000
30
0.0
11
2338.660000000000
21
15093.340000000000
31
0.0
0
LINE
5
65f
100
AcDbEntity
8
1-0
6
CONTINUOUS
62
3
100
AcDbLine
10
2338.660000000000
20
15093.340000000000
30
0.0
11
2294.330000000000
21
15106.219999999999
31
0.0
0
LINE
5
660
100
AcDbEntity
8
1-0
6
CONTINUOUS
62
3
100
AcDbLine
10
2294.330000000000
20
15106.219999999999
30
0.0
11
2281.450000000000
21
15110.000000000000
31
0.0
0
LINE
5
661
100
AcDbEntity
8
1-0
6
CONTINUOUS
62
3
100
AcDbLine
10
6581.880000000000
20
18353.869999999999
30
0.0
11
6532.110000000000
21
18357.290000000001
31
0.0
0
LINE
5
662
100
AcDbEntity
8
1-0
6
CONTINUOUS
62
3
100
AcDbLine
10
6532.110000000000
20
18357.290000000001
30
0.0
11
6483.000000000000
21
18360.090000000000
31
0.0
0
LINE
5
663
100
AcDbEntity
8
1-0
6
CONTINUOUS
62
3
100
AcDbLine
10
6483.000000000000
20
18360.090000000000
30
0.0
11
6435.230000000000
21
18361.680000000000
31
0.0
0
LINE
5
664
100
AcDbEntity
8
1-0
6
CONTINUOUS
62
3
100
AcDbLine
10
6435.230000000000
20
18361.680000000000
30
0.0
11
6389.450000000000
21
18361.560000000001
31
0.0
0
LINE
5
665
100
AcDbEntity
8
1-0
6
CONTINUOUS
62
3
100
AcDbLine
10
6389.450000000000
20
18361.560000000001
30
0.0
11
6346.360000000000
21
18359.000000000000
31
0.0
0
LINE
5
666
100
AcDbEntity
8
1-0
6
CONTINUOUS
62
3
100
AcDbLine
10
6346.360000000000
20
18359.000000000000
30
0.0
11
6306.580000000000
21
18353.500000000000
31
0.0
0
LINE
5
667
100
AcDbEntity
8
1-0
6
CONTINUOUS
62
3
100
AcDbLine
10
6306.580000000000
20
18353.500000000000
30
0.0
11
6270.800000000000
21
18344.470000000001
31
0.0
0
LINE
5
668
100
AcDbEntity
8
1-0
6
CONTINUOUS
62
3
100
AcDbLine
10
6270.800000000000
20
18344.470000000001
30
0.0
11
6239.700000000000
21
18331.230000000000
31
0.0
0
LINE
5
669
100
AcDbEntity
8
1-0
6
CONTINUOUS
62
3
100
AcDbLine
10
6239.700000000000
20
18331.230000000000
30
0.0
11
6213.920000000000
21
18313.279999999999
31
0.0
0
LINE
5
66a
100
AcDbEntity
8
1-0
6
CONTINUOUS
62
3
100
AcDbLine
10
6213.920000000000
20
18313.279999999999
30
0.0
11
6194.110000000000
21
18290.000000000000
31
0.0
0
LINE
5
66b
100
AcDbEntity
8
1-0
6
CONTINUOUS
62
3
100
AcDbLine
10
6194.110000000000
20
18290.000000000000
30
0.0
11
6180.300000000000
21
18261.340000000000
31
0.0
0
LINE
5
66c
100
AcDbEntity
8
1-0
6
CONTINUOUS
62
3
100
AcDbLine
10
6180.300000000000
20
18261.340000000000
30
0.0
11
6171.590000000000
21
18228.020000000000
31
0.0
0
LINE
5
66d
100
AcDbEntity
8
1-0
6
CONTINUOUS
62
3
100
AcDbLine
10
6171.590000000000
20
18228.020000000000
30
0.0
11
6167.040000000000
21
18190.720000000001
31
0.0
0
LINE
5
66e
100
AcDbEntity
8
1-0
6
CONTINUOUS
62
3
100
AcDbLine
10
6167.040000000000
20
18190.720000000001
30
0.0
11
6165.700000000000
21
18150.259999999998
31
0.0
0
LINE
5
66f
100
AcDbEntity
8
1-0
6
CONTINUOUS
62
3
100
AcDbLine
10
6165.700000000000
20
18150.259999999998
30
0.0
11
6166.600000000000
21
18107.349999999999
31
0.0
0
LINE
5
670
100
AcDbEntity
8
1-0
6
CONTINUOUS
62
3
100
AcDbLine
10
6166.600000000000
20
18107.349999999999
30
0.0
11
6168.810000000000
21
18062.730000000000
31
0.0
0
LINE
5
671
100
AcDbEntity
8
1-0
6
CONTINUOUS
62
3
100
AcDbLine
10
6168.810000000000
20
18062.730000000000
30
0.0
11
6171.370000000000
21
18017.139999999999
31
0.0
0
LINE
5
672
100
AcDbEntity
8
1-0
6
CONTINUOUS
62
3
100
AcDbLine
10
6171.370000000000
20
18017.139999999999
30
0.0
11
6173.360000000000
21
17971.360000000001
31
0.0
0
LINE
5
673
100
AcDbEntity
8
1-0
6
CONTINUOUS
62
3
100
AcDbLine
10
6173.360000000000
20
17971.360000000001
30
0.0
11
6173.780000000000
21
17926.099999999999
31
0.0
0
LINE
5
674
100
AcDbEntity
8
1-0
6
CONTINUOUS
62
3
100
AcDbLine
10
6173.780000000000
20
17926.099999999999
30
0.0
11
6171.830000000000
21
17882.070000000000
31
0.0
0
LINE
5
675
100
AcDbEntity
8
1-0
6
CONTINUOUS
62
3
100
AcDbLine
10
6171.830000000000
20
17882.070000000000
30
0.0
11
6167.380000000000
21
17839.340000000000
31
0.0
0
LINE
5
676
100
AcDbEntity
8
1-0
6
CONTINUOUS
62
3
100
AcDbLine
10
6167.380000000000
20
17839.340000000000
30
0.0
11
6160.630000000000
21
17797.840000000000
31
0.0
0
LINE
5
677
100
AcDbEntity
8
1-0
6
CONTINUOUS
62
3
100
AcDbLine
10
6160.630000000000
20
17797.840000000000
30
0.0
11
6151.750000000000
21
17757.430000000000
31
0.0
0
LINE
5
678
100
AcDbEntity
8
1-0
6
CONTINUOUS
62
3
100
AcDbLine
10
6151.750000000000
20
17757.430000000000
30
0.0
11
6140.960000000000
21
17718.070000000000
31
0.0
0
LINE
5
679
100
AcDbEntity
8
1-0
6
CONTINUOUS
62
3
100
AcDbLine
10
6140.960000000000
20
17718.070000000000
30
0.0
11
6128.440000000000
21
17679.639999999999
31
0.0
0
LINE
5
67a
100
AcDbEntity
8
1-0
6
CONTINUOUS
62
3
100
AcDbLine
10
6128.440000000000
20
17679.639999999999
30
0.0
11
6114.380000000000
21
17642.020000000000
31
0.0
0
LINE
5
67b
100
AcDbEntity
8
1-0
6
CONTINUOUS
62
3
100
AcDbLine
10
6114.380000000000
20
17642.020000000000
30
0.0
11
6098.970000000000
21
17605.150000000001
31
0.0
0
LINE
5
67c
100
AcDbEntity
8
1-0
6
CONTINUOUS
62
3
100
AcDbLine
10
6098.970000000000
20
17605.150000000001
30
0.0
11
6082.420000000000
21
17568.830000000002
31
0.0
0
LINE
5
67d
100
AcDbEntity
8
1-0
6
CONTINUOUS
62
3
100
AcDbLine
10
6082.420000000000
20
17568.830000000002
30
0.0
11
6064.880000000000
21
17533.099999999999
31
0.0
0
LINE
5
67e
100
AcDbEntity
8
1-0
6
CONTINUOUS
62
3
100
AcDbLine
10
6064.880000000000
20
17533.099999999999
30
0.0
11
6046.590000000000
21
17497.759999999998
31
0.0
0
LINE
5
67f
100
AcDbEntity
8
1-0
6
CONTINUOUS
62
3
100
AcDbLine
10
6046.590000000000
20
17497.759999999998
30
0.0
11
6027.700000000000
21
17462.759999999998
31
0.0
0
LINE
5
680
100
AcDbEntity
8
1-0
6
CONTINUOUS
62
3
100
AcDbLine
10
6027.700000000000
20
17462.759999999998
30
0.0
11
6008.430000000000
21
17427.939999999999
31
0.0
0
LINE
5
681
100
AcDbEntity
8
1-0
6
CONTINUOUS
62
3
100
AcDbLine
10
6008.430000000000
20
17427.939999999999
30
0.0
11
5988.970000000000
21
17393.240000000002
31
0.0
0
LINE
5
682
100
AcDbEntity
8
1-0
6
CONTINUOUS
62
3
100
AcDbLine
10
5988.970000000000
20
17393.240000000002
30
0.0
11
5969.490000000000
21
17358.570000000000
31
0.0
0
LINE
5
683
100
AcDbEntity
8
1-0
6
CONTINUOUS
62
3
100
AcDbLine
10
5969.490000000000
20
17358.570000000000
30
0.0
11
5950.210000000000
21
17323.840000000000
31
0.0
0
LINE
5
684
100
AcDbEntity
8
1-0
6
CONTINUOUS
62
3
100
AcDbLine
10
5950.210000000000
20
17323.840000000000
30
0.0
11
5931.290000000000
21
17288.869999999999
31
0.0
0
LINE
5
685
100
AcDbEntity
8
1-0
6
CONTINUOUS
62
3
100
AcDbLine
10
5931.290000000000
20
17288.869999999999
30
0.0
11
5912.950000000000
21
17253.650000000001
31
0.0
0
LINE
5
686
100
AcDbEntity
8
1-0
6
CONTINUOUS
62
3
100
AcDbLine
10
5912.950000000000
20
17253.650000000001
30
0.0
11
5895.370000000000
21
17218.040000000001
31
0.0
0
LINE
5
687
100
AcDbEntity
8
1-0
6
CONTINUOUS
62
3
100
AcDbLine
10
5895.370000000000
20
17218.040000000001
30
0.0
11
5878.740000000000
21
17181.930000000000
31
0.0
0
LINE
5
688
100
AcDbEntity
8
1-0
6
CONTINUOUS
62
3
100
AcDbLine
10
5878.740000000000
20
17181.930000000000
30
0.0
11
5863.270000000000
21
17145.250000000000
31
0.0
0
LINE
5
689
100
AcDbEntity
8
1-0
6
CONTINUOUS
62
3
100
AcDbLine
10
5863.270000000000
20
17145.250000000000
30
0.0
11
5849.120000000000
21
17107.869999999999
31
0.0
0
LINE
5
68a
100
AcDbEntity
8
1-0
6
CONTINUOUS
62
3
100
AcDbLine
10
5849.120000000000
20
17107.869999999999
30
0.0
11
5836.510000000000
21
17069.720000000001
31
0.0
0
LINE
5
68b
100
AcDbEntity
8
1-0
6
CONTINUOUS
62
3
100
AcDbLine
10
5836.510000000000
20
17069.720000000001
30
0.0
11
5825.460000000000
21
17030.869999999999
31
0.0
0
LINE
5
68c
100
AcDbEntity
8
1-0
6
CONTINUOUS
62
3
100
AcDbLine
10
5825.460000000000
20
17030.869999999999
30
0.0
11
5816.100000000000
21
16991.439999999999
31
0.0
0
LINE
5
68d
100
AcDbEntity
8
1-0
6
CONTINUOUS
62
3
100
AcDbLine
10
5816.100000000000
20
16991.439999999999
30
0.0
11
5808.460000000000
21
16951.500000000000
31
0.0
0
LINE
5
68e
100
AcDbEntity
8
1-0
6
CONTINUOUS
62
3
100
AcDbLine
10
5808.460000000000
20
16951.500000000000
30
0.0
11
5802.570000000000
21
16911.209999999999
31
0.0
0
LINE
5
68f
100
AcDbEntity
8
1-0
6
CONTINUOUS
62
3
100
AcDbLine
10
5802.570000000000
20
16911.209999999999
30
0.0
11
5798.540000000000
21
16870.650000000001
31
0.0
0
LINE
5
690
100
AcDbEntity
8
1-0
6
CONTINUOUS
62
3
100
AcDbLine
10
5798.540000000000
20
16870.650000000001
30
0.0
11
5796.370000000000
21
16830.000000000000
31
0.0
0
LINE
5
691
100
AcDbEntity
8
1-0
6
CONTINUOUS
62
3
100
AcDbLine
10
5796.370000000000
20
16830.000000000000
30
0.0
11
5796.130000000000
21
16789.290000000001
31
0.0
0
LINE
5
692
100
AcDbEntity
8
1-0
6
CONTINUOUS
62
3
100
AcDbLine
10
5796.130000000000
20
16789.290000000001
30
0.0
11
5797.900000000000
21
16748.709999999999
31
0.0
0
LINE
5
693
100
AcDbEntity
8
1-0
6
CONTINUOUS
62
3
100
AcDbLine
10
5797.900000000000
20
16748.709999999999
30
0.0
11
5801.720000000000
21
16708.330000000002
31
0.0
0
LINE
5
694
100
AcDbEntity
8
1-0
6
CONTINUOUS
62
3
100
AcDbLine
10
5801.720000000000
20
16708.330000000002
30
0.0
11
5807.640000000000
21
16668.259999999998
31
0.0
0
LINE
5
695
100
AcDbEntity
8
1-0
6
CONTINUOUS
62
3
100
AcDbLine
10
5807.640000000000
20
16668.259999999998
30
0.0
11
5815.720000000000
21
16628.650000000001
31
0.0
0
LINE
5
696
100
AcDbEntity
8
1-0
6
CONTINUOUS
62
3
100
AcDbLine
10
5815.720000000000
20
16628.650000000001
30
0.0
11
5826.010000000000
21
16589.590000000000
31
0.0
0
LINE
5
697
100
AcDbEntity
8
1-0
6
CONTINUOUS
62
3
100
AcDbLine
10
5826.010000000000
20
16589.590000000000
30
0.0
11
5838.260000000000
21
16551.040000000001
31
0.0
0
LINE
5
698
100
AcDbEntity
8
1-0
6
CONTINUOUS
62
3
100
AcDbLine
10
5838.260000000000
20
16551.040000000001
30
0.0
11
5852.010000000000
21
16512.990000000002
31
0.0
0
LINE
5
699
100
AcDbEntity
8
1-0
6
CONTINUOUS
62
3
100
AcDbLine
10
5852.010000000000
20
16512.990000000002
30
0.0
11
5866.780000000000
21
16475.270000000000
31
0.0
0
LINE
5
69a
100
AcDbEntity
8
1-0
6
CONTINUOUS
62
3
100
AcDbLine
10
5866.780000000000
20
16475.270000000000
30
0.0
11
5882.130000000000
21
16437.820000000000
31
0.0
0
LINE
5
69b
100
AcDbEntity
8
1-0
6
CONTINUOUS
62
3
100
AcDbLine
10
5882.130000000000
20
16437.820000000000
30
0.0
11
5897.560000000000
21
16400.560000000001
31
0.0
0
LINE
5
69c
100
AcDbEntity
8
1-0
6
CONTINUOUS
62
3
100
AcDbLine
10
5897.560000000000
20
16400.560000000001
30
0.0
11
5912.620000000000
21
16363.360000000001
31
0.0
0
LINE
5
69d
100
AcDbEntity
8
1-0
6
CONTINUOUS
62
3
100
AcDbLine
10
5912.620000000000
20
16363.360000000001
30
0.0
11
5926.820000000000
21
16326.160000000000
31
0.0
0
LINE
5
69e
100
AcDbEntity
8
1-0
6
CONTINUOUS
62
3
100
AcDbLine
10
5926.820000000000
20
16326.160000000000
30
0.0
11
5939.720000000000
21
16288.840000000000
31
0.0
0
LINE
5
69f
100
AcDbEntity
8
1-0
6
CONTINUOUS
62
3
100
AcDbLine
10
5939.720000000000
20
16288.840000000000
30
0.0
11
5950.820000000000
21
16251.330000000000
31
0.0
0
LINE
5
6a0
100
AcDbEntity
8
1-0
6
CONTINUOUS
62
3
100
AcDbLine
10
5950.820000000000
20
16251.330000000000
30
0.0
11
5959.670000000000
21
16213.490000000000
31
0.0
0
LINE
5
6a1
100
AcDbEntity
8
1-0
6
CONTINUOUS
62
3
100
AcDbLine
10
5959.670000000000
20
16213.490000000000
30
0.0
11
5966.140000000000
21
16175.340000000000
31
0.0
0
LINE
5
6a2
100
AcDbEntity
8
1-0
6
CONTINUOUS
62
3
100
AcDbLine
10
5966.140000000000
20
16175.340000000000
30
0.0
11
5970.420000000000
21
16136.889999999999
31
0.0
0
LINE
5
6a3
100
AcDbEntity
8
1-0
6
CONTINUOUS
62
3
100
AcDbLine
10
5970.420000000000
20
16136.889999999999
30
0.0
11
5972.640000000000
21
16098.100000000000
31
0.0
0
LINE
5
6a4
100
AcDbEntity
8
1-0
6
CONTINUOUS
62
3
100
AcDbLine
10
5972.640000000000
20
16098.100000000000
30
0.0
11
5973.100000000000
21
16059.070000000000
31
0.0
0
LINE
5
6a5
100
AcDbEntity
8
1-0
6
CONTINUOUS
62
3
100
AcDbLine
10
5973.100000000000
20
16059.070000000000
30
0.0
11
5971.940000000000
21
16019.760000000000
31
0.0
0
LINE
5
6a6
100
AcDbEntity
8
1-0
6
CONTINUOUS
62
3
100
AcDbLine
10
5971.940000000000
20
16019.760000000000
30
0.0
11
5969.410000000000
21
15980.240000000000
31
0.0
0
LINE
5
6a7
100
AcDbEntity
8
1-0
6
CONTINUOUS
62
3
100
AcDbLine
10
5969.410000000000
20
15980.240000000000
30
0.0
11
5965.670000000000
21
15940.510000000000
31
0.0
0
LINE
5
6a8
100
AcDbEntity
8
1-0
6
CONTINUOUS
62
3
100
AcDbLine
10
5965.670000000000
20
15940.510000000000
30
0.0
11
5960.960000000000
21
15900.559999999999
31
0.0
0
LINE
5
6a9
100
AcDbEntity
8
1-0
6
CONTINUOUS
62
3
100
AcDbLine
10
5960.960000000000
20
15900.559999999999
30
0.0
11
5955.430000000000
21
15860.459999999999
31
0.0
0
LINE
5
6aa
100
AcDbEntity
8
1-0
6
CONTINUOUS
62
3
100
AcDbLine
10
5955.430000000000
20
15860.459999999999
30
0.0
11
5949.360000000000
21
15820.240000000000
31
0.0
0
LINE
5
6ab
100
AcDbEntity
8
1-0
6
CONTINUOUS
62
3
100
AcDbLine
10
5949.360000000000
20
15820.240000000000
30
0.0
11
5942.890000000000
21
15779.830000000000
31
0.0
0
LINE
5
6ac
100
AcDbEntity
8
1-0
6
CONTINUOUS
62
3
100
AcDbLine
10
5942.890000000000
20
15779.830000000000
30
0.0
11
5936.270000000000
21
15739.370000000001
31
0.0
0
LINE
5
6ad
100
AcDbEntity
8
1-0
6
CONTINUOUS
62
3
100
AcDbLine
10
5936.270000000000
20
15739.370000000001
30
0.0
11
5929.640000000000
21
15698.809999999999
31
0.0
0
LINE
5
6ae
100
AcDbEntity
8
1-0
6
CONTINUOUS
62
3
100
AcDbLine
10
5929.640000000000
20
15698.809999999999
30
0.0
11
5923.300000000000
21
15658.190000000001
31
0.0
0
LINE
5
6af
100
AcDbEntity
8
1-0
6
CONTINUOUS
62
3
100
AcDbLine
10
5923.300000000000
20
15658.190000000001
30
0.0
11
5917.380000000000
21
15617.540000000001
31
0.0
0
LINE
5
6b0
100
AcDbEntity
8
1-0
6
CONTINUOUS
62
3
100
AcDbLine
10
5917.380000000000
20
15617.540000000001
30
0.0
11
5912.080000000000
21
15576.830000000000
31
0.0
0
LINE
5
6b1
100
AcDbEntity
8
1-0
6
CONTINUOUS
62
3
100
AcDbLine
10
5912.080000000000
20
15576.830000000000
30
0.0
11
5907.640000000000
21
15536.180000000000
31
0.0
0
LINE
5
6b2
100
AcDbEntity
8
1-0
6
CONTINUOUS
62
3
100
AcDbLine
10
5907.640000000000
20
15536.180000000000
30
0.0
11
5904.250000000000
21
15495.500000000000
31
0.0
0
LINE
5
6b3
100
AcDbEntity
8
1-0
6
CONTINUOUS
62
3
100
AcDbLine
10
5904.250000000000
20
15495.500000000000
30
0.0
11
5902.150000000000
21
15454.879999999999
31
0.0
0
LINE
5
6b4
100
AcDbEntity
8
1-0
6
CONTINUOUS
62
3
100
AcDbLine
10
5902.150000000000
20
15454.879999999999
30
0.0
11
5901.480000000000
21
15414.360000000001
31
0.0
0
LINE
5
6b5
100
AcDbEntity
8
1-0
6
CONTINUOUS
62
3
100
AcDbLine
10
5901.480000000000
20
15414.360000000001
30
0.0
11
5902.420000000000
21
15373.889999999999
31
0.0
0
LINE
5
6b6
100
AcDbEntity
8
1-0
6
CONTINUOUS
62
3
100
AcDbLine
10
5902.420000000000
20
15373.889999999999
30
0.0
11
5904.990000000000
21
15333.580000000000
31
0.0
0
LINE
5
6b7
100
AcDbEntity
8
1-0
6
CONTINUOUS
62
3
100
AcDbLine
10
5904.990000000000
20
15333.580000000000
30
0.0
11
5909.110000000000
21
15293.440000000001
31
0.0
0
LINE
5
6b8
100
AcDbEntity
8
1-0
6
CONTINUOUS
62
3
100
AcDbLine
10
5909.110000000000
20
15293.440000000001
30
0.0
11
5914.720000000000
21
15253.500000000000
31
0.0
0
LINE
5
6b9
100
AcDbEntity
8
1-0
6
CONTINUOUS
62
3
100
AcDbLine
10
5914.720000000000
20
15253.500000000000
30
0.0
11
5921.800000000000
21
15213.850000000000
31
0.0
0
LINE
5
6ba
100
AcDbEntity
8
1-0
6
CONTINUOUS
62
3
100
AcDbLine
10
5921.800000000000
20
15213.850000000000
30
0.0
11
5930.300000000000
21
15174.549999999999
31
0.0
0
LINE
5
6bb
100
AcDbEntity
8
1-0
6
CONTINUOUS
62
3
100
AcDbLine
10
5930.300000000000
20
15174.549999999999
30
0.0
11
5940.140000000000
21
15135.549999999999
31
0.0
0
LINE
5
6bc
100
AcDbEntity
8
1-0
6
CONTINUOUS
62
3
100
AcDbLine
10
5940.140000000000
20
15135.549999999999
30
0.0
11
5951.280000000000
21
15097.000000000000
31
0.0
0
LINE
5
6bd
100
AcDbEntity
8
1-0
6
CONTINUOUS
62
3
100
AcDbLine
10
5951.280000000000
20
15097.000000000000
30
0.0
11
5963.690000000000
21
15058.889999999999
31
0.0
0
LINE
5
6be
100
AcDbEntity
8
1-0
6
CONTINUOUS
62
3
100
AcDbLine
10
5963.690000000000
20
15058.889999999999
30
0.0
11
5977.280000000000
21
15021.290000000001
31
0.0
0
LINE
5
6bf
100
AcDbEntity
8
1-0
6
CONTINUOUS
62
3
100
AcDbLine
10
5977.280000000000
20
15021.290000000001
30
0.0
11
5992.020000000000
21
14984.240000000000
31
0.0
0
LINE
5
6c0
100
AcDbEntity
8
1-0
6
CONTINUOUS
62
3
100
AcDbLine
10
5992.020000000000
20
14984.240000000000
30
0.0
11
6007.920000000000
21
14947.770000000000
31
0.0
0
LINE
5
6c1
100
AcDbEntity
8
1-0
6
CONTINUOUS
62
3
100
AcDbLine
10
6007.920000000000
20
14947.770000000000
30
0.0
11
6024.920000000000
21
14911.879999999999
31
0.0
0
LINE
5
6c2
100
AcDbEntity
8
1-0
6
CONTINUOUS
62
3
100
AcDbLine
10
6024.920000000000
20
14911.879999999999
30
0.0
11
6043.050000000000
21
14876.570000000000
31
0.0
0
LINE
5
6c3
100
AcDbEntity
8
1-0
6
CONTINUOUS
62
3
100
AcDbLine
10
6043.050000000000
20
14876.570000000000
30
0.0
11
6062.320000000000
21
14841.850000000000
31
0.0
0
LINE
5
6c4
100
AcDbEntity
8
1-0
6
CONTINUOUS
62
3
100
AcDbLine
10
6062.320000000000
20
14841.850000000000
30
0.0
11
6082.720000000000
21
14807.730000000000
31
0.0
0
LINE
5
6c5
100
AcDbEntity
8
1-0
6
CONTINUOUS
62
3
100
AcDbLine
10
6082.720000000000
20
14807.730000000000
30
0.0
11
6104.250000000000
21
14774.250000000000
31
0.0
0
LINE
5
6c6
100
AcDbEntity
8
1-0
6
CONTINUOUS
62
3
100
AcDbLine
10
6104.250000000000
20
14774.250000000000
30
0.0
11
6126.910000000000
21
14741.379999999999
31
0.0
0
LINE
5
6c7
100
AcDbEntity
8
1-0
6
CONTINUOUS
62
3
100
AcDbLine
10
6126.910000000000
20
14741.379999999999
30
0.0
11
6150.710000000000
21
14709.120000000001
31
0.0
0
LINE
5
6c8
100
AcDbEntity
8
1-0
6
CONTINUOUS
62
3
100
AcDbLine
10
6150.710000000000
20
14709.120000000001
30
0.0
11
6175.650000000000
21
14677.510000000000
31
0.0
0
LINE
5
6c9
100
AcDbEntity
8
1-0
6
CONTINUOUS
62
3
100
AcDbLine
10
6175.650000000000
20
14677.510000000000
30
0.0
11
6201.710000000000
21
14646.530000000001
31
0.0
0
LINE
5
6ca
100
AcDbEntity
8
1-0
6
CONTINUOUS
62
3
100
AcDbLine
10
6201.710000000000
20
14646.530000000001
30
0.0
11
6228.900000000000
21
14616.230000000000
31
0.0
0
LINE
5
6cb
100
AcDbEntity
8
1-0
6
CONTINUOUS
62
3
100
AcDbLine
10
6228.900000000000
20
14616.230000000000
30
0.0
11
6257.240000000000
21
14586.600000000000
31
0.0
0
LINE
5
6cc
100
AcDbEntity
8
1-0
6
CONTINUOUS
62
3
100
AcDbLine
10
6257.240000000000
20
14586.600000000000
30
0.0
11
6286.720000000000
21
14557.600000000000
31
0.0
0
LINE
5
6cd
100
AcDbEntity
8
1-0
6
CONTINUOUS
62
3
100
AcDbLine
10
6286.720000000000
20
14557.600000000000
30
0.0
11
6317.310000000000
21
14529.290000000001
31
0.0
0
LINE
5
6ce
100
AcDbEntity
8
1-0
6
CONTINUOUS
62
3
100
AcDbLine
10
6317.310000000000
20
14529.290000000001
30
0.0
11
6349.060000000000
21
14501.700000000001
31
0.0
0
LINE
5
6cf
100
AcDbEntity
8
1-0
6
CONTINUOUS
62
3
100
AcDbLine
10
6349.060000000000
20
14501.700000000001
30
0.0
11
6381.950000000000
21
14474.780000000001
31
0.0
0
LINE
5
6d0
100
AcDbEntity
8
1-0
6
CONTINUOUS
62
3
100
AcDbLine
10
6381.950000000000
20
14474.780000000001
30
0.0
11
6415.930000000000
21
14448.600000000000
31
0.0
0
LINE
5
6d1
100
AcDbEntity
8
1-0
6
CONTINUOUS
62
3
100
AcDbLine
10
6415.930000000000
20
14448.600000000000
30
0.0
11
6450.920000000000
21
14423.270000000000
31
0.0
0
LINE
5
6d2
100
AcDbEntity
8
1-0
6
CONTINUOUS
62
3
100
AcDbLine
10
6450.920000000000
20
14423.270000000000
30
0.0
11
6486.800000000000
21
14398.910000000000
31
0.0
0
LINE
5
6d3
100
AcDbEntity
8
1-0
6
CONTINUOUS
62
3
100
AcDbLine
10
6486.800000000000
20
14398.910000000000
30
0.0
11
6523.560000000000
21
14375.570000000000
31
0.0
0
LINE
5
6d4
100
AcDbEntity
8
1-0
6
CONTINUOUS
62
3
100
AcDbLine
10
6523.560000000000
20
14375.570000000000
30
0.0
11
6561.050000000000
21
14353.379999999999
31
0.0
0
LINE
5
6d5
100
AcDbEntity
8
1-0
6
CONTINUOUS
62
3
100
AcDbLine
10
6561.050000000000
20
14353.379999999999
30
0.0
11
6599.230000000000
21
14332.379999999999
31
0.0
0
LINE
5
6d6
100
AcDbEntity
8
1-0
6
CONTINUOUS
62
3
100
AcDbLine
10
6599.230000000000
20
14332.379999999999
30
0.0
11
6637.990000000000
21
14312.730000000000
31
0.0
0
LINE
5
6d7
100
AcDbEntity
8
1-0
6
CONTINUOUS
62
3
100
AcDbLine
10
6637.990000000000
20
14312.730000000000
30
0.0
11
6677.250000000000
21
14294.540000000001
31
0.0
0
LINE
5
6d8
100
AcDbEntity
8
1-0
6
CONTINUOUS
62
3
100
AcDbLine
10
6677.250000000000
20
14294.540000000001
30
0.0
11
6716.920000000000
21
14277.820000000000
31
0.0
0
LINE
5
6d9
100
AcDbEntity
8
1-0
6
CONTINUOUS
62
3
100
AcDbLine
10
6716.920000000000
20
14277.820000000000
30
0.0
11
6756.930000000000
21
14262.740000000000
31
0.0
0
LINE
5
6da
100
AcDbEntity
8
1-0
6
CONTINUOUS
62
3
100
AcDbLine
10
6756.930000000000
20
14262.740000000000
30
0.0
11
6797.180000000000
21
14249.379999999999
31
0.0
0
LINE
5
6db
100
AcDbEntity
8
1-0
6
CONTINUOUS
62
3
100
AcDbLine
10
6797.180000000000
20
14249.379999999999
30
0.0
11
6837.600000000000
21
14237.840000000000
31
0.0
0
LINE
5
6dc
100
AcDbEntity
8
1-0
6
CONTINUOUS
62
3
100
AcDbLine
10
6837.600000000000
20
14237.840000000000
30
0.0
11
6878.090000000000
21
14228.200000000001
31
0.0
0
LINE
5
6dd
100
AcDbEntity
8
1-0
6
CONTINUOUS
62
3
100
AcDbLine
10
6878.090000000000
20
14228.200000000001
30
0.0
11
6918.570000000000
21
14220.570000000000
31
0.0
0
LINE
5
6de
100
AcDbEntity
8
1-0
6
CONTINUOUS
62
3
100
AcDbLine
10
6918.570000000000
20
14220.570000000000
30
0.0
11
6958.970000000000
21
14215.010000000000
31
0.0
0
LINE
5
6df
100
AcDbEntity
8
1-0
6
CONTINUOUS
62
3
100
AcDbLine
10
6958.970000000000
20
14215.010000000000
30
0.0
11
6999.190000000000
21
14211.660000000000
31
0.0
0
LINE
5
6e0
100
AcDbEntity
8
1-0
6
CONTINUOUS
62
3
100
AcDbLine
10
6999.190000000000
20
14211.660000000000
30
0.0
11
7039.160000000000
21
14210.620000000001
31
0.0
0
LINE
5
6e1
100
AcDbEntity
8
1-0
6
CONTINUOUS
62
3
100
AcDbLine
10
7039.160000000000
20
14210.620000000001
30
0.0
11
7078.770000000000
21
14211.959999999999
31
0.0
0
LINE
5
6e2
100
AcDbEntity
8
1-0
6
CONTINUOUS
62
3
100
AcDbLine
10
7078.770000000000
20
14211.959999999999
30
0.0
11
7117.950000000000
21
14215.750000000000
31
0.0
0
LINE
5
6e3
100
AcDbEntity
8
1-0
6
CONTINUOUS
62
3
100
AcDbLine
10
7117.950000000000
20
14215.750000000000
30
0.0
11
7156.620000000000
21
14222.160000000000
31
0.0
0
LINE
5
6e4
100
AcDbEntity
8
1-0
6
CONTINUOUS
62
3
100
AcDbLine
10
7156.620000000000
20
14222.160000000000
30
0.0
11
7194.690000000000
21
14231.250000000000
31
0.0
0
LINE
5
6e5
100
AcDbEntity
8
1-0
6
CONTINUOUS
62
3
100
AcDbLine
10
7194.690000000000
20
14231.250000000000
30
0.0
11
7232.070000000000
21
14243.090000000000
31
0.0
0
LINE
5
6e6
100
AcDbEntity
8
1-0
6
CONTINUOUS
62
3
100
AcDbLine
10
7232.070000000000
20
14243.090000000000
30
0.0
11
7268.740000000000
21
14257.740000000000
31
0.0
0
LINE
5
6e7
100
AcDbEntity
8
1-0
6
CONTINUOUS
62
3
100
AcDbLine
10
7268.740000000000
20
14257.740000000000
30
0.0
11
7304.770000000000
21
14274.680000000000
31
0.0
0
LINE
5
6e8
100
AcDbEntity
8
1-0
6
CONTINUOUS
62
3
100
AcDbLine
10
7304.770000000000
20
14274.680000000000
30
0.0
11
7340.350000000000
21
14293.260000000000
31
0.0
0
LINE
5
6e9
100
AcDbEntity
8
1-0
6
CONTINUOUS
62
3
100
AcDbLine
10
7340.350000000000
20
14293.260000000000
30
0.0
11
7375.660000000000
21
14312.920000000000
31
0.0
0
LINE
5
6ea
100
AcDbEntity
8
1-0
6
CONTINUOUS
62
3
100
AcDbLine
10
7375.660000000000
20
14312.920000000000
30
0.0
11
7398.360000000000
21
14325.850000000000
31
0.0
0
LINE
5
6eb
100
AcDbEntity
8
1-0
6
CONTINUOUS
62
3
100
AcDbLine
10
80182.020000000004
20
26449.110000000001
30
0.0
11
80643.690000000002
21
26645.939999999999
31
0.0
0
LINE
5
6ec
100
AcDbEntity
8
1-0
6
CONTINUOUS
62
3
100
AcDbLine
10
80643.690000000002
20
26645.939999999999
30
0.0
11
81143.520000000004
21
26675.630000000001
31
0.0
0
LINE
5
6ed
100
AcDbEntity
8
1-0
6
CONTINUOUS
62
3
100
AcDbLine
10
81143.520000000004
20
26675.630000000001
30
0.0
11
81653.449999999997
21
26649.070000000000
31
0.0
0
LINE
5
6ee
100
AcDbEntity
8
1-0
6
CONTINUOUS
62
3
100
AcDbLine
10
81653.449999999997
20
26649.070000000000
30
0.0
11
82120.929999999993
21
26779.340000000000
31
0.0
0
LINE
5
6ef
100
AcDbEntity
8
1-0
6
CONTINUOUS
62
3
100
AcDbLine
10
82120.929999999993
20
26779.340000000000
30
0.0
11
82547.779999999999
21
27042.849999999999
31
0.0
0
LINE
5
6f0
100
AcDbEntity
8
1-0
6
CONTINUOUS
62
3
100
AcDbLine
10
82547.779999999999
20
27042.849999999999
30
0.0
11
82930.710000000006
21
27400.270000000000
31
0.0
0
LINE
5
6f1
100
AcDbEntity
8
1-0
6
CONTINUOUS
62
3
100
AcDbLine
10
82930.710000000006
20
27400.270000000000
30
0.0
11
83276.820000000007
21
27827.240000000002
31
0.0
0
LINE
5
6f2
100
AcDbEntity
8
1-0
6
CONTINUOUS
62
3
100
AcDbLine
10
83276.820000000007
20
27827.240000000002
30
0.0
11
83694.630000000005
21
27959.320000000000
31
0.0
0
LINE
5
6f3
100
AcDbEntity
8
1-0
6
CONTINUOUS
62
3
100
AcDbLine
10
83694.630000000005
20
27959.320000000000
30
0.0
11
84175.089999999997
21
27854.040000000001
31
0.0
0
LINE
5
6f4
100
AcDbEntity
8
1-0
6
CONTINUOUS
62
3
100
AcDbLine
10
84175.089999999997
20
27854.040000000001
30
0.0
11
84531.850000000006
21
28195.990000000002
31
0.0
0
LINE
5
6f5
100
AcDbEntity
8
1-0
6
CONTINUOUS
62
3
100
AcDbLine
10
84531.850000000006
20
28195.990000000002
30
0.0
11
84627.009999999995
21
28354.139999999999
31
0.0
0
LINE
5
6f6
100
AcDbEntity
8
1-0
6
CONTINUOUS
62
3
100
AcDbLine
10
83477.070000000007
20
19965.139999999999
30
0.0
11
83330.139999999999
21
19542.240000000002
31
0.0
0
LINE
5
6f7
100
AcDbEntity
8
1-0
6
CONTINUOUS
62
3
100
AcDbLine
10
83330.139999999999
20
19542.240000000002
30
0.0
11
83623.250000000000
21
19141.279999999999
31
0.0
0
LINE
5
6f8
100
AcDbEntity
8
1-0
6
CONTINUOUS
62
3
100
AcDbLine
10
83623.250000000000
20
19141.279999999999
30
0.0
11
83834.750000000000
21
18691.439999999999
31
0.0
0
LINE
5
6f9
100
AcDbEntity
8
1-0
6
CONTINUOUS
62
3
100
AcDbLine
10
83834.750000000000
20
18691.439999999999
30
0.0
11
83996.830000000002
21
18209.220000000001
31
0.0
0
LINE
5
6fa
100
AcDbEntity
8
1-0
6
CONTINUOUS
62
3
100
AcDbLine
10
83996.830000000002
20
18209.220000000001
30
0.0
11
84169.759999999995
21
17731.939999999999
31
0.0
0
LINE
5
6fb
100
AcDbEntity
8
1-0
6
CONTINUOUS
62
3
100
AcDbLine
10
84169.759999999995
20
17731.939999999999
30
0.0
11
84372.149999999994
21
17273.119999999999
31
0.0
0
LINE
5
6fc
100
AcDbEntity
8
1-0
6
CONTINUOUS
62
3
100
AcDbLine
10
84372.149999999994
20
17273.119999999999
30
0.0
11
84570.779999999999
21
16816.880000000001
31
0.0
0
LINE
5
6fd
100
AcDbEntity
8
1-0
6
CONTINUOUS
62
3
100
AcDbLine
10
84570.779999999999
20
16816.880000000001
30
0.0
11
84732.500000000000
21
16346.910000000000
31
0.0
0
LINE
5
6fe
100
AcDbEntity
8
1-0
6
CONTINUOUS
62
3
100
AcDbLine
10
84732.500000000000
20
16346.910000000000
30
0.0
11
84860.649999999994
21
15863.280000000001
31
0.0
0
LINE
5
6ff
100
AcDbEntity
8
1-0
6
CONTINUOUS
62
3
100
AcDbLine
10
84860.649999999994
20
15863.280000000001
30
0.0
11
84980.970000000001
21
15376.160000000000
31
0.0
0
LINE
5
700
100
AcDbEntity
8
1-0
6
CONTINUOUS
62
3
100
AcDbLine
10
84980.970000000001
20
15376.160000000000
30
0.0
11
85115.399999999994
21
14894.240000000000
31
0.0
0
LINE
5
701
100
AcDbEntity
8
1-0
6
CONTINUOUS
62
3
100
AcDbLine
10
85115.399999999994
20
14894.240000000000
30
0.0
11
85253.869999999995
21
14413.940000000001
31
0.0
0
LINE
5
702
100
AcDbEntity
8
1-0
6
CONTINUOUS
62
3
100
AcDbLine
10
85253.869999999995
20
14413.940000000001
30
0.0
11
85377.460000000006
21
13928.190000000001
31
0.0
0
LINE
5
703
100
AcDbEntity
8
1-0
6
CONTINUOUS
62
3
100
AcDbLine
10
85377.460000000006
20
13928.190000000001
30
0.0
11
85495.770000000004
21
13440.570000000000
31
0.0
0
LINE
5
704
100
AcDbEntity
8
1-0
6
CONTINUOUS
62
3
100
AcDbLine
10
85495.770000000004
20
13440.570000000000
30
0.0
11
85627.029999999999
21
12957.889999999999
31
0.0
0
LINE
5
705
100
AcDbEntity
8
1-0
6
CONTINUOUS
62
3
100
AcDbLine
10
85627.029999999999
20
12957.889999999999
30
0.0
11
85789.520000000004
21
12486.910000000000
31
0.0
0
LINE
5
706
100
AcDbEntity
8
1-0
6
CONTINUOUS
62
3
100
AcDbLine
10
85789.520000000004
20
12486.910000000000
30
0.0
11
85990.529999999999
21
12030.120000000001
31
0.0
0
LINE
5
707
100
AcDbEntity
8
1-0
6
CONTINUOUS
62
3
100
AcDbLine
10
85990.529999999999
20
12030.120000000001
30
0.0
11
86192.270000000004
21
11572.080000000000
31
0.0
0
LINE
5
708
100
AcDbEntity
8
1-0
6
CONTINUOUS
62
3
100
AcDbLine
10
86192.270000000004
20
11572.080000000000
30
0.0
11
86348.889999999999
21
11094.350000000000
31
0.0
0
LINE
5
709
100
AcDbEntity
8
1-0
6
CONTINUOUS
62
3
100
AcDbLine
10
86348.889999999999
20
11094.350000000000
30
0.0
11
86496.839999999997
21
10618.820000000000
31
0.0
0
LINE
5
70a
100
AcDbEntity
8
1-0
6
CONTINUOUS
62
6
100
AcDbLine
10
6682.560000000000
20
16031.629999999999
30
0.0
11
6758.400000000000
21
15846.330000000000
31
0.0
0
LINE
5
70b
100
AcDbEntity
8
1-0
6
CONTINUOUS
62
6
100
AcDbLine
10
6758.400000000000
20
15846.330000000000
30
0.0
11
6834.700000000000
21
15661.270000000000
31
0.0
0
LINE
5
70c
100
AcDbEntity
8
1-0
6
CONTINUOUS
62
6
100
AcDbLine
10
6834.700000000000
20
15661.270000000000
30
0.0
11
6911.910000000000
21
15476.670000000000
31
0.0
0
LINE
5
70d
100
AcDbEntity
8
1-0
6
CONTINUOUS
62
6
100
AcDbLine
10
6911.910000000000
20
15476.670000000000
30
0.0
11
6990.510000000000
21
15292.830000000000
31
0.0
0
LINE
5
70e
100
AcDbEntity
8
1-0
6
CONTINUOUS
62
6
100
AcDbLine
10
6990.510000000000
20
15292.830000000000
30
0.0
11
7070.950000000000
21
15109.910000000000
31
0.0
0
LINE
5
70f
100
AcDbEntity
8
1-0
6
CONTINUOUS
62
6
100
AcDbLine
10
7070.950000000000
20
15109.910000000000
30
0.0
11
7153.670000000000
21
14928.209999999999
31
0.0
0
LINE
5
710
100
AcDbEntity
8
1-0
6
CONTINUOUS
62
6
100
AcDbLine
10
7153.670000000000
20
14928.209999999999
30
0.0
11
7238.540000000000
21
14747.549999999999
31
0.0
0
LINE
5
711
100
AcDbEntity
8
1-0
6
CONTINUOUS
62
6
100
AcDbLine
10
7238.540000000000
20
14747.549999999999
30
0.0
11
7324.690000000000
21
14567.400000000000
31
0.0
0
LINE
5
712
100
AcDbEntity
8
1-0
6
CONTINUOUS
62
6
100
AcDbLine
10
7324.690000000000
20
14567.400000000000
30
0.0
11
7411.270000000000
21
14387.129999999999
31
0.0
0
LINE
5
713
100
AcDbEntity
8
1-0
6
CONTINUOUS
62
6
100
AcDbLine
10
7411.270000000000
20
14387.129999999999
30
0.0
11
7497.330000000000
21
14206.230000000000
31
0.0
0
LINE
5
714
100
AcDbEntity
8
1-0
6
CONTINUOUS
62
6
100
AcDbLine
10
7497.330000000000
20
14206.230000000000
30
0.0
11
7582.070000000000
21
14024.040000000001
31
0.0
0
LINE
5
715
100
AcDbEntity
8
1-0
6
CONTINUOUS
62
6
100
AcDbLine
10
7582.070000000000
20
14024.040000000001
30
0.0
11
7666.500000000000
21
13841.420000000000
31
0.0
0
LINE
5
716
100
AcDbEntity
8
1-0
6
CONTINUOUS
62
6
100
AcDbLine
10
7666.500000000000
20
13841.420000000000
30
0.0
11
7754.770000000000
21
13661.330000000000
31
0.0
0
LINE
5
717
100
AcDbEntity
8
1-0
6
CONTINUOUS
62
6
100
AcDbLine
10
7754.770000000000
20
13661.330000000000
30
0.0
11
7851.290000000000
21
13487.020000000000
31
0.0
0
LINE
5
718
100
AcDbEntity
8
1-0
6
CONTINUOUS
62
6
100
AcDbLine
10
7851.290000000000
20
13487.020000000000
30
0.0
11
7960.270000000000
21
13321.520000000000
31
0.0
0
LINE
5
719
100
AcDbEntity
8
1-0
6
CONTINUOUS
62
6
100
AcDbLine
10
7960.270000000000
20
13321.520000000000
30
0.0
11
8082.370000000000
21
13165.360000000001
31
0.0
0
LINE
5
71a
100
AcDbEntity
8
1-0
6
CONTINUOUS
62
6
100
AcDbLine
10
8082.370000000000
20
13165.360000000001
30
0.0
11
8215.260000000000
21
13016.920000000000
31
0.0
0
LINE
5
71b
100
AcDbEntity
8
1-0
6
CONTINUOUS
62
6
100
AcDbLine
10
8215.260000000000
20
13016.920000000000
30
0.0
11
8356.549999999999
21
12874.500000000000
31
0.0
0
LINE
5
71c
100
AcDbEntity
8
1-0
6
CONTINUOUS
62
6
100
AcDbLine
10
8356.549999999999
20
12874.500000000000
30
0.0
11
8503.830000000000
21
12736.469999999999
31
0.0
0
LINE
5
71d
100
AcDbEntity
8
1-0
6
CONTINUOUS
62
6
100
AcDbLine
10
8503.830000000000
20
12736.469999999999
30
0.0
11
8654.690000000001
21
12601.090000000000
31
0.0
0
LINE
5
71e
100
AcDbEntity
8
1-0
6
CONTINUOUS
62
6
100
AcDbLine
10
8654.690000000001
20
12601.090000000000
30
0.0
11
8806.719999999999
21
12466.719999999999
31
0.0
0
LINE
5
71f
100
AcDbEntity
8
1-0
6
CONTINUOUS
62
6
100
AcDbLine
10
8806.719999999999
20
12466.719999999999
30
0.0
11
8963.110000000001
21
12341.450000000001
31
0.0
0
LINE
5
720
100
AcDbEntity
8
1-0
6
CONTINUOUS
62
6
100
AcDbLine
10
8963.110000000001
20
12341.450000000001
30
0.0
11
9140.100000000000
21
12255.420000000000
31
0.0
0
LINE
5
721
100
AcDbEntity
8
1-0
6
CONTINUOUS
62
6
100
AcDbLine
10
9140.100000000000
20
12255.420000000000
30
0.0
11
9333.799999999999
21
12200.490000000000
31
0.0
0
LINE
5
722
100
AcDbEntity
8
1-0
6
CONTINUOUS
62
6
100
AcDbLine
10
9333.799999999999
20
12200.490000000000
30
0.0
11
9530.870000000001
21
12150.650000000000
31
0.0
0
LINE
5
723
100
AcDbEntity
8
1-0
6
CONTINUOUS
62
6
100
AcDbLine
10
9530.870000000001
20
12150.650000000000
30
0.0
11
9722.510000000000
21
12089.280000000001
31
0.0
0
LINE
5
724
100
AcDbEntity
8
1-0
6
CONTINUOUS
62
6
100
AcDbLine
10
9722.510000000000
20
12089.280000000001
30
0.0
11
9910.780000000001
21
12022.270000000000
31
0.0
0
LINE
5
725
100
AcDbEntity
8
1-0
6
CONTINUOUS
62
6
100
AcDbLine
10
9910.780000000001
20
12022.270000000000
30
0.0
11
10099.309999999999
21
11958.730000000000
31
0.0
0
LINE
5
726
100
AcDbEntity
8
1-0
6
CONTINUOUS
62
6
100
AcDbLine
10
10099.309999999999
20
11958.730000000000
30
0.0
11
10291.430000000000
21
11907.150000000000
31
0.0
0
LINE
5
727
100
AcDbEntity
8
1-0
6
CONTINUOUS
62
6
100
AcDbLine
10
10291.430000000000
20
11907.150000000000
30
0.0
11
10487.690000000001
21
11869.830000000000
31
0.0
0
LINE
5
728
100
AcDbEntity
8
1-0
6
CONTINUOUS
62
6
100
AcDbLine
10
10487.690000000001
20
11869.830000000000
30
0.0
11
10687.030000000001
21
11845.719999999999
31
0.0
0
LINE
5
729
100
AcDbEntity
8
1-0
6
CONTINUOUS
62
6
100
AcDbLine
10
10687.030000000001
20
11845.719999999999
30
0.0
11
10888.420000000000
21
11833.730000000000
31
0.0
0
LINE
5
72a
100
AcDbEntity
8
1-0
6
CONTINUOUS
62
6
100
AcDbLine
10
10888.420000000000
20
11833.730000000000
30
0.0
11
11090.780000000001
21
11832.809999999999
31
0.0
0
LINE
5
72b
100
AcDbEntity
8
1-0
6
CONTINUOUS
62
6
100
AcDbLine
10
11090.780000000001
20
11832.809999999999
30
0.0
11
11293.110000000001
21
11841.870000000001
31
0.0
0
LINE
5
72c
100
AcDbEntity
8
1-0
6
CONTINUOUS
62
6
100
AcDbLine
10
11293.110000000001
20
11841.870000000001
30
0.0
11
11494.309999999999
21
11859.790000000001
31
0.0
0
LINE
5
72d
100
AcDbEntity
8
1-0
6
CONTINUOUS
62
6
100
AcDbLine
10
11494.309999999999
20
11859.790000000001
30
0.0
11
11693.530000000001
21
11885.670000000000
31
0.0
0
LINE
5
72e
100
AcDbEntity
8
1-0
6
CONTINUOUS
62
6
100
AcDbLine
10
11693.530000000001
20
11885.670000000000
30
0.0
11
11890.670000000000
21
11919.480000000000
31
0.0
0
LINE
5
72f
100
AcDbEntity
8
1-0
6
CONTINUOUS
62
6
100
AcDbLine
10
11890.670000000000
20
11919.480000000000
30
0.0
11
12086.000000000000
21
11961.570000000000
31
0.0
0
LINE
5
730
100
AcDbEntity
8
1-0
6
CONTINUOUS
62
6
100
AcDbLine
10
12086.000000000000
20
11961.570000000000
30
0.0
11
12279.760000000000
21
12012.260000000000
31
0.0
0
LINE
5
731
100
AcDbEntity
8
1-0
6
CONTINUOUS
62
6
100
AcDbLine
10
12279.760000000000
20
12012.260000000000
30
0.0
11
12471.500000000000
21
12072.340000000000
31
0.0
0
LINE
5
732
100
AcDbEntity
8
1-0
6
CONTINUOUS
62
6
100
AcDbLine
10
12471.500000000000
20
12072.340000000000
30
0.0
11
12659.290000000001
21
12143.540000000001
31
0.0
0
LINE
5
733
100
AcDbEntity
8
1-0
6
CONTINUOUS
62
6
100
AcDbLine
10
12659.290000000001
20
12143.540000000001
30
0.0
11
12841.020000000000
21
12227.680000000000
31
0.0
0
LINE
5
734
100
AcDbEntity
8
1-0
6
CONTINUOUS
62
6
100
AcDbLine
10
12841.020000000000
20
12227.680000000000
30
0.0
11
13014.670000000000
21
12326.559999999999
31
0.0
0
LINE
5
735
100
AcDbEntity
8
1-0
6
CONTINUOUS
62
6
100
AcDbLine
10
13014.670000000000
20
12326.559999999999
30
0.0
11
13180.969999999999
21
12438.370000000001
31
0.0
0
LINE
5
736
100
AcDbEntity
8
1-0
6
CONTINUOUS
62
6
100
AcDbLine
10
13180.969999999999
20
12438.370000000001
30
0.0
11
13341.860000000001
21
12559.370000000001
31
0.0
0
LINE
5
737
100
AcDbEntity
8
1-0
6
CONTINUOUS
62
6
100
AcDbLine
10
13341.860000000001
20
12559.370000000001
30
0.0
11
13496.020000000000
21
12689.379999999999
31
0.0
0
LINE
5
738
100
AcDbEntity
8
1-0
6
CONTINUOUS
62
6
100
AcDbLine
10
13496.020000000000
20
12689.379999999999
30
0.0
11
13641.879999999999
21
12828.360000000001
31
0.0
0
LINE
5
739
100
AcDbEntity
8
1-0
6
CONTINUOUS
62
6
100
AcDbLine
10
13641.879999999999
20
12828.360000000001
30
0.0
11
13777.940000000001
21
12976.280000000001
31
0.0
0
LINE
5
73a
100
AcDbEntity
8
1-0
6
CONTINUOUS
62
6
100
AcDbLine
10
13777.940000000001
20
12976.280000000001
30
0.0
11
13902.670000000000
21
13133.139999999999
31
0.0
0
LINE
5
73b
100
AcDbEntity
8
1-0
6
CONTINUOUS
62
6
100
AcDbLine
10
13902.670000000000
20
13133.139999999999
30
0.0
11
14014.760000000000
21
13298.780000000001
31
0.0
0
LINE
5
73c
100
AcDbEntity
8
1-0
6
CONTINUOUS
62
6
100
AcDbLine
10
14014.760000000000
20
13298.780000000001
30
0.0
11
14115.830000000000
21
13471.510000000000
31
0.0
0
LINE
5
73d
100
AcDbEntity
8
1-0
6
CONTINUOUS
62
6
100
AcDbLine
10
14115.830000000000
20
13471.510000000000
30
0.0
11
14209.200000000001
21
13648.670000000000
31
0.0
0
LINE
5
73e
100
AcDbEntity
8
1-0
6
CONTINUOUS
62
6
100
AcDbLine
10
14209.200000000001
20
13648.670000000000
30
0.0
11
14297.850000000000
21
13827.990000000000
31
0.0
0
LINE
5
73f
100
AcDbEntity
8
1-0
6
CONTINUOUS
62
6
100
AcDbLine
10
14297.850000000000
20
13827.990000000000
30
0.0
11
14383.790000000001
21
14008.559999999999
31
0.0
0
LINE
5
740
100
AcDbEntity
8
1-0
6
CONTINUOUS
62
6
100
AcDbLine
10
14383.790000000001
20
14008.559999999999
30
0.0
11
14468.799999999999
21
14189.590000000000
31
0.0
0
LINE
5
741
100
AcDbEntity
8
1-0
6
CONTINUOUS
62
6
100
AcDbLine
10
14468.799999999999
20
14189.590000000000
30
0.0
11
14554.100000000000
21
14370.620000000001
31
0.0
0
LINE
5
742
100
AcDbEntity
8
1-0
6
CONTINUOUS
62
6
100
AcDbLine
10
14554.100000000000
20
14370.620000000001
30
0.0
11
14638.580000000000
21
14552.049999999999
31
0.0
0
LINE
5
743
100
AcDbEntity
8
1-0
6
CONTINUOUS
62
6
100
AcDbLine
10
14638.580000000000
20
14552.049999999999
30
0.0
11
14720.639999999999
21
14734.420000000000
31
0.0
0
LINE
5
744
100
AcDbEntity
8
1-0
6
CONTINUOUS
62
6
100
AcDbLine
10
14720.639999999999
20
14734.420000000000
30
0.0
11
14798.660000000000
21
14918.350000000000
31
0.0
0
LINE
5
745
100
AcDbEntity
8
1-0
6
CONTINUOUS
62
6
100
AcDbLine
10
14798.660000000000
20
14918.350000000000
30
0.0
11
14871.459999999999
21
15104.200000000001
31
0.0
0
LINE
5
746
100
AcDbEntity
8
1-0
6
CONTINUOUS
62
6
100
AcDbLine
10
14871.459999999999
20
15104.200000000001
30
0.0
11
14939.180000000000
21
15291.980000000000
31
0.0
0
LINE
5
747
100
AcDbEntity
8
1-0
6
CONTINUOUS
62
6
100
AcDbLine
10
14939.180000000000
20
15291.980000000000
30
0.0
11
15002.170000000000
21
15481.549999999999
31
0.0
0
LINE
5
748
100
AcDbEntity
8
1-0
6
CONTINUOUS
62
6
100
AcDbLine
10
15002.170000000000
20
15481.549999999999
30
0.0
11
15060.719999999999
21
15672.809999999999
31
0.0
0
LINE
5
749
100
AcDbEntity
8
1-0
6
CONTINUOUS
62
6
100
AcDbLine
10
15060.719999999999
20
15672.809999999999
30
0.0
11
15115.180000000000
21
15865.620000000001
31
0.0
0
LINE
5
74a
100
AcDbEntity
8
1-0
6
CONTINUOUS
62
6
100
AcDbLine
10
15115.180000000000
20
15865.620000000001
30
0.0
11
15165.900000000000
21
16059.889999999999
31
0.0
0
LINE
5
74b
100
AcDbEntity
8
1-0
6
CONTINUOUS
62
6
100
AcDbLine
10
15165.900000000000
20
16059.889999999999
30
0.0
11
15213.200000000001
21
16255.480000000000
31
0.0
0
LINE
5
74c
100
AcDbEntity
8
1-0
6
CONTINUOUS
62
6
100
AcDbLine
10
15213.200000000001
20
16255.480000000000
30
0.0
11
15257.690000000001
21
16452.169999999998
31
0.0
0
LINE
5
74d
100
AcDbEntity
8
1-0
6
CONTINUOUS
62
6
100
AcDbLine
10
15257.690000000001
20
16452.169999999998
30
0.0
11
15302.330000000000
21
16648.759999999998
31
0.0
0
LINE
5
74e
100
AcDbEntity
8
1-0
6
CONTINUOUS
62
6
100
AcDbLine
10
15302.330000000000
20
16648.759999999998
30
0.0
11
15351.370000000001
21
16843.490000000002
31
0.0
0
LINE
5
74f
100
AcDbEntity
8
1-0
6
CONTINUOUS
62
6
100
AcDbLine
10
15351.370000000001
20
16843.490000000002
30
0.0
11
15409.049999999999
21
17034.660000000000
31
0.0
0
LINE
5
750
100
AcDbEntity
8
1-0
6
CONTINUOUS
62
6
100
AcDbLine
10
15409.049999999999
20
17034.660000000000
30
0.0
11
15479.590000000000
21
17220.509999999998
31
0.0
0
LINE
5
751
100
AcDbEntity
8
1-0
6
CONTINUOUS
62
6
100
AcDbLine
10
15479.590000000000
20
17220.509999999998
30
0.0
11
15566.129999999999
21
17399.799999999999
31
0.0
0
LINE
5
752
100
AcDbEntity
8
1-0
6
CONTINUOUS
62
6
100
AcDbLine
10
15566.129999999999
20
17399.799999999999
30
0.0
11
15661.930000000000
21
17575.669999999998
31
0.0
0
LINE
5
753
100
AcDbEntity
8
1-0
6
CONTINUOUS
62
6
100
AcDbLine
10
15661.930000000000
20
17575.669999999998
30
0.0
11
15755.750000000000
21
17753.160000000000
31
0.0
0
LINE
5
754
100
AcDbEntity
8
1-0
6
CONTINUOUS
62
6
100
AcDbLine
10
15755.750000000000
20
17753.160000000000
30
0.0
11
15846.709999999999
21
17931.720000000001
31
0.0
0
LINE
5
755
100
AcDbEntity
8
1-0
6
CONTINUOUS
62
6
100
AcDbLine
10
15846.709999999999
20
17931.720000000001
30
0.0
11
15944.860000000001
21
18104.720000000001
31
0.0
0
LINE
5
756
100
AcDbEntity
8
1-0
6
CONTINUOUS
62
6
100
AcDbLine
10
15944.860000000001
20
18104.720000000001
30
0.0
11
16057.040000000001
21
18267.720000000001
31
0.0
0
LINE
5
757
100
AcDbEntity
8
1-0
6
CONTINUOUS
62
6
100
AcDbLine
10
16057.040000000001
20
18267.720000000001
30
0.0
11
16182.160000000000
21
18421.470000000001
31
0.0
0
LINE
5
758
100
AcDbEntity
8
1-0
6
CONTINUOUS
62
6
100
AcDbLine
10
16182.160000000000
20
18421.470000000001
30
0.0
11
16318.120000000001
21
18567.369999999999
31
0.0
0
LINE
5
759
100
AcDbEntity
8
1-0
6
CONTINUOUS
62
6
100
AcDbLine
10
16318.120000000001
20
18567.369999999999
30
0.0
11
16462.740000000002
21
18706.869999999999
31
0.0
0
LINE
5
75a
100
AcDbEntity
8
1-0
6
CONTINUOUS
62
6
100
AcDbLine
10
16462.740000000002
20
18706.869999999999
30
0.0
11
16613.930000000000
21
18841.389999999999
31
0.0
0
LINE
5
75b
100
AcDbEntity
8
1-0
6
CONTINUOUS
62
6
100
AcDbLine
10
16613.930000000000
20
18841.389999999999
30
0.0
11
16769.500000000000
21
18972.400000000001
31
0.0
0
LINE
5
75c
100
AcDbEntity
8
1-0
6
CONTINUOUS
62
6
100
AcDbLine
10
16769.500000000000
20
18972.400000000001
30
0.0
11
16927.369999999999
21
19101.279999999999
31
0.0
0
LINE
5
75d
100
AcDbEntity
8
1-0
6
CONTINUOUS
62
6
100
AcDbLine
10
16927.369999999999
20
19101.279999999999
30
0.0
11
17085.360000000001
21
19229.480000000000
31
0.0
0
LINE
5
75e
100
AcDbEntity
8
1-0
6
CONTINUOUS
62
6
100
AcDbLine
10
17085.360000000001
20
19229.480000000000
30
0.0
11
17242.009999999998
21
19357.930000000000
31
0.0
0
LINE
5
75f
100
AcDbEntity
8
1-0
6
CONTINUOUS
62
6
100
AcDbLine
10
17242.009999999998
20
19357.930000000000
30
0.0
11
17397.680000000000
21
19486.189999999999
31
0.0
0
LINE
5
760
100
AcDbEntity
8
1-0
6
CONTINUOUS
62
6
100
AcDbLine
10
17397.680000000000
20
19486.189999999999
30
0.0
11
17553.040000000001
21
19613.509999999998
31
0.0
0
LINE
5
761
100
AcDbEntity
8
1-0
6
CONTINUOUS
62
6
100
AcDbLine
10
17553.040000000001
20
19613.509999999998
30
0.0
11
17708.759999999998
21
19739.250000000000
31
0.0
0
LINE
5
762
100
AcDbEntity
8
1-0
6
CONTINUOUS
62
6
100
AcDbLine
10
17708.759999999998
20
19739.250000000000
30
0.0
11
17865.500000000000
21
19862.660000000000
31
0.0
0
LINE
5
763
100
AcDbEntity
8
1-0
6
CONTINUOUS
62
6
100
AcDbLine
10
17865.500000000000
20
19862.660000000000
30
0.0
11
18023.930000000000
21
19983.049999999999
31
0.0
0
LINE
5
764
100
AcDbEntity
8
1-0
6
CONTINUOUS
62
6
100
AcDbLine
10
18023.930000000000
20
19983.049999999999
30
0.0
11
18184.709999999999
21
20099.750000000000
31
0.0
0
LINE
5
765
100
AcDbEntity
8
1-0
6
CONTINUOUS
62
6
100
AcDbLine
10
18184.709999999999
20
20099.750000000000
30
0.0
11
18348.529999999999
21
20212.020000000000
31
0.0
0
LINE
5
766
100
AcDbEntity
8
1-0
6
CONTINUOUS
62
6
100
AcDbLine
10
18348.529999999999
20
20212.020000000000
30
0.0
11
18515.980000000000
21
20319.259999999998
31
0.0
0
LINE
5
767
100
AcDbEntity
8
1-0
6
CONTINUOUS
62
6
100
AcDbLine
10
18515.980000000000
20
20319.259999999998
30
0.0
11
18686.740000000002
21
20422.049999999999
31
0.0
0
LINE
5
768
100
AcDbEntity
8
1-0
6
CONTINUOUS
62
6
100
AcDbLine
10
18686.740000000002
20
20422.049999999999
30
0.0
11
18859.910000000000
21
20521.720000000001
31
0.0
0
LINE
5
769
100
AcDbEntity
8
1-0
6
CONTINUOUS
62
6
100
AcDbLine
10
18859.910000000000
20
20521.720000000001
30
0.0
11
19034.520000000000
21
20619.650000000001
31
0.0
0
LINE
5
76a
100
AcDbEntity
8
1-0
6
CONTINUOUS
62
6
100
AcDbLine
10
19034.520000000000
20
20619.650000000001
30
0.0
11
19209.610000000001
21
20717.180000000000
31
0.0
0
LINE
5
76b
100
AcDbEntity
8
1-0
6
CONTINUOUS
62
6
100
AcDbLine
10
19209.610000000001
20
20717.180000000000
30
0.0
11
19384.259999999998
21
20815.720000000001
31
0.0
0
LINE
5
76c
100
AcDbEntity
8
1-0
6
CONTINUOUS
62
6
100
AcDbLine
10
19384.259999999998
20
20815.720000000001
30
0.0
11
19557.529999999999
21
20916.639999999999
31
0.0
0
LINE
5
76d
100
AcDbEntity
8
1-0
6
CONTINUOUS
62
6
100
AcDbLine
10
19557.529999999999
20
20916.639999999999
30
0.0
11
19728.610000000001
21
21021.049999999999
31
0.0
0
LINE
5
76e
100
AcDbEntity
8
1-0
6
CONTINUOUS
62
6
100
AcDbLine
10
19728.610000000001
20
21021.049999999999
30
0.0
11
19897.919999999998
21
21128.099999999999
31
0.0
0
LINE
5
76f
100
AcDbEntity
8
1-0
6
CONTINUOUS
62
6
100
AcDbLine
10
19897.919999999998
20
21128.099999999999
30
0.0
11
20066.439999999999
21
21236.259999999998
31
0.0
0
LINE
5
770
100
AcDbEntity
8
1-0
6
CONTINUOUS
62
6
100
AcDbLine
10
20066.439999999999
20
21236.259999999998
30
0.0
11
20235.139999999999
21
21343.740000000002
31
0.0
0
LINE
5
771
100
AcDbEntity
8
1-0
6
CONTINUOUS
62
6
100
AcDbLine
10
20235.139999999999
20
21343.740000000002
30
0.0
11
20404.970000000001
21
21448.990000000002
31
0.0
0
LINE
5
772
100
AcDbEntity
8
1-0
6
CONTINUOUS
62
6
100
AcDbLine
10
20404.970000000001
20
21448.990000000002
30
0.0
11
20576.889999999999
21
21550.310000000001
31
0.0
0
LINE
5
773
100
AcDbEntity
8
1-0
6
CONTINUOUS
62
6
100
AcDbLine
10
20576.889999999999
20
21550.310000000001
30
0.0
11
20751.770000000000
21
21646.230000000000
31
0.0
0
LINE
5
774
100
AcDbEntity
8
1-0
6
CONTINUOUS
62
6
100
AcDbLine
10
20751.770000000000
20
21646.230000000000
30
0.0
11
20929.520000000000
21
21737.020000000000
31
0.0
0
LINE
5
775
100
AcDbEntity
8
1-0
6
CONTINUOUS
62
6
100
AcDbLine
10
20929.520000000000
20
21737.020000000000
30
0.0
11
21109.529999999999
21
21823.720000000001
31
0.0
0
LINE
5
776
100
AcDbEntity
8
1-0
6
CONTINUOUS
62
6
100
AcDbLine
10
21109.529999999999
20
21823.720000000001
30
0.0
11
21291.160000000000
21
21907.549999999999
31
0.0
0
LINE
5
777
100
AcDbEntity
8
1-0
6
CONTINUOUS
62
6
100
AcDbLine
10
21291.160000000000
20
21907.549999999999
30
0.0
11
21473.820000000000
21
21989.610000000001
31
0.0
0
LINE
5
778
100
AcDbEntity
8
1-0
6
CONTINUOUS
62
6
100
AcDbLine
10
21473.820000000000
20
21989.610000000001
30
0.0
11
21656.880000000001
21
22071.029999999999
31
0.0
0
LINE
5
779
100
AcDbEntity
8
1-0
6
CONTINUOUS
62
6
100
AcDbLine
10
21656.880000000001
20
22071.029999999999
30
0.0
11
21839.740000000002
21
22152.939999999999
31
0.0
0
LINE
5
77a
100
AcDbEntity
8
1-0
6
CONTINUOUS
62
6
100
AcDbLine
10
21839.740000000002
20
22152.939999999999
30
0.0
11
22021.759999999998
21
22236.500000000000
31
0.0
0
LINE
5
77b
100
AcDbEntity
8
1-0
6
CONTINUOUS
62
6
100
AcDbLine
10
22021.759999999998
20
22236.500000000000
30
0.0
11
22202.369999999999
21
22322.830000000002
31
0.0
0
LINE
5
77c
100
AcDbEntity
8
1-0
6
CONTINUOUS
62
6
100
AcDbLine
10
22202.369999999999
20
22322.830000000002
30
0.0
11
22380.959999999999
21
22412.980000000000
31
0.0
0
LINE
5
77d
100
AcDbEntity
8
1-0
6
CONTINUOUS
62
6
100
AcDbLine
10
22380.959999999999
20
22412.980000000000
30
0.0
11
22557.590000000000
21
22506.860000000001
31
0.0
0
LINE
5
77e
100
AcDbEntity
8
1-0
6
CONTINUOUS
62
6
100
AcDbLine
10
22557.590000000000
20
22506.860000000001
30
0.0
11
22732.730000000000
21
22603.500000000000
31
0.0
0
LINE
5
77f
100
AcDbEntity
8
1-0
6
CONTINUOUS
62
6
100
AcDbLine
10
22732.730000000000
20
22603.500000000000
30
0.0
11
22906.860000000001
21
22702.099999999999
31
0.0
0
LINE
5
780
100
AcDbEntity
8
1-0
6
CONTINUOUS
62
6
100
AcDbLine
10
22906.860000000001
20
22702.099999999999
30
0.0
11
23080.430000000000
21
22801.680000000000
31
0.0
0
LINE
5
781
100
AcDbEntity
8
1-0
6
CONTINUOUS
62
6
100
AcDbLine
10
23080.430000000000
20
22801.680000000000
30
0.0
11
23253.910000000000
21
22901.419999999998
31
0.0
0
LINE
5
782
100
AcDbEntity
8
1-0
6
CONTINUOUS
62
6
100
AcDbLine
10
23253.910000000000
20
22901.419999999998
30
0.0
11
23427.779999999999
21
23000.320000000000
31
0.0
0
LINE
5
783
100
AcDbEntity
8
1-0
6
CONTINUOUS
62
6
100
AcDbLine
10
23427.779999999999
20
23000.320000000000
30
0.0
11
23602.509999999998
21
23097.580000000002
31
0.0
0
LINE
5
784
100
AcDbEntity
8
1-0
6
CONTINUOUS
62
6
100
AcDbLine
10
23602.509999999998
20
23097.580000000002
30
0.0
11
23778.560000000001
21
23192.220000000001
31
0.0
0
LINE
5
785
100
AcDbEntity
8
1-0
6
CONTINUOUS
62
6
100
AcDbLine
10
23778.560000000001
20
23192.220000000001
30
0.0
11
23956.400000000001
21
23283.400000000001
31
0.0
0
LINE
5
786
100
AcDbEntity
8
1-0
6
CONTINUOUS
62
6
100
AcDbLine
10
23956.400000000001
20
23283.400000000001
30
0.0
11
24136.099999999999
21
23370.900000000001
31
0.0
0
LINE
5
787
100
AcDbEntity
8
1-0
6
CONTINUOUS
62
6
100
AcDbLine
10
24136.099999999999
20
23370.900000000001
30
0.0
11
24317.500000000000
21
23454.970000000001
31
0.0
0
LINE
5
788
100
AcDbEntity
8
1-0
6
CONTINUOUS
62
6
100
AcDbLine
10
24317.500000000000
20
23454.970000000001
30
0.0
11
24500.430000000000
21
23536.000000000000
31
0.0
0
LINE
5
789
100
AcDbEntity
8
1-0
6
CONTINUOUS
62
6
100
AcDbLine
10
24500.430000000000
20
23536.000000000000
30
0.0
11
24684.650000000001
21
23614.250000000000
31
0.0
0
LINE
5
78a
100
AcDbEntity
8
1-0
6
CONTINUOUS
62
6
100
AcDbLine
10
24684.650000000001
20
23614.250000000000
30
0.0
11
24869.980000000000
21
23690.080000000002
31
0.0
0
LINE
5
78b
100
AcDbEntity
8
1-0
6
CONTINUOUS
62
6
100
AcDbLine
10
24869.980000000000
20
23690.080000000002
30
0.0
11
25056.209999999999
21
23763.840000000000
31
0.0
0
LINE
5
78c
100
AcDbEntity
8
1-0
6
CONTINUOUS
62
6
100
AcDbLine
10
25056.209999999999
20
23763.840000000000
30
0.0
11
25243.160000000000
21
23835.799999999999
31
0.0
0
LINE
5
78d
100
AcDbEntity
8
1-0
6
CONTINUOUS
62
6
100
AcDbLine
10
25243.160000000000
20
23835.799999999999
30
0.0
11
25430.599999999999
21
23906.330000000002
31
0.0
0
LINE
5
78e
100
AcDbEntity
8
1-0
6
CONTINUOUS
62
6
100
AcDbLine
10
25430.599999999999
20
23906.330000000002
30
0.0
11
25618.380000000001
21
23975.759999999998
31
0.0
0
LINE
5
78f
100
AcDbEntity
8
1-0
6
CONTINUOUS
62
6
100
AcDbLine
10
25618.380000000001
20
23975.759999999998
30
0.0
11
25806.259999999998
21
24044.389999999999
31
0.0
0
LINE
5
790
100
AcDbEntity
8
1-0
6
CONTINUOUS
62
6
100
AcDbLine
10
25806.259999999998
20
24044.389999999999
30
0.0
11
25993.930000000000
21
24113.119999999999
31
0.0
0
LINE
5
791
100
AcDbEntity
8
1-0
6
CONTINUOUS
62
6
100
AcDbLine
10
25993.930000000000
20
24113.119999999999
30
0.0
11
26180.959999999999
21
24183.340000000000
31
0.0
0
LINE
5
792
100
AcDbEntity
8
1-0
6
CONTINUOUS
62
6
100
AcDbLine
10
26180.959999999999
20
24183.340000000000
30
0.0
11
26366.930000000000
21
24256.369999999999
31
0.0
0
LINE
5
793
100
AcDbEntity
8
1-0
6
CONTINUOUS
62
6
100
AcDbLine
10
26366.930000000000
20
24256.369999999999
30
0.0
11
26551.410000000000
21
24333.570000000000
31
0.0
0
LINE
5
794
100
AcDbEntity
8
1-0
6
CONTINUOUS
62
6
100
AcDbLine
10
26551.410000000000
20
24333.570000000000
30
0.0
11
26733.980000000000
21
24416.340000000000
31
0.0
0
LINE
5
795
100
AcDbEntity
8
1-0
6
CONTINUOUS
62
6
100
AcDbLine
10
26733.980000000000
20
24416.340000000000
30
0.0
11
26914.200000000001
21
24506.029999999999
31
0.0
0
LINE
5
796
100
AcDbEntity
8
1-0
6
CONTINUOUS
62
6
100
AcDbLine
10
26914.200000000001
20
24506.029999999999
30
0.0
11
27092.810000000001
21
24600.119999999999
31
0.0
0
LINE
5
797
100
AcDbEntity
8
1-0
6
CONTINUOUS
62
6
100
AcDbLine
10
27092.810000000001
20
24600.119999999999
30
0.0
11
27273.230000000000
21
24686.509999999998
31
0.0
0
LINE
5
798
100
AcDbEntity
8
1-0
6
CONTINUOUS
62
6
100
AcDbLine
10
27273.230000000000
20
24686.509999999998
30
0.0
11
27459.330000000002
21
24751.939999999999
31
0.0
0
LINE
5
799
100
AcDbEntity
8
1-0
6
CONTINUOUS
62
6
100
AcDbLine
10
27459.330000000002
20
24751.939999999999
30
0.0
11
27652.580000000002
21
24792.470000000001
31
0.0
0
LINE
5
79a
100
AcDbEntity
8
1-0
6
CONTINUOUS
62
6
100
AcDbLine
10
27652.580000000002
20
24792.470000000001
30
0.0
11
27850.770000000000
21
24818.709999999999
31
0.0
0
LINE
5
79b
100
AcDbEntity
8
1-0
6
CONTINUOUS
62
6
100
AcDbLine
10
27850.770000000000
20
24818.709999999999
30
0.0
11
28051.430000000000
21
24842.639999999999
31
0.0
0
LINE
5
79c
100
AcDbEntity
8
1-0
6
CONTINUOUS
62
6
100
AcDbLine
10
28051.430000000000
20
24842.639999999999
30
0.0
11
28251.990000000002
21
24876.029999999999
31
0.0
0
LINE
5
79d
100
AcDbEntity
8
1-0
6
CONTINUOUS
62
6
100
AcDbLine
10
28251.990000000002
20
24876.029999999999
30
0.0
11
28450.270000000000
21
24910.169999999998
31
0.0
0
LINE
5
79e
100
AcDbEntity
8
1-0
6
CONTINUOUS
62
6
100
AcDbLine
10
28450.270000000000
20
24910.169999999998
30
0.0
11
28644.919999999998
21
24894.759999999998
31
0.0
0
LINE
5
79f
100
AcDbEntity
8
1-0
6
CONTINUOUS
62
6
100
AcDbLine
10
28644.919999999998
20
24894.759999999998
30
0.0
11
28837.320000000000
21
24833.090000000000
31
0.0
0
LINE
5
7a0
100
AcDbEntity
8
1-0
6
CONTINUOUS
62
6
100
AcDbLine
10
28837.320000000000
20
24833.090000000000
30
0.0
11
29030.400000000001
21
24767.020000000000
31
0.0
0
LINE
5
7a1
100
AcDbEntity
8
1-0
6
CONTINUOUS
62
6
100
AcDbLine
10
29030.400000000001
20
24767.020000000000
30
0.0
11
29221.330000000002
21
24705.189999999999
31
0.0
0
LINE
5
7a2
100
AcDbEntity
8
1-0
6
CONTINUOUS
62
6
100
AcDbLine
10
29221.330000000002
20
24705.189999999999
30
0.0
11
29402.259999999998
21
24626.730000000000
31
0.0
0
LINE
5
7a3
100
AcDbEntity
8
1-0
6
CONTINUOUS
62
6
100
AcDbLine
10
29402.259999999998
20
24626.730000000000
30
0.0
11
29569.430000000000
21
24519.639999999999
31
0.0
0
LINE
5
7a4
100
AcDbEntity
8
1-0
6
CONTINUOUS
62
6
100
AcDbLine
10
29569.430000000000
20
24519.639999999999
30
0.0
11
29730.080000000002
21
24398.060000000001
31
0.0
0
LINE
5
7a5
100
AcDbEntity
8
1-0
6
CONTINUOUS
62
6
100
AcDbLine
10
29730.080000000002
20
24398.060000000001
30
0.0
11
29893.070000000000
21
24279.799999999999
31
0.0
0
LINE
5
7a6
100
AcDbEntity
8
1-0
6
CONTINUOUS
62
6
100
AcDbLine
10
29893.070000000000
20
24279.799999999999
30
0.0
11
30061.049999999999
21
24171.040000000001
31
0.0
0
LINE
5
7a7
100
AcDbEntity
8
1-0
6
CONTINUOUS
62
6
100
AcDbLine
10
30061.049999999999
20
24171.040000000001
30
0.0
11
30228.570000000000
21
24062.580000000002
31
0.0
0
LINE
5
7a8
100
AcDbEntity
8
1-0
6
CONTINUOUS
62
6
100
AcDbLine
10
30228.570000000000
20
24062.580000000002
30
0.0
11
30391.099999999999
21
23946.639999999999
31
0.0
0
LINE
5
7a9
100
AcDbEntity
8
1-0
6
CONTINUOUS
62
6
100
AcDbLine
10
30391.099999999999
20
23946.639999999999
30
0.0
11
30550.020000000000
21
23825.090000000000
31
0.0
0
LINE
5
7aa
100
AcDbEntity
8
1-0
6
CONTINUOUS
62
6
100
AcDbLine
10
30550.020000000000
20
23825.090000000000
30
0.0
11
30708.169999999998
21
23702.200000000001
31
0.0
0
LINE
5
7ab
100
AcDbEntity
8
1-0
6
CONTINUOUS
62
6
100
AcDbLine
10
30708.169999999998
20
23702.200000000001
30
0.0
11
30868.349999999999
21
23582.200000000001
31
0.0
0
LINE
5
7ac
100
AcDbEntity
8
1-0
6
CONTINUOUS
62
6
100
AcDbLine
10
30868.349999999999
20
23582.200000000001
30
0.0
11
31033.180000000000
21
23469.099999999999
31
0.0
0
LINE
5
7ad
100
AcDbEntity
8
1-0
6
CONTINUOUS
62
6
100
AcDbLine
10
31033.180000000000
20
23469.099999999999
30
0.0
11
31202.320000000000
21
23362.380000000001
31
0.0
0
LINE
5
7ae
100
AcDbEntity
8
1-0
6
CONTINUOUS
62
6
100
AcDbLine
10
31202.320000000000
20
23362.380000000001
30
0.0
11
31373.290000000001
21
23258.380000000001
31
0.0
0
LINE
5
7af
100
AcDbEntity
8
1-0
6
CONTINUOUS
62
6
100
AcDbLine
10
31373.290000000001
20
23258.380000000001
30
0.0
11
31543.759999999998
21
23153.639999999999
31
0.0
0
LINE
5
7b0
100
AcDbEntity
8
1-0
6
CONTINUOUS
62
6
100
AcDbLine
10
31543.759999999998
20
23153.639999999999
30
0.0
11
31713.169999999998
21
23047.290000000001
31
0.0
0
LINE
5
7b1
100
AcDbEntity
8
1-0
6
CONTINUOUS
62
6
100
AcDbLine
10
31713.169999999998
20
23047.290000000001
30
0.0
11
31882.009999999998
21
22940.139999999999
31
0.0
0
LINE
5
7b2
100
AcDbEntity
8
1-0
6
CONTINUOUS
62
6
100
AcDbLine
10
31882.009999999998
20
22940.139999999999
30
0.0
11
32050.840000000000
21
22832.970000000001
31
0.0
0
LINE
5
7b3
100
AcDbEntity
8
1-0
6
CONTINUOUS
62
6
100
AcDbLine
10
32050.840000000000
20
22832.970000000001
30
0.0
11
32220.209999999999
21
22726.610000000001
31
0.0
0
LINE
5
7b4
100
AcDbEntity
8
1-0
6
CONTINUOUS
62
6
100
AcDbLine
10
32220.209999999999
20
22726.610000000001
30
0.0
11
32390.139999999999
21
22621.049999999999
31
0.0
0
LINE
5
7b5
100
AcDbEntity
8
1-0
6
CONTINUOUS
62
6
100
AcDbLine
10
32390.139999999999
20
22621.049999999999
30
0.0
11
32559.540000000001
21
22514.759999999998
31
0.0
0
LINE
5
7b6
100
AcDbEntity
8
1-0
6
CONTINUOUS
62
6
100
AcDbLine
10
32559.540000000001
20
22514.759999999998
30
0.0
11
32727.230000000000
21
22405.840000000000
31
0.0
0
LINE
5
7b7
100
AcDbEntity
8
1-0
6
CONTINUOUS
62
6
100
AcDbLine
10
32727.230000000000
20
22405.840000000000
30
0.0
11
32892.660000000003
21
22293.509999999998
31
0.0
0
LINE
5
7b8
100
AcDbEntity
8
1-0
6
CONTINUOUS
62
6
100
AcDbLine
10
32892.660000000003
20
22293.509999999998
30
0.0
11
33056.370000000003
21
22178.580000000002
31
0.0
0
LINE
5
7b9
100
AcDbEntity
8
1-0
6
CONTINUOUS
62
6
100
AcDbLine
10
33056.370000000003
20
22178.580000000002
30
0.0
11
33219.070000000000
21
22062.180000000000
31
0.0
0
LINE
5
7ba
100
AcDbEntity
8
1-0
6
CONTINUOUS
62
6
100
AcDbLine
10
33219.070000000000
20
22062.180000000000
30
0.0
11
33283.870000000003
21
22015.549999999999
31
0.0
0
LINE
5
7bb
100
AcDbEntity
8
1-0
6
CONTINUOUS
62
6
100
AcDbLine
10
33283.870000000003
20
22015.549999999999
30
0.0
11
33455.379999999997
21
21912.610000000001
31
0.0
0
LINE
5
7bc
100
AcDbEntity
8
1-0
6
CONTINUOUS
62
6
100
AcDbLine
10
33455.379999999997
20
21912.610000000001
30
0.0
11
33626.400000000001
21
21808.889999999999
31
0.0
0
LINE
5
7bd
100
AcDbEntity
8
1-0
6
CONTINUOUS
62
6
100
AcDbLine
10
33626.400000000001
20
21808.889999999999
30
0.0
11
33796.389999999999
21
21703.540000000001
31
0.0
0
LINE
5
7be
100
AcDbEntity
8
1-0
6
CONTINUOUS
62
6
100
AcDbLine
10
33796.389999999999
20
21703.540000000001
30
0.0
11
33964.910000000003
21
21595.840000000000
31
0.0
0
LINE
5
7bf
100
AcDbEntity
8
1-0
6
CONTINUOUS
62
6
100
AcDbLine
10
33964.910000000003
20
21595.840000000000
30
0.0
11
34132.019999999997
21
21485.980000000000
31
0.0
0
LINE
5
7c0
100
AcDbEntity
8
1-0
6
CONTINUOUS
62
6
100
AcDbLine
10
34132.019999999997
20
21485.980000000000
30
0.0
11
34298.570000000000
21
21375.200000000001
31
0.0
0
LINE
5
7c1
100
AcDbEntity
8
1-0
6
CONTINUOUS
62
6
100
AcDbLine
10
34298.570000000000
20
21375.200000000001
30
0.0
11
34465.349999999999
21
21264.790000000001
31
0.0
0
LINE
5
7c2
100
AcDbEntity
8
1-0
6
CONTINUOUS
62
6
100
AcDbLine
10
34465.349999999999
20
21264.790000000001
30
0.0
11
34633.180000000000
21
21156.020000000000
31
0.0
0
LINE
5
7c3
100
AcDbEntity
8
1-0
6
CONTINUOUS
62
6
100
AcDbLine
10
34633.180000000000
20
21156.020000000000
30
0.0
11
34802.779999999999
21
21050.070000000000
31
0.0
0
LINE
5
7c4
100
AcDbEntity
8
1-0
6
CONTINUOUS
62
6
100
AcDbLine
10
34802.779999999999
20
21050.070000000000
30
0.0
11
34973.940000000002
21
20946.549999999999
31
0.0
0
LINE
5
7c5
100
AcDbEntity
8
1-0
6
CONTINUOUS
62
6
100
AcDbLine
10
34973.940000000002
20
20946.549999999999
30
0.0
11
35145.830000000002
21
20844.230000000000
31
0.0
0
LINE
5
7c6
100
AcDbEntity
8
1-0
6
CONTINUOUS
62
6
100
AcDbLine
10
35145.830000000002
20
20844.230000000000
30
0.0
11
35317.629999999997
21
20741.750000000000
31
0.0
0
LINE
5
7c7
100
AcDbEntity
8
1-0
6
CONTINUOUS
62
6
100
AcDbLine
10
35317.629999999997
20
20741.750000000000
30
0.0
11
35488.500000000000
21
20637.840000000000
31
0.0
0
LINE
5
7c8
100
AcDbEntity
8
1-0
6
CONTINUOUS
62
6
100
AcDbLine
10
35488.500000000000
20
20637.840000000000
30
0.0
11
35657.629999999997
21
20531.180000000000
31
0.0
0
LINE
5
7c9
100
AcDbEntity
8
1-0
6
CONTINUOUS
62
6
100
AcDbLine
10
35657.629999999997
20
20531.180000000000
30
0.0
11
35824.629999999997
21
20421.160000000000
31
0.0
0
LINE
5
7ca
100
AcDbEntity
8
1-0
6
CONTINUOUS
62
6
100
AcDbLine
10
35824.629999999997
20
20421.160000000000
30
0.0
11
35990.529999999999
21
20309.439999999999
31
0.0
0
LINE
5
7cb
100
AcDbEntity
8
1-0
6
CONTINUOUS
62
6
100
AcDbLine
10
35990.529999999999
20
20309.439999999999
30
0.0
11
36156.570000000000
21
20197.919999999998
31
0.0
0
LINE
5
7cc
100
AcDbEntity
8
1-0
6
CONTINUOUS
62
6
100
AcDbLine
10
36156.570000000000
20
20197.919999999998
30
0.0
11
36323.849999999999
21
20088.299999999999
31
0.0
0
LINE
5
7cd
100
AcDbEntity
8
1-0
6
CONTINUOUS
62
6
100
AcDbLine
10
36323.849999999999
20
20088.299999999999
30
0.0
11
36492.169999999998
21
19980.299999999999
31
0.0
0
LINE
5
7ce
100
AcDbEntity
8
1-0
6
CONTINUOUS
62
6
100
AcDbLine
10
36492.169999999998
20
19980.299999999999
30
0.0
11
36660.660000000003
21
19872.549999999999
31
0.0
0
LINE
5
7cf
100
AcDbEntity
8
1-0
6
CONTINUOUS
62
6
100
AcDbLine
10
36660.660000000003
20
19872.549999999999
30
0.0
11
36828.489999999998
21
19763.750000000000
31
0.0
0
LINE
5
7d0
100
AcDbEntity
8
1-0
6
CONTINUOUS
62
6
100
AcDbLine
10
36828.489999999998
20
19763.750000000000
30
0.0
11
36995.059999999998
21
19652.939999999999
31
0.0
0
LINE
5
7d1
100
AcDbEntity
8
1-0
6
CONTINUOUS
62
6
100
AcDbLine
10
36995.059999999998
20
19652.939999999999
30
0.0
11
37160.839999999997
21
19540.880000000001
31
0.0
0
LINE
5
7d2
100
AcDbEntity
8
1-0
6
CONTINUOUS
62
6
100
AcDbLine
10
37160.839999999997
20
19540.880000000001
30
0.0
11
37326.699999999997
21
19428.939999999999
31
0.0
0
LINE
5
7d3
100
AcDbEntity
8
1-0
6
CONTINUOUS
62
6
100
AcDbLine
10
37326.699999999997
20
19428.939999999999
30
0.0
11
37493.430000000000
21
19318.439999999999
31
0.0
0
LINE
5
7d4
100
AcDbEntity
8
1-0
6
CONTINUOUS
62
6
100
AcDbLine
10
37493.430000000000
20
19318.439999999999
30
0.0
11
37661.919999999998
21
19210.740000000002
31
0.0
0
LINE
5
7d5
100
AcDbEntity
8
1-0
6
CONTINUOUS
62
6
100
AcDbLine
10
37661.919999999998
20
19210.740000000002
30
0.0
11
37833.019999999997
21
19107.169999999998
31
0.0
0
LINE
5
7d6
100
AcDbEntity
8
1-0
6
CONTINUOUS
62
6
100
AcDbLine
10
37833.019999999997
20
19107.169999999998
30
0.0
11
38007.360000000001
21
19008.779999999999
31
0.0
0
LINE
5
7d7
100
AcDbEntity
8
1-0
6
CONTINUOUS
62
6
100
AcDbLine
10
38007.360000000001
20
19008.779999999999
30
0.0
11
38182.959999999999
21
18912.459999999999
31
0.0
0
LINE
5
7d8
100
AcDbEntity
8
1-0
6
CONTINUOUS
62
6
100
AcDbLine
10
38182.959999999999
20
18912.459999999999
30
0.0
11
38356.040000000001
21
18812.400000000001
31
0.0
0
LINE
5
7d9
100
AcDbEntity
8
1-0
6
CONTINUOUS
62
6
100
AcDbLine
10
38356.040000000001
20
18812.400000000001
30
0.0
11
38522.910000000003
21
18702.840000000000
31
0.0
0
LINE
5
7da
100
AcDbEntity
8
1-0
6
CONTINUOUS
62
6
100
AcDbLine
10
38522.910000000003
20
18702.840000000000
30
0.0
11
38683.839999999997
21
18584.119999999999
31
0.0
0
LINE
5
7db
100
AcDbEntity
8
1-0
6
CONTINUOUS
62
6
100
AcDbLine
10
38683.839999999997
20
18584.119999999999
30
0.0
11
38843.519999999997
21
18463.340000000000
31
0.0
0
LINE
5
7dc
100
AcDbEntity
8
1-0
6
CONTINUOUS
62
6
100
AcDbLine
10
38843.519999999997
20
18463.340000000000
30
0.0
11
39006.790000000001
21
18347.889999999999
31
0.0
0
LINE
5
7dd
100
AcDbEntity
8
1-0
6
CONTINUOUS
62
6
100
AcDbLine
10
39006.790000000001
20
18347.889999999999
30
0.0
11
39175.309999999998
21
18240.250000000000
31
0.0
0
LINE
5
7de
100
AcDbEntity
8
1-0
6
CONTINUOUS
62
6
100
AcDbLine
10
39175.309999999998
20
18240.250000000000
30
0.0
11
39346.099999999999
21
18135.970000000001
31
0.0
0
LINE
5
7df
100
AcDbEntity
8
1-0
6
CONTINUOUS
62
6
100
AcDbLine
10
39346.099999999999
20
18135.970000000001
30
0.0
11
39515.839999999997
21
18030.110000000001
31
0.0
0
LINE
5
7e0
100
AcDbEntity
8
1-0
6
CONTINUOUS
62
6
100
AcDbLine
10
39515.839999999997
20
18030.110000000001
30
0.0
11
39683.080000000002
21
17920.400000000001
31
0.0
0
LINE
5
7e1
100
AcDbEntity
8
1-0
6
CONTINUOUS
62
6
100
AcDbLine
10
39683.080000000002
20
17920.400000000001
30
0.0
11
39848.739999999998
21
17808.340000000000
31
0.0
0
LINE
5
7e2
100
AcDbEntity
8
1-0
6
CONTINUOUS
62
6
100
AcDbLine
10
39848.739999999998
20
17808.340000000000
30
0.0
11
40013.930000000000
21
17695.509999999998
31
0.0
0
LINE
5
7e3
100
AcDbEntity
8
1-0
6
CONTINUOUS
62
6
100
AcDbLine
10
40013.930000000000
20
17695.509999999998
30
0.0
11
40179.489999999998
21
17583.299999999999
31
0.0
0
LINE
5
7e4
100
AcDbEntity
8
1-0
6
CONTINUOUS
62
6
100
AcDbLine
10
40179.489999999998
20
17583.299999999999
30
0.0
11
40345.580000000002
21
17471.849999999999
31
0.0
0
LINE
5
7e5
100
AcDbEntity
8
1-0
6
CONTINUOUS
62
6
100
AcDbLine
10
40345.580000000002
20
17471.849999999999
30
0.0
11
40512.120000000003
21
17361.099999999999
31
0.0
0
LINE
5
7e6
100
AcDbEntity
8
1-0
6
CONTINUOUS
62
6
100
AcDbLine
10
40512.120000000003
20
17361.099999999999
30
0.0
11
40679.110000000001
21
17251.029999999999
31
0.0
0
LINE
5
7e7
100
AcDbEntity
8
1-0
6
CONTINUOUS
62
6
100
AcDbLine
10
40679.110000000001
20
17251.029999999999
30
0.0
11
40846.480000000003
21
17141.529999999999
31
0.0
0
LINE
5
7e8
100
AcDbEntity
8
1-0
6
CONTINUOUS
62
6
100
AcDbLine
10
40846.480000000003
20
17141.529999999999
30
0.0
11
41014.239999999998
21
17032.610000000001
31
0.0
0
LINE
5
7e9
100
AcDbEntity
8
1-0
6
CONTINUOUS
62
6
100
AcDbLine
10
41014.239999999998
20
17032.610000000001
30
0.0
11
41182.309999999998
21
16924.209999999999
31
0.0
0
LINE
5
7ea
100
AcDbEntity
8
1-0
6
CONTINUOUS
62
6
100
AcDbLine
10
41182.309999999998
20
16924.209999999999
30
0.0
11
41350.690000000002
21
16816.270000000000
31
0.0
0
LINE
5
7eb
100
AcDbEntity
8
1-0
6
CONTINUOUS
62
6
100
AcDbLine
10
41350.690000000002
20
16816.270000000000
30
0.0
11
41519.330000000002
21
16708.700000000001
31
0.0
0
LINE
5
7ec
100
AcDbEntity
8
1-0
6
CONTINUOUS
62
6
100
AcDbLine
10
41519.330000000002
20
16708.700000000001
30
0.0
11
41688.190000000002
21
16601.520000000000
31
0.0
0
LINE
5
7ed
100
AcDbEntity
8
1-0
6
CONTINUOUS
62
6
100
AcDbLine
10
41688.190000000002
20
16601.520000000000
30
0.0
11
41857.279999999999
21
16494.650000000001
31
0.0
0
LINE
5
7ee
100
AcDbEntity
8
1-0
6
CONTINUOUS
62
6
100
AcDbLine
10
41857.279999999999
20
16494.650000000001
30
0.0
11
42026.489999999998
21
16388.020000000000
31
0.0
0
LINE
5
7ef
100
AcDbEntity
8
1-0
6
CONTINUOUS
62
6
100
AcDbLine
10
42026.489999999998
20
16388.020000000000
30
0.0
11
42195.839999999997
21
16281.570000000000
31
0.0
0
LINE
5
7f0
100
AcDbEntity
8
1-0
6
CONTINUOUS
62
6
100
AcDbLine
10
42195.839999999997
20
16281.570000000000
30
0.0
11
42365.250000000000
21
16175.280000000001
31
0.0
0
LINE
5
7f1
100
AcDbEntity
8
1-0
6
CONTINUOUS
62
6
100
AcDbLine
10
42365.250000000000
20
16175.280000000001
30
0.0
11
42534.690000000002
21
16068.990000000000
31
0.0
0
LINE
5
7f2
100
AcDbEntity
8
1-0
6
CONTINUOUS
62
6
100
AcDbLine
10
42534.690000000002
20
16068.990000000000
30
0.0
11
42704.029999999999
21
15962.570000000000
31
0.0
0
LINE
5
7f3
100
AcDbEntity
8
1-0
6
CONTINUOUS
62
6
100
AcDbLine
10
42704.029999999999
20
15962.570000000000
30
0.0
11
42873.220000000001
21
15855.940000000001
31
0.0
0
LINE
5
7f4
100
AcDbEntity
8
1-0
6
CONTINUOUS
62
6
100
AcDbLine
10
42873.220000000001
20
15855.940000000001
30
0.0
11
43042.209999999999
21
15748.980000000000
31
0.0
0
LINE
5
7f5
100
AcDbEntity
8
1-0
6
CONTINUOUS
62
6
100
AcDbLine
10
43042.209999999999
20
15748.980000000000
30
0.0
11
43210.910000000003
21
15641.590000000000
31
0.0
0
LINE
5
7f6
100
AcDbEntity
8
1-0
6
CONTINUOUS
62
6
100
AcDbLine
10
43210.910000000003
20
15641.590000000000
30
0.0
11
43379.290000000001
21
15533.680000000000
31
0.0
0
LINE
5
7f7
100
AcDbEntity
8
1-0
6
CONTINUOUS
62
6
100
AcDbLine
10
43379.290000000001
20
15533.680000000000
30
0.0
11
43547.379999999997
21
15425.309999999999
31
0.0
0
LINE
5
7f8
100
AcDbEntity
8
1-0
6
CONTINUOUS
62
6
100
AcDbLine
10
43547.379999999997
20
15425.309999999999
30
0.0
11
43715.139999999999
21
15316.450000000001
31
0.0
0
LINE
5
7f9
100
AcDbEntity
8
1-0
6
CONTINUOUS
62
6
100
AcDbLine
10
43715.139999999999
20
15316.450000000001
30
0.0
11
43882.610000000001
21
15207.139999999999
31
0.0
0
LINE
5
7fa
100
AcDbEntity
8
1-0
6
CONTINUOUS
62
6
100
AcDbLine
10
43882.610000000001
20
15207.139999999999
30
0.0
11
44049.790000000001
21
15097.340000000000
31
0.0
0
LINE
5
7fb
100
AcDbEntity
8
1-0
6
CONTINUOUS
62
6
100
AcDbLine
10
44049.790000000001
20
15097.340000000000
30
0.0
11
44216.660000000003
21
14987.110000000001
31
0.0
0
LINE
5
7fc
100
AcDbEntity
8
1-0
6
CONTINUOUS
62
6
100
AcDbLine
10
44216.660000000003
20
14987.110000000001
30
0.0
11
44383.279999999999
21
14876.389999999999
31
0.0
0
LINE
5
7fd
100
AcDbEntity
8
1-0
6
CONTINUOUS
62
6
100
AcDbLine
10
44383.279999999999
20
14876.389999999999
30
0.0
11
44549.580000000002
21
14765.280000000001
31
0.0
0
LINE
5
7fe
100
AcDbEntity
8
1-0
6
CONTINUOUS
62
6
100
AcDbLine
10
44549.580000000002
20
14765.280000000001
30
0.0
11
44715.610000000001
21
14653.700000000001
31
0.0
0
LINE
5
7ff
100
AcDbEntity
8
1-0
6
CONTINUOUS
62
6
100
AcDbLine
10
44715.610000000001
20
14653.700000000001
30
0.0
11
44881.419999999998
21
14541.799999999999
31
0.0
0
LINE
5
800
100
AcDbEntity
8
1-0
6
CONTINUOUS
62
6
100
AcDbLine
10
44881.419999999998
20
14541.799999999999
30
0.0
11
45047.290000000001
21
14429.950000000001
31
0.0
0
LINE
5
801
100
AcDbEntity
8
1-0
6
CONTINUOUS
62
6
100
AcDbLine
10
45047.290000000001
20
14429.950000000001
30
0.0
11
45213.489999999998
21
14318.650000000000
31
0.0
0
LINE
5
802
100
AcDbEntity
8
1-0
6
CONTINUOUS
62
6
100
AcDbLine
10
45213.489999999998
20
14318.650000000000
30
0.0
11
45380.330000000002
21
14208.360000000001
31
0.0
0
LINE
5
803
100
AcDbEntity
8
1-0
6
CONTINUOUS
62
6
100
AcDbLine
10
45380.330000000002
20
14208.360000000001
30
0.0
11
45548.110000000001
21
14099.600000000000
31
0.0
0
LINE
5
804
100
AcDbEntity
8
1-0
6
CONTINUOUS
62
6
100
AcDbLine
10
45548.110000000001
20
14099.600000000000
30
0.0
11
45717.160000000003
21
13992.790000000001
31
0.0
0
LINE
5
805
100
AcDbEntity
8
1-0
6
CONTINUOUS
62
6
100
AcDbLine
10
45717.160000000003
20
13992.790000000001
30
0.0
11
45887.410000000003
21
13887.870000000001
31
0.0
0
LINE
5
806
100
AcDbEntity
8
1-0
6
CONTINUOUS
62
6
100
AcDbLine
10
45887.410000000003
20
13887.870000000001
30
0.0
11
46058.279999999999
21
13783.920000000000
31
0.0
0
LINE
5
807
100
AcDbEntity
8
1-0
6
CONTINUOUS
62
6
100
AcDbLine
10
46058.279999999999
20
13783.920000000000
30
0.0
11
46229.120000000003
21
13679.860000000001
31
0.0
0
LINE
5
808
100
AcDbEntity
8
1-0
6
CONTINUOUS
62
6
100
AcDbLine
10
46229.120000000003
20
13679.860000000001
30
0.0
11
46399.370000000003
21
13574.850000000000
31
0.0
0
LINE
5
809
100
AcDbEntity
8
1-0
6
CONTINUOUS
62
6
100
AcDbLine
10
46399.370000000003
20
13574.850000000000
30
0.0
11
46568.959999999999
21
13468.740000000000
31
0.0
0
LINE
5
80a
100
AcDbEntity
8
1-0
6
CONTINUOUS
62
6
100
AcDbLine
10
46568.959999999999
20
13468.740000000000
30
0.0
11
46738.059999999998
21
13361.889999999999
31
0.0
0
LINE
5
80b
100
AcDbEntity
8
1-0
6
CONTINUOUS
62
6
100
AcDbLine
10
46738.059999999998
20
13361.889999999999
30
0.0
11
46906.820000000000
21
13254.629999999999
31
0.0
0
LINE
5
80c
100
AcDbEntity
8
1-0
6
CONTINUOUS
62
6
100
AcDbLine
10
46906.820000000000
20
13254.629999999999
30
0.0
11
47075.400000000001
21
13147.200000000001
31
0.0
0
LINE
5
80d
100
AcDbEntity
8
1-0
6
CONTINUOUS
62
6
100
AcDbLine
10
47075.400000000001
20
13147.200000000001
30
0.0
11
47243.580000000002
21
13039.290000000001
31
0.0
0
LINE
5
80e
100
AcDbEntity
8
1-0
6
CONTINUOUS
62
6
100
AcDbLine
10
47243.580000000002
20
13039.290000000001
30
0.0
11
47410.540000000001
21
12929.400000000000
31
0.0
0
LINE
5
80f
100
AcDbEntity
8
1-0
6
CONTINUOUS
62
6
100
AcDbLine
10
47410.540000000001
20
12929.400000000000
30
0.0
11
47575.400000000001
21
12816.030000000001
31
0.0
0
LINE
5
810
100
AcDbEntity
8
1-0
6
CONTINUOUS
62
6
100
AcDbLine
10
47575.400000000001
20
12816.030000000001
30
0.0
11
47737.320000000000
21
12697.650000000000
31
0.0
0
LINE
5
811
100
AcDbEntity
8
1-0
6
CONTINUOUS
62
6
100
AcDbLine
10
47737.320000000000
20
12697.650000000000
30
0.0
11
47897.889999999999
21
12576.830000000000
31
0.0
0
LINE
5
812
100
AcDbEntity
8
1-0
6
CONTINUOUS
62
6
100
AcDbLine
10
47897.889999999999
20
12576.830000000000
30
0.0
11
48065.599999999999
21
12467.700000000001
31
0.0
0
LINE
5
813
100
AcDbEntity
8
1-0
6
CONTINUOUS
62
6
100
AcDbLine
10
48065.599999999999
20
12467.700000000001
30
0.0
11
48250.080000000002
21
12386.219999999999
31
0.0
0
LINE
5
814
100
AcDbEntity
8
1-0
6
CONTINUOUS
62
6
100
AcDbLine
10
48250.080000000002
20
12386.219999999999
30
0.0
11
48447.589999999997
21
12327.990000000000
31
0.0
0
LINE
5
815
100
AcDbEntity
8
1-0
6
CONTINUOUS
62
6
100
AcDbLine
10
48447.589999999997
20
12327.990000000000
30
0.0
11
48620.650000000001
21
12237.049999999999
31
0.0
0
LINE
5
816
100
AcDbEntity
8
1-0
6
CONTINUOUS
62
6
100
AcDbLine
10
48620.650000000001
20
12237.049999999999
30
0.0
11
48764.199999999997
21
12097.059999999999
31
0.0
0
LINE
5
817
100
AcDbEntity
8
1-0
6
CONTINUOUS
62
6
100
AcDbLine
10
48764.199999999997
20
12097.059999999999
30
0.0
11
48953.889999999999
21
12024.370000000001
31
0.0
0
LINE
5
818
100
AcDbEntity
8
1-0
6
CONTINUOUS
62
6
100
AcDbLine
10
48953.889999999999
20
12024.370000000001
30
0.0
11
49164.199999999997
21
12053.330000000000
31
0.0
0
LINE
5
819
100
AcDbEntity
8
1-0
6
CONTINUOUS
62
6
100
AcDbLine
10
49164.199999999997
20
12053.330000000000
30
0.0
11
49358.279999999999
21
12074.850000000000
31
0.0
0
LINE
5
81a
100
AcDbEntity
8
1-0
6
CONTINUOUS
62
6
100
AcDbLine
10
49358.279999999999
20
12074.850000000000
30
0.0
11
49497.699999999997
21
11935.930000000000
31
0.0
0
LINE
5
81b
100
AcDbEntity
8
1-0
6
CONTINUOUS
62
6
100
AcDbLine
10
49497.699999999997
20
11935.930000000000
30
0.0
11
49519.320000000000
21
11727.459999999999
31
0.0
0
LINE
5
81c
100
AcDbEntity
8
1-0
6
CONTINUOUS
62
6
100
AcDbLine
10
49519.320000000000
20
11727.459999999999
30
0.0
11
49398.110000000001
21
11570.760000000000
31
0.0
0
LINE
5
81d
100
AcDbEntity
8
1-0
6
CONTINUOUS
62
6
100
AcDbLine
10
49398.110000000001
20
11570.760000000000
30
0.0
11
49318.129999999997
21
11509.260000000000
31
0.0
0
LINE
5
81e
100
AcDbEntity
8
1-0
6
CONTINUOUS
62
3
100
AcDbLine
10
80385.380000000005
20
21742.480000000000
30
0.0
11
80515.910000000003
21
21790.930000000000
31
0.0
0
LINE
5
81f
100
AcDbEntity
8
1-0
6
CONTINUOUS
62
3
100
AcDbLine
10
80515.910000000003
20
21790.930000000000
30
0.0
11
81119.250000000000
21
21361.849999999999
31
0.0
0
LINE
5
820
100
AcDbEntity
8
1-0
6
CONTINUOUS
62
3
100
AcDbLine
10
81119.250000000000
20
21361.849999999999
30
0.0
11
81763.729999999996
21
20895.619999999999
31
0.0
0
LINE
5
821
100
AcDbEntity
8
1-0
6
CONTINUOUS
62
3
100
AcDbLine
10
81763.729999999996
20
20895.619999999999
30
0.0
11
82261.289999999994
21
20582.930000000000
31
0.0
0
LINE
5
822
100
AcDbEntity
8
1-0
6
CONTINUOUS
62
3
100
AcDbLine
10
82261.289999999994
20
20582.930000000000
30
0.0
11
82659.960000000006
21
20372.529999999999
31
0.0
0
LINE
5
823
100
AcDbEntity
8
1-0
6
CONTINUOUS
62
3
100
AcDbLine
10
82659.960000000006
20
20372.529999999999
30
0.0
11
83017.419999999998
21
20203.259999999998
31
0.0
0
LINE
5
824
100
AcDbEntity
8
1-0
6
CONTINUOUS
62
3
100
AcDbLine
10
83017.419999999998
20
20203.259999999998
30
0.0
11
83390.490000000005
21
20014.799999999999
31
0.0
0
LINE
5
825
100
AcDbEntity
8
1-0
6
CONTINUOUS
62
3
100
AcDbLine
10
83390.490000000005
20
20014.799999999999
30
0.0
11
83802.820000000007
21
19778.250000000000
31
0.0
0
LINE
5
826
100
AcDbEntity
8
1-0
6
CONTINUOUS
62
3
100
AcDbLine
10
83802.820000000007
20
19778.250000000000
30
0.0
11
84236.880000000005
21
19503.709999999999
31
0.0
0
LINE
5
827
100
AcDbEntity
8
1-0
6
CONTINUOUS
62
3
100
AcDbLine
10
84236.880000000005
20
19503.709999999999
30
0.0
11
84672.539999999994
21
19203.750000000000
31
0.0
0
LINE
5
828
100
AcDbEntity
8
1-0
6
CONTINUOUS
62
3
100
AcDbLine
10
84672.539999999994
20
19203.750000000000
30
0.0
11
85090.750000000000
21
18890.669999999998
31
0.0
0
LINE
5
829
100
AcDbEntity
8
1-0
6
CONTINUOUS
62
3
100
AcDbLine
10
85090.750000000000
20
18890.669999999998
30
0.0
11
85487.809999999998
21
18572.500000000000
31
0.0
0
LINE
5
82a
100
AcDbEntity
8
1-0
6
CONTINUOUS
62
3
100
AcDbLine
10
85487.809999999998
20
18572.500000000000
30
0.0
11
85872.149999999994
21
18253.889999999999
31
0.0
0
LINE
5
82b
100
AcDbEntity
8
1-0
6
CONTINUOUS
62
3
100
AcDbLine
10
85872.149999999994
20
18253.889999999999
30
0.0
11
86252.520000000004
21
17939.500000000000
31
0.0
0
LINE
5
82c
100
AcDbEntity
8
1-0
6
CONTINUOUS
62
3
100
AcDbLine
10
86252.520000000004
20
17939.500000000000
30
0.0
11
86637.660000000003
21
17633.910000000000
31
0.0
0
LINE
5
82d
100
AcDbEntity
8
1-0
6
CONTINUOUS
62
3
100
AcDbLine
10
86637.660000000003
20
17633.910000000000
30
0.0
11
87036.149999999994
21
17341.660000000000
31
0.0
0
LINE
5
82e
100
AcDbEntity
8
1-0
6
CONTINUOUS
62
3
100
AcDbLine
10
87036.149999999994
20
17341.660000000000
30
0.0
11
87449.860000000001
21
17062.580000000002
31
0.0
0
LINE
5
82f
100
AcDbEntity
8
1-0
6
CONTINUOUS
62
3
100
AcDbLine
10
87449.860000000001
20
17062.580000000002
30
0.0
11
87783.460000000006
21
16846.480000000000
31
0.0
0
ARC
5
830
100
AcDbEntity
8
1-0
6
CONTINUOUS
62
4
100
AcDbCircle
10
3297.810000000000
20
17053.090000000000
30
0.0
40
240.000005509424
100
AcDbArc
50
253.108398437500
51
394.165985107422
0
ARC
5
831
100
AcDbEntity
8
1-0
6
CONTINUOUS
62
4
100
AcDbCircle
10
4652.670000000000
20
18445.669999999998
30
0.0
40
240.000005509424
100
AcDbArc
50
213.996276855469
51
355.053894042969
0
ARC
5
832
100
AcDbEntity
8
1-0
6
CONTINUOUS
62
4
100
AcDbCircle
10
1961.080000000000
20
9964.340000000000
30
0.0
40
240.000005509424
100
AcDbArc
50
286.797698974609
51
427.855316162109
0
ARC
5
833
100
AcDbEntity
8
1-0
6
CONTINUOUS
62
4
100
AcDbCircle
10
3029.820000000000
20
16689.110000000001
30
0.0
40
240.000005509424
100
AcDbArc
50
253.108398437500
51
394.165985107422
0
ARC
5
834
100
AcDbEntity
8
1-0
6
CONTINUOUS
62
4
100
AcDbCircle
10
3565.780000000000
20
17417.099999999999
30
0.0
40
240.000005509424
100
AcDbArc
50
253.108398437500
51
394.165985107422
0
ARC
5
835
100
AcDbEntity
8
1-0
6
CONTINUOUS
62
4
100
AcDbCircle
10
6402.880000000000
20
18899.130000000001
30
0.0
40
240.000005509424
100
AcDbArc
50
213.996276855469
51
355.053894042969
0
ARC
5
836
100
AcDbEntity
8
1-0
6
CONTINUOUS
62
4
100
AcDbCircle
10
4101.760000000000
20
18145.070000000000
30
0.0
40
240.000005509424
100
AcDbArc
50
253.108398437500
51
394.165985107422
0
ARC
5
837
100
AcDbEntity
8
1-0
6
CONTINUOUS
62
4
100
AcDbCircle
10
2514.590000000000
20
15989.309999999999
30
0.0
40
240.000005509424
100
AcDbArc
50
253.108398437500
51
394.165985107422
0
CIRCLE
5
838
100
AcDbEntity
8
1-0
6
CONTINUOUS
62
4
100
AcDbCircle
10
3493.820000000000
20
7349.490000000000
30
0.0
40
149.999998604828
0
CIRCLE
5
839
100
AcDbEntity
8
1-0
6
CONTINUOUS
62
4
100
AcDbCircle
10
1374.860000000000
20
16910.919999999998
30
0.0
40
149.999998604828
0
CIRCLE
5
83a
100
AcDbEntity
8
1-0
6
CONTINUOUS
62
4
100
AcDbCircle
10
10154.910000000000
20
21341.880000000001
30
0.0
40
149.999998604828
0
CIRCLE
5
83b
100
AcDbEntity
8
1-0
6
CONTINUOUS
62
4
100
AcDbCircle
10
18248.610000000001
20
24088.119999999999
30
0.0
40
149.999998604828
0
CIRCLE
5
83c
100
AcDbEntity
8
1-0
6
CONTINUOUS
62
4
100
AcDbCircle
10
27754.470000000001
20
27472.480000000000
30
0.0
40
149.999998604828
0
CIRCLE
5
83d
100
AcDbEntity
8
1-0
6
CONTINUOUS
62
4
100
AcDbCircle
10
84946.860000000001
20
21237.580000000002
30
0.0
40
149.999998604828
0
CIRCLE
5
83e
100
AcDbEntity
8
1-0
6
CONTINUOUS
62
4
100
AcDbCircle
10
69375.029999999999
20
32528.000000000000
30
0.0
40
149.999998604828
0
CIRCLE
5
83f
100
AcDbEntity
8
1-0
6
CONTINUOUS
62
4
100
AcDbCircle
10
58271.589999999997
20
20625.610000000001
30
0.0
40
149.999998604828
0
CIRCLE
5
840
100
AcDbEntity
8
1-0
6
CONTINUOUS
62
4
100
AcDbCircle
10
66177.949999999997
20
26044.619999999999
30
0.0
40
149.999998604828
0
CIRCLE
5
841
100
AcDbEntity
8
1-0
6
CONTINUOUS
62
4
100
AcDbCircle
10
52061.400000000001
20
12499.219999999999
30
0.0
40
149.999998604828
0
CIRCLE
5
842
100
AcDbEntity
8
1-0
6
CONTINUOUS
62
4
100
AcDbCircle
10
37339.400000000001
20
24634.830000000002
30
0.0
40
149.999998604828
0
CIRCLE
5
843
100
AcDbEntity
8
1-0
6
CONTINUOUS
62
4
100
AcDbCircle
10
45346.769999999997
20
19968.799999999999
30
0.0
40
149.999998604828
0
CIRCLE
5
844
100
AcDbEntity
8
1-0
6
CONTINUOUS
62
4
100
AcDbCircle
10
70016.179999999993
20
42519.589999999997
30
0.0
40
149.999998604828
0
CIRCLE
5
845
100
AcDbEntity
8
1-0
6
CONTINUOUS
62
4
100
AcDbCircle
10
75610.000000000000
20
51335.389999999999
30
0.0
40
149.999998604828
0
CIRCLE
5
846
100
AcDbEntity
8
1-0
6
CONTINUOUS
62
4
100
AcDbCircle
10
75806.139999999999
20
24913.160000000000
30
0.0
40
149.999998604828
0
ARC
5
847
100
AcDbEntity
8
1-0
6
CONTINUOUS
62
4
100
AcDbCircle
10
3833.790000000000
20
17781.049999999999
30
0.0
40
240.000005509424
100
AcDbArc
50
253.108398437500
51
394.165985107422
0
ARC
5
848
100
AcDbEntity
8
1-0
6
CONTINUOUS
62
4
100
AcDbCircle
10
2212.050000000000
20
15339.219999999999
30
0.0
40
240.000005509424
100
AcDbArc
50
286.797698974609
51
427.855316162109
0
ARC
5
849
100
AcDbEntity
8
1-0
6
CONTINUOUS
62
4
100
AcDbCircle
10
1982.170000000000
20
10415.820000000000
30
0.0
40
240.000005509424
100
AcDbArc
50
286.797698974609
51
427.855316162109
0
ARC
5
84a
100
AcDbEntity
8
1-0
6
CONTINUOUS
62
4
100
AcDbCircle
10
5090.210000000000
20
18559.040000000001
30
0.0
40
240.000005509424
100
AcDbArc
50
213.996276855469
51
355.053894042969
0
ARC
5
84b
100
AcDbEntity
8
1-0
6
CONTINUOUS
62
4
100
AcDbCircle
10
2127.730000000000
20
13533.190000000001
30
0.0
40
240.000005509424
100
AcDbArc
50
286.797698974609
51
427.855316162109
0
ARC
5
84c
100
AcDbEntity
8
1-0
6
CONTINUOUS
62
4
100
AcDbCircle
10
2107.560000000000
20
13101.240000000000
30
0.0
40
240.000005509424
100
AcDbArc
50
286.797698974609
51
427.855316162109
0
ARC
5
84d
100
AcDbEntity
8
1-0
6
CONTINUOUS
62
4
100
AcDbCircle
10
2148.820000000000
20
13984.700000000001
30
0.0
40
240.000005509424
100
AcDbArc
50
286.797698974609
51
427.855316162109
0
ARC
5
84e
100
AcDbEntity
8
1-0
6
CONTINUOUS
62
4
100
AcDbCircle
10
2190.970000000000
20
14887.709999999999
30
0.0
40
240.000005509424
100
AcDbArc
50
286.797698974609
51
427.855316162109
0
ARC
5
84f
100
AcDbEntity
8
1-0
6
CONTINUOUS
62
4
100
AcDbCircle
10
2044.300000000000
20
11746.690000000001
30
0.0
40
240.000005509424
100
AcDbArc
50
286.797698974609
51
427.855316162109
0
ARC
5
850
100
AcDbEntity
8
1-0
6
CONTINUOUS
62
4
100
AcDbCircle
10
5527.760000000000
20
18672.410000000000
30
0.0
40
240.000005509424
100
AcDbArc
50
213.996276855469
51
355.053894042969
0
ARC
5
851
100
AcDbEntity
8
1-0
6
CONTINUOUS
62
4
100
AcDbCircle
10
2169.890000000000
20
14436.209999999999
30
0.0
40
240.000005509424
100
AcDbArc
50
286.797698974609
51
427.855316162109
0
ARC
5
852
100
AcDbEntity
8
1-0
6
CONTINUOUS
62
4
100
AcDbCircle
10
2086.470000000000
20
12649.709999999999
30
0.0
40
240.000005509424
100
AcDbArc
50
286.797698974609
51
427.855316162109
0
ARC
5
853
100
AcDbEntity
8
1-0
6
CONTINUOUS
62
4
100
AcDbCircle
10
2065.390000000000
20
12198.230000000000
30
0.0
40
240.000005509424
100
AcDbArc
50
286.797698974609
51
427.855316162109
0
ARC
5
854
100
AcDbEntity
8
1-0
6
CONTINUOUS
62
4
100
AcDbCircle
10
2782.580000000000
20
16353.320000000000
30
0.0
40
240.000005509424
100
AcDbArc
50
253.108398437500
51
394.165985107422
0
ARC
5
855
100
AcDbEntity
8
1-0
6
CONTINUOUS
62
4
100
AcDbCircle
10
2023.230000000000
20
11295.209999999999
30
0.0
40
240.000005509424
100
AcDbArc
50
286.797698974609
51
427.855316162109
0
ARC
5
856
100
AcDbEntity
8
1-0
6
CONTINUOUS
62
4
100
AcDbCircle
10
2003.250000000000
20
10867.330000000000
30
0.0
40
240.000005509424
100
AcDbArc
50
286.797698974609
51
427.855316162109
0
ARC
5
857
100
AcDbEntity
8
1-0
6
CONTINUOUS
62
4
100
AcDbCircle
10
5965.320000000000
20
18785.750000000000
30
0.0
40
240.000005509424
100
AcDbArc
50
213.996276855469
51
355.053894042969
0
TEXT
5
858
100
AcDbEntity
8
1-0
62
2
100
AcDbText
10
37673.030
20
24411.060
30
0.0
40
390.000
1
T-94
41
1.050
50
0.000
100
AcDbText
0
TEXT
5
859
100
AcDbEntity
8
1-0
62
2
100
AcDbText
10
68938.080
20
31775.180
30
0.0
40
390.000
1
T-70
41
1.050
50
0.000
100
AcDbText
0
TEXT
5
85a
100
AcDbEntity
8
1-0
62
2
100
AcDbText
10
45723.460
20
19761.510
30
0.0
40
390.000
1
T-95
41
1.050
50
0.000
100
AcDbText
0
TEXT
5
85b
100
AcDbEntity
8
1-0
62
2
100
AcDbText
10
3967.900
20
7136.310
30
0.0
40
390.000
1
T-89
41
1.050
50
0.000
100
AcDbText
0
TEXT
5
85c
100
AcDbEntity
8
1-0
62
2
100
AcDbText
10
25538.640
20
12501.460
30
0.0
40
390.000
1
N.W.L ＝ 9.76
41
1.050
50
0.000
100
AcDbText
0
TEXT
5
85d
100
AcDbEntity
8
1-0
62
6
100
AcDbText
10
25342.100
20
13224.000
30
0.0
40
585.000
1
放　生　池
41
1.083
50
0.000
100
AcDbText
0
TEXT
5
85e
100
AcDbEntity
8
1-0
62
2
100
AcDbText
10
1776.000
20
16661.110
30
0.0
40
390.000
1
T-90
41
1.050
50
0.000
100
AcDbText
0
TEXT
5
85f
100
AcDbEntity
8
1-0
62
2
100
AcDbText
10
76107.530
20
24684.870
30
0.0
40
390.000
1
T-55
41
1.050
50
0.000
100
AcDbText
0
TEXT
5
860
100
AcDbEntity
8
1-0
62
2
100
AcDbText
10
42371.950
20
5777.120
30
0.0
40
390.000
1
9.21
41
1.050
50
0.000
100
AcDbText
0
TEXT
5
861
100
AcDbEntity
8
1-0
62
2
100
AcDbText
10
39142.200
20
11548.790
30
0.0
40
390.000
1
（9.12）
41
1.050
50
0.000
100
AcDbText
0
TEXT
5
862
100
AcDbEntity
8
1-0
62
6
100
AcDbText
10
69377.690
20
10077.120
30
0.0
40
585.000
1
大　沢　池
41
1.083
50
0.000
100
AcDbText
0
TEXT
5
863
100
AcDbEntity
8
1-0
62
2
100
AcDbText
10
42006.470
20
5365.480
30
0.0
40
390.000
1
（9.21）
41
1.050
50
0.000
100
AcDbText
0
TEXT
5
864
100
AcDbEntity
8
1-0
62
7
100
AcDbText
10
14718.920
20
48435.470
30
0.0
40
195.000
1
1
41
1.000
50
0.000
100
AcDbText
0
TEXT
5
865
100
AcDbEntity
8
1-0
62
2
100
AcDbText
10
18726.020
20
23896.010
30
0.0
40
390.000
1
T-92
41
1.050
50
0.000
100
AcDbText
0
TEXT
5
866
100
AcDbEntity
8
1-0
62
2
100
AcDbText
10
58373.410
20
21031.290
30
0.0
40
390.000
1
T-53
41
1.050
50
0.000
100
AcDbText
0
TEXT
5
867
100
AcDbEntity
8
1-0
62
2
100
AcDbText
10
51772.110
20
12787.070
30
0.0
40
390.000
1
T-52
41
1.050
50
0.000
100
AcDbText
0
TEXT
5
868
100
AcDbEntity
8
1-0
62
2
100
AcDbText
10
31332.510
20
16925.370
30
0.0
40
390.000
1
9.28
41
1.050
50
0.000
100
AcDbText
0
TEXT
5
869
100
AcDbEntity
8
1-0
62
2
100
AcDbText
10
34102.740
20
11367.520
30
0.0
40
390.000
1
（9.21）
41
1.050
50
0.000
100
AcDbText
0
TEXT
5
86a
100
AcDbEntity
8
1-0
62
2
100
AcDbText
10
33306.170
20
4251.730
30
0.0
40
390.000
1
9.06
41
1.050
50
0.000
100
AcDbText
0
TEXT
5
86b
100
AcDbEntity
8
1-0
62
2
100
AcDbText
10
14905.050
20
3631.500
30
0.0
40
390.000
1
（9.16）
41
1.050
50
0.000
100
AcDbText
0
TEXT
5
86c
100
AcDbEntity
8
1-0
62
2
100
AcDbText
10
7962.300
20
10714.700
30
0.0
40
390.000
1
9.46
41
1.050
50
0.000
100
AcDbText
0
TEXT
5
86d
100
AcDbEntity
8
1-0
62
2
100
AcDbText
10
26141.130
20
17468.830
30
0.0
40
390.000
1
（9.36）
41
1.050
50
0.000
100
AcDbText
0
TEXT
5
86e
100
AcDbEntity
8
1-0
62
2
100
AcDbText
10
26541.560
20
17955.080
30
0.0
40
390.000
1
9.36
41
1.050
50
0.000
100
AcDbText
0
TEXT
5
86f
100
AcDbEntity
8
1-0
62
2
100
AcDbText
10
7591.380
20
10137.710
30
0.0
40
390.000
1
（9.38）
41
1.050
50
0.000
100
AcDbText
0
TEXT
5
870
100
AcDbEntity
8
1-0
62
4
100
AcDbText
10
85303.070
20
21028.470
30
0.0
40
165.750
1
T-56
41
1.000
50
0.000
100
AcDbText
0
TEXT
5
871
100
AcDbEntity
8
1-0
62
2
100
AcDbText
10
30989.280
20
16396.230
30
0.0
40
390.000
1
（9.28）
41
1.050
50
0.000
100
AcDbText
0
TEXT
5
872
100
AcDbEntity
8
1-0
62
2
100
AcDbText
10
65668.190
20
14098.480
30
0.0
40
390.000
1
（8.89）
41
1.050
50
0.000
100
AcDbText
0
TEXT
5
873
100
AcDbEntity
8
1-0
62
2
100
AcDbText
10
66050.780
20
14576.710
30
0.0
40
390.000
1
9.05
41
1.050
50
0.000
100
AcDbText
0
TEXT
5
874
100
AcDbEntity
8
1-0
62
2
100
AcDbText
10
25026.120
20
9178.240
30
0.0
40
390.000
1
9.19
41
1.050
50
0.000
100
AcDbText
0
TEXT
5
875
100
AcDbEntity
8
1-0
62
2
100
AcDbText
10
15276.890
20
4089.150
30
0.0
40
390.000
1
9.16
41
1.050
50
0.000
100
AcDbText
0
TEXT
5
876
100
AcDbEntity
8
1-0
62
2
100
AcDbText
10
34477.370
20
11899.260
30
0.0
40
390.000
1
9.21
41
1.050
50
0.000
100
AcDbText
0
TEXT
5
877
100
AcDbEntity
8
1-0
62
2
100
AcDbText
10
24662.320
20
8736.820
30
0.0
40
390.000
1
（9.19）
41
1.050
50
0.000
100
AcDbText
0
TEXT
5
878
100
AcDbEntity
8
1-0
62
2
100
AcDbText
10
32942.610
20
3830.470
30
0.0
40
390.000
1
（9.05）
41
1.050
50
0.000
100
AcDbText
0
TEXT
5
879
100
AcDbEntity
8
1-0
62
3
100
AcDbText
10
73981.820
20
3276.490
30
0.0
40
292.500
1
調
41
1.000
50
0.000
100
AcDbText
0
TEXT
5
87a
100
AcDbEntity
8
1-0
62
3
100
AcDbText
10
75151.820
20
3276.490
30
0.0
40
292.500
1
製
41
1.000
50
0.000
100
AcDbText
0
TEXT
5
87b
100
AcDbEntity
8
1-0
62
3
100
AcDbText
10
73981.820
20
3838.990
30
0.0
40
292.500
1
測
41
1.000
50
0.000
100
AcDbText
0
TEXT
5
87c
100
AcDbEntity
8
1-0
62
3
100
AcDbText
10
75151.820
20
3838.990
30
0.0
40
292.500
1
量
41
1.000
50
0.000
100
AcDbText
0
TEXT
5
87d
100
AcDbEntity
8
1-0
62
3
100
AcDbText
10
73981.820
20
4953.570
30
0.0
40
292.500
1
図
41
1.000
50
0.000
100
AcDbText
0
TEXT
5
87e
100
AcDbEntity
8
1-0
62
3
100
AcDbText
10
74566.820
20
4953.570
30
0.0
40
292.500
1
面
41
1.000
50
0.000
100
AcDbText
0
TEXT
5
87f
100
AcDbEntity
8
1-0
62
3
100
AcDbText
10
75151.820
20
4953.570
30
0.0
40
292.500
1
名
41
1.000
50
0.000
100
AcDbText
0
TEXT
5
880
100
AcDbEntity
8
1-0
62
3
100
AcDbText
10
73981.820
20
2713.990
30
0.0
40
292.500
1
作
41
1.000
50
0.000
100
AcDbText
0
TEXT
5
881
100
AcDbEntity
8
1-0
62
3
100
AcDbText
10
74371.820
20
2713.990
30
0.0
40
292.500
1
業
41
1.000
50
0.000
100
AcDbText
0
TEXT
5
882
100
AcDbEntity
8
1-0
62
3
100
AcDbText
10
74761.820
20
2713.990
30
0.0
40
292.500
1
機
41
1.000
50
0.000
100
AcDbText
0
TEXT
5
883
100
AcDbEntity
8
1-0
62
3
100
AcDbText
10
75151.820
20
2713.990
30
0.0
40
292.500
1
関
41
1.000
50
0.000
100
AcDbText
0
TEXT
5
884
100
AcDbEntity
8
1-0
62
7
100
AcDbText
10
16719.590
20
48435.470
30
0.0
40
195.000
1
3
41
1.000
50
0.000
100
AcDbText
0
TEXT
5
885
100
AcDbEntity
8
1-0
62
6
100
AcDbText
10
12028.030
20
50779.980
30
0.0
40
585.000
1
縮尺 壱百分之壱
41
1.083
50
0.000
100
AcDbText
0
TEXT
5
886
100
AcDbEntity
8
1-0
62
3
100
AcDbText
10
73981.820
20
4396.280
30
0.0
40
292.500
1
縮
41
1.000
50
0.000
100
AcDbText
0
TEXT
5
887
100
AcDbEntity
8
1-0
62
3
100
AcDbText
10
75151.820
20
4396.280
30
0.0
40
292.500
1
尺
41
1.000
50
0.000
100
AcDbText
0
TEXT
5
888
100
AcDbEntity
8
1-0
62
3
100
AcDbText
10
73981.820
20
5516.070
30
0.0
40
292.500
1
事
41
1.000
50
0.000
100
AcDbText
0
TEXT
5
889
100
AcDbEntity
8
1-0
62
3
100
AcDbText
10
74566.820
20
5516.070
30
0.0
40
292.500
1
業
41
1.000
50
0.000
100
AcDbText
0
TEXT
5
88a
100
AcDbEntity
8
1-0
62
3
100
AcDbText
10
75151.820
20
5516.070
30
0.0
40
292.500
1
名
41
1.000
50
0.000
100
AcDbText
0
TEXT
5
88b
100
AcDbEntity
8
1-0
62
3
100
AcDbText
10
76377.220
20
4379.880
30
0.0
40
292.500
1
100
41
1.000
50
0.000
100
AcDbText
0
TEXT
5
88c
100
AcDbEntity
8
1-0
62
3
100
AcDbText
10
76028.930
20
5479.510
30
0.0
40
292.500
1
大沢の池環境管理プロジェクト
41
1.000
50
0.000
100
AcDbText
0
TEXT
5
88d
100
AcDbEntity
8
1-0
62
3
100
AcDbText
10
76057.770
20
4379.880
30
0.0
40
292.500
1
1/
41
1.000
50
0.000
100
AcDbText
0
TEXT
5
88e
100
AcDbEntity
8
1-0
62
3
100
AcDbText
10
77715.770
20
4379.880
30
0.0
40
292.500
1
図面番号
41
1.000
50
0.000
100
AcDbText
0
TEXT
5
88f
100
AcDbEntity
8
1-0
62
3
100
AcDbText
10
75712.050
20
3817.080
30
0.0
40
292.500
1
平成13年8月17日～平成17年11月6日
41
1.000
50
0.000
100
AcDbText
0
TEXT
5
890
100
AcDbEntity
8
1-0
62
3
100
AcDbText
10
76475.950
20
2692.080
30
0.0
40
292.500
1
ソウギョ・バスターズ
41
1.000
50
0.000
100
AcDbText
0
TEXT
5
891
100
AcDbEntity
8
1-0
62
3
100
AcDbText
10
76753.720
20
4931.660
30
0.0
40
292.500
1
護摩堂現況平面図
41
1.000
50
0.000
100
AcDbText
0
TEXT
5
892
100
AcDbEntity
8
1-0
62
3
100
AcDbText
10
76892.600
20
3254.580
30
0.0
40
292.500
1
平成17年12月1日
41
1.000
50
0.000
100
AcDbText
0
TEXT
5
893
100
AcDbEntity
8
1-0
62
2
100
AcDbText
10
28275.690
20
27180.220
30
0.0
40
390.000
1
T-93
41
1.050
50
0.000
100
AcDbText
0
TEXT
5
894
100
AcDbEntity
8
1-0
62
2
100
AcDbText
10
67560.130
20
4239.520
30
0.0
40
390.000
1
（8.76）
41
1.050
50
0.000
100
AcDbText
0
TEXT
5
895
100
AcDbEntity
8
1-0
62
2
100
AcDbText
10
69934.940
20
42787.490
30
0.0
40
390.000
1
T-71
41
1.050
50
0.000
100
AcDbText
0
TEXT
5
896
100
AcDbEntity
8
1-0
62
2
100
AcDbText
10
67917.060
20
4711.920
30
0.0
40
390.000
1
8.90
41
1.050
50
0.000
100
AcDbText
0
TEXT
5
897
100
AcDbEntity
8
1-0
62
6
100
AcDbText
10
79649.700
20
24130.940
30
0.0
40
585.000
1
天　神　島
41
1.083
50
0.000
100
AcDbText
0
TEXT
5
898
100
AcDbEntity
8
1-0
62
2
100
AcDbText
10
39528.920
20
12104.700
30
0.0
40
390.000
1
9.16
41
1.050
50
0.000
100
AcDbText
0
TEXT
5
899
100
AcDbEntity
8
1-0
62
2
100
AcDbText
10
66502.770
20
25834.870
30
0.0
40
390.000
1
T-54
41
1.050
50
0.000
100
AcDbText
0
TEXT
5
89a
100
AcDbEntity
8
1-0
62
7
100
AcDbText
10
86391.080
20
10127.110
30
0.0
40
243.750
1
9.0
41
1.000
50
300.510
100
AcDbText
0
TEXT
5
89b
100
AcDbEntity
8
1-0
62
3
100
AcDbText
10
14156.590
20
48960.750
30
0.0
40
341.250
1
Scale　1/100
41
1.000
50
0.000
100
AcDbText
0
TEXT
5
89c
100
AcDbEntity
8
1-0
62
7
100
AcDbText
10
12724.660
20
48448.290
30
0.0
40
195.000
1
1
41
1.000
50
0.000
100
AcDbText
0
TEXT
5
89d
100
AcDbEntity
8
1-0
62
6
100
AcDbText
10
8852.630
20
52896.910
30
0.0
40
585.000
1
大覚寺護摩堂現況平面図
41
1.083
50
0.000
100
AcDbText
0
TEXT
5
89e
100
AcDbEntity
8
1-0
62
2
100
AcDbText
10
10580.530
20
21135.490
30
0.0
40
390.000
1
T-91
41
1.050
50
0.000
100
AcDbText
0
TEXT
5
89f
100
AcDbEntity
8
1-0
62
7
100
AcDbText
10
13758.480
20
48457.010
30
0.0
40
195.000
1
0
41
1.000
50
0.000
100
AcDbText
0
TEXT
5
8a0
100
AcDbEntity
8
1-0
62
7
100
AcDbText
10
17718.920
20
48435.470
30
0.0
40
195.000
1
4 m
41
1.000
50
0.000
100
AcDbText
0
TEXT
5
8a1
100
AcDbEntity
8
1-0
62
2
100
AcDbText
10
75991.460
20
51146.990
30
0.0
40
390.000
1
T-72
41
1.050
50
0.000
100
AcDbText
0
TEXT
5
8a2
100
AcDbEntity
8
1-0
62
7
100
AcDbText
10
15719.250
20
48429.060
30
0.0
40
195.000
1
2
41
1.000
50
0.000
100
AcDbText
0
POINT
5
8a3
100
AcDbEntity
8
1-0
62
7
100
AcDbPoint
10
69375.029999999999
20
32528.000000000000
30
0.0
0
POINT
5
8a4
100
AcDbEntity
8
1-0
62
7
100
AcDbPoint
10
67567.110000000001
20
4738.820000000000
30
0.0
0
POINT
5
8a5
100
AcDbEntity
8
1-0
62
7
100
AcDbPoint
10
7596.000000000000
20
10693.879999999999
30
0.0
0
POINT
5
8a6
100
AcDbEntity
8
1-0
62
7
100
AcDbPoint
10
65703.169999999998
20
14563.570000000000
30
0.0
0
POINT
5
8a7
100
AcDbEntity
8
1-0
62
7
100
AcDbPoint
10
75610.000000000000
20
51335.389999999999
30
0.0
0
POINT
5
8a8
100
AcDbEntity
8
1-0
62
7
100
AcDbPoint
10
84946.860000000001
20
21237.580000000002
30
0.0
0
POINT
5
8a9
100
AcDbEntity
8
1-0
62
7
100
AcDbPoint
10
1374.860000000000
20
16910.919999999998
30
0.0
0
POINT
5
8aa
100
AcDbEntity
8
1-0
62
7
100
AcDbPoint
10
10154.910000000000
20
21341.880000000001
30
0.0
0
POINT
5
8ab
100
AcDbEntity
8
1-0
62
7
100
AcDbPoint
10
18248.610000000001
20
24088.119999999999
30
0.0
0
POINT
5
8ac
100
AcDbEntity
8
1-0
62
7
100
AcDbPoint
10
3493.820000000000
20
7349.490000000000
30
0.0
0
POINT
5
8ad
100
AcDbEntity
8
1-0
62
7
100
AcDbPoint
10
70016.179999999993
20
42519.589999999997
30
0.0
0
POINT
5
8ae
100
AcDbEntity
8
1-0
62
7
100
AcDbPoint
10
52061.400000000001
20
12499.219999999999
30
0.0
0
POINT
5
8af
100
AcDbEntity
8
1-0
62
7
100
AcDbPoint
10
27754.470000000001
20
27472.480000000000
30
0.0
0
POINT
5
8b0
100
AcDbEntity
8
1-0
62
7
100
AcDbPoint
10
37339.400000000001
20
24634.830000000002
30
0.0
0
POINT
5
8b1
100
AcDbEntity
8
1-0
62
7
100
AcDbPoint
10
58271.589999999997
20
20625.610000000001
30
0.0
0
POINT
5
8b2
100
AcDbEntity
8
1-0
62
7
100
AcDbPoint
10
75806.139999999999
20
24913.160000000000
30
0.0
0
POINT
5
8b3
100
AcDbEntity
8
1-0
62
7
100
AcDbPoint
10
66177.949999999997
20
26044.619999999999
30
0.0
0
POINT
5
8b4
100
AcDbEntity
8
1-0
62
7
100
AcDbPoint
10
45346.769999999997
20
19968.799999999999
30
0.0
0
POINT
5
8b5
100
AcDbEntity
8
1-0
62
7
100
AcDbPoint
10
32956.589999999997
20
4255.720000000000
30
0.0
0
POINT
5
8b6
100
AcDbEntity
8
1-0
62
7
100
AcDbPoint
10
26158.099999999999
20
17982.959999999999
30
0.0
0
POINT
5
8b7
100
AcDbEntity
8
1-0
62
7
100
AcDbPoint
10
31001.709999999999
20
16895.799999999999
30
0.0
0
POINT
5
8b8
100
AcDbEntity
8
1-0
62
7
100
AcDbPoint
10
24667.799999999999
20
9157.459999999999
30
0.0
0
POINT
5
8b9
100
AcDbEntity
8
1-0
62
7
100
AcDbPoint
10
39143.110000000001
20
12112.379999999999
30
0.0
0
POINT
5
8ba
100
AcDbEntity
8
1-0
62
7
100
AcDbPoint
10
26158.099999999999
20
17982.959999999999
30
0.0
0
POINT
5
8bb
100
AcDbEntity
8
1-0
62
7
100
AcDbPoint
10
14912.969999999999
20
4084.150000000000
30
0.0
0
POINT
5
8bc
100
AcDbEntity
8
1-0
62
7
100
AcDbPoint
10
34081.790000000001
20
11882.520000000000
30
0.0
0
POINT
5
8bd
100
AcDbEntity
8
1-0
62
7
100
AcDbPoint
10
42005.480000000003
20
5782.090000000000
30
0.0
0
ENDSEC
0
EOF
