0
SECTION
2
HEADER
9
$ACADVER
1
AC1009
9
$EXTMIN
10
0.000
20
0.000
30
0.0
9
$EXTMAX
10
84100.000
20
59400.000
30
0.0
9
$LTSCALE
40
100.000
9
$PDMODE
70
0
9
$PDSIZE
40
40.0
0
ENDSEC
0
SECTION
2
TABLES
0
TABLE
2
LTYPE
70
9
0
LTYPE
5
1f4
2
CONTINUOUS
70
64
3
SolidLine
72
65
73
0
40
0.0
0
LTYPE
5
1f5
2
DOT
70
64
3
--  --  --  --  --  --  --  --     
72
65
73
2
40
3.000
49
1.000
49
-2.000
0
LTYPE
5
1f6
2
DASHED
70
64
3
----    ----    ----    ----    
72
65
73
2
40
5.000
49
2.000
49
-3.000
0
LTYPE
5
1f7
2
DASHED2
70
64
3
------  ------  ------  ------ 
72
65
73
2
40
10.000
49
4.000
49
-6.000
0
LTYPE
5
1f8
2
CENTER
70
64
3
----- - ----- - ----- - ----- - 
72
65
73
4
40
10.000
49
6.000
49
-3.000
49
1.000
49
-3.000
0
LTYPE
5
1f9
2
CENTER2
70
64
3
----------  --  ----------  -- 
72
65
73
4
40
17.000
49
12.000
49
-5.000
49
2.000
49
-5.000
0
LTYPE
5
1fa
2
PHANTOM
70
64
3
--- - - --- - - --- - - --- - -
72
65
73
6
40
13.000
49
5.000
49
-3.000
49
1.000
49
-3.000
49
1.000
49
-3.000
0
LTYPE
5
1fb
2
PHANTOM2
70
64
3
--------  -  -  --------  -  -
72
65
73
6
40
20.000
49
6.000
49
-5.000
49
2.000
49
-5.000
49
2.000
49
-5.000
0
LTYPE
5
1fc
2
HIDDEN
70
64
3
-   -   -   -   -   -   -   -   
72
65
73
2
40
3.000
49
0.500
49
-2.500
0
ENDTAB
0
TABLE
2
STYLE
70
1
0
STYLE
5
1fd
100
AcDbSymbolTableRecord
100
AcDbTextStyleTableRecord
2
STANDARD
70
0
40
0.0
41
1.0
50
0.0
71
0
42
0.0
3
txt.shx
4
extfont.shx
0
STYLE
5
1fe
100
AcDbSymbolTableRecord
100
AcDbTextStyleTableRecord
2
TATEGAKI
70
4
40
0.0
41
1.0
50
0.0
71
0
42
0.0
3
txt.shx
4
extfont.shx
0
STYLE
5
1ff
100
AcDbSymbolTableRecord
100
AcDbTextStyleTableRecord
2
DIM
70
0
40
0.0
41
0.75
50
0.0
71
0
42
0.0
3
txt.shx
4
extfont.shx
0
STYLE
5
200
100
AcDbSymbolTableRecord
100
AcDbTextStyleTableRecord
2
_Gothic_
70
0
40
0.0
41
1.0
50
0.0
71
0
42
0.0
3
MS Gothic
4

0
STYLE
5
201
100
AcDbSymbolTableRecord
100
AcDbTextStyleTableRecord
2
_TateGothic_
70
4
40
0.0
41
1.0
50
0.0
71
0
42
0.0
3
@MS Gothic
4

0
ENDTAB
0
TABLE
2
LAYER
5
403
100
AcDbSymbolTable
70
10
0
LAYER
5
404
100
AcDbSymbolTableRecord
100
AcDbLayerTableRecord
2
1-0
70
0
62
7
6
CONTINUOUS
0
LAYER
5
405
100
AcDbSymbolTableRecord
100
AcDbLayerTableRecord
2
2-0
70
0
62
-7
6
CONTINUOUS
0
ENDTAB
0
ENDSEC
0
SECTION
2
ENTITIES
0
LINE
5
406
100
AcDbEntity
8
1-0
6
CONTINUOUS
62
3
100
AcDbLine
10
67505.490000000005
20
29761.070000000000
30
0.0
11
74531.240000000005
21
25123.200000000001
31
0.0
0
LINE
5
407
100
AcDbEntity
8
1-0
6
CONTINUOUS
62
3
100
AcDbLine
10
68373.660000000003
20
34816.550000000003
30
0.0
11
67110.839999999997
21
35210.139999999999
31
0.0
0
LINE
5
408
100
AcDbEntity
8
1-0
6
CONTINUOUS
62
3
100
AcDbLine
10
46862.320000000000
20
14773.980000000000
30
0.0
11
46862.779999999999
21
14775.139999999999
31
0.0
0
LINE
5
409
100
AcDbEntity
8
1-0
6
CONTINUOUS
62
3
100
AcDbLine
10
43948.620000000003
20
12099.760000000000
30
0.0
11
42043.580000000002
21
11972.740000000000
31
0.0
0
LINE
5
40a
100
AcDbEntity
8
1-0
6
CONTINUOUS
62
3
100
AcDbLine
10
46361.589999999997
20
13496.730000000000
30
0.0
11
45345.570000000000
21
12607.750000000000
31
0.0
0
LINE
5
40b
100
AcDbEntity
8
1-0
6
CONTINUOUS
62
3
100
AcDbLine
10
65076.120000000003
20
35837.610000000001
30
0.0
11
64916.830000000002
21
35326.680000000000
31
0.0
0
LINE
5
40c
100
AcDbEntity
8
1-0
6
CONTINUOUS
62
3
100
AcDbLine
10
66959.850000000006
20
34725.629999999997
30
0.0
11
67110.839999999997
21
35210.139999999999
31
0.0
0
LINE
5
40d
100
AcDbEntity
8
1-0
6
CONTINUOUS
62
3
100
AcDbLine
10
49536.580000000002
20
33308.739999999998
30
0.0
11
53473.559999999998
21
32673.720000000001
31
0.0
0
LINE
5
40e
100
AcDbEntity
8
1-0
6
CONTINUOUS
62
3
100
AcDbLine
10
42043.580000000002
20
11972.740000000000
30
0.0
11
40334.080000000002
21
12017.450000000001
31
0.0
0
LINE
5
40f
100
AcDbEntity
8
1-0
6
CONTINUOUS
62
3
100
AcDbLine
10
61870.389999999999
20
32975.519999999997
30
0.0
11
53473.559999999998
21
32673.720000000001
31
0.0
0
LINE
5
410
100
AcDbEntity
8
1-0
6
CONTINUOUS
62
3
100
AcDbLine
10
63801.629999999997
20
36234.849999999999
30
0.0
11
65076.120000000003
21
35837.610000000001
31
0.0
0
LINE
5
411
100
AcDbEntity
8
1-0
6
CONTINUOUS
62
4
100
AcDbLine
10
73605.949999999997
20
17350.490000000002
30
0.0
11
73279.330000000002
21
17224.750000000000
31
0.0
0
LINE
5
412
100
AcDbEntity
8
1-0
6
CONTINUOUS
62
4
100
AcDbLine
10
77519.440000000002
20
13334.150000000000
30
0.0
11
78168.190000000002
21
14159.750000000000
31
0.0
0
LINE
5
413
100
AcDbEntity
8
1-0
6
CONTINUOUS
62
4
100
AcDbLine
10
69443.539999999994
20
17794.540000000001
30
0.0
11
67275.669999999998
21
19566.639999999999
31
0.0
0
LINE
5
414
100
AcDbEntity
8
1-0
6
CONTINUOUS
62
4
100
AcDbLine
10
79420.800000000003
20
15417.559999999999
30
0.0
11
78936.399999999994
21
18175.340000000000
31
0.0
0
LINE
5
415
100
AcDbEntity
8
1-0
6
CONTINUOUS
62
4
100
AcDbLine
10
76207.179999999993
20
11515.740000000000
30
0.0
11
76247.559999999998
21
11863.360000000001
31
0.0
0
LINE
5
416
100
AcDbEntity
8
1-0
6
CONTINUOUS
62
4
100
AcDbLine
10
77254.000000000000
20
12429.889999999999
30
0.0
11
78984.009999999995
21
14631.490000000000
31
0.0
0
LINE
5
417
100
AcDbEntity
8
1-0
6
CONTINUOUS
62
3
100
AcDbLine
10
46866.790000000001
20
13141.500000000000
30
0.0
11
47440.029999999999
21
14603.660000000000
31
0.0
0
LINE
5
418
100
AcDbEntity
8
1-0
6
CONTINUOUS
62
4
100
AcDbLine
10
68544.580000000002
20
18077.360000000001
30
0.0
11
67731.619999999995
21
18741.869999999999
31
0.0
0
LINE
5
419
100
AcDbEntity
8
1-0
6
CONTINUOUS
62
4
100
AcDbLine
10
74497.740000000005
20
18443.799999999999
30
0.0
11
71884.630000000005
21
17437.980000000000
31
0.0
0
LINE
5
41a
100
AcDbEntity
8
1-0
6
CONTINUOUS
62
4
100
AcDbLine
10
66687.649999999994
20
20354.299999999999
30
0.0
11
67917.910000000003
21
22869.529999999999
31
0.0
0
LINE
5
41b
100
AcDbEntity
8
1-0
6
CONTINUOUS
62
4
100
AcDbLine
10
73806.880000000005
20
17802.849999999999
30
0.0
11
72826.949999999997
21
17425.669999999998
31
0.0
0
LINE
5
41c
100
AcDbEntity
8
1-0
6
CONTINUOUS
62
4
100
AcDbLine
10
78489.160000000003
20
16675.380000000001
30
0.0
11
76960.419999999998
21
16406.820000000000
31
0.0
0
LINE
5
41d
100
AcDbEntity
8
1-0
6
CONTINUOUS
62
3
100
AcDbLine
10
51327.419999999998
20
14119.740000000000
30
0.0
11
51956.459999999999
21
14099.850000000000
31
0.0
0
LINE
5
41e
100
AcDbEntity
8
1-0
6
DOT
62
2
100
AcDbLine
10
77088.610000000001
20
19753.770000000000
30
0.0
11
72012.410000000003
21
22688.130000000001
31
0.0
0
LINE
5
41f
100
AcDbEntity
8
1-0
6
CONTINUOUS
62
3
100
AcDbLine
10
59021.559999999998
20
27783.770000000000
30
0.0
11
58916.370000000003
21
24351.880000000001
31
0.0
0
LINE
5
420
100
AcDbEntity
8
1-0
6
CONTINUOUS
62
3
100
AcDbLine
10
64482.019999999997
20
26940.570000000000
30
0.0
11
61808.430000000000
21
27679.279999999999
31
0.0
0
LINE
5
421
100
AcDbEntity
8
1-0
6
CONTINUOUS
62
3
100
AcDbLine
10
9531.600000000000
20
50961.750000000000
30
0.0
11
15500.570000000000
21
46770.779999999999
31
0.0
0
LINE
5
422
100
AcDbEntity
8
1-0
6
CONTINUOUS
62
3
100
AcDbLine
10
25914.590000000000
20
41563.750000000000
30
0.0
11
40138.570000000000
21
34832.730000000003
31
0.0
0
LINE
5
423
100
AcDbEntity
8
1-0
6
CONTINUOUS
62
3
100
AcDbLine
10
78045.910000000003
20
768.940000000000
30
0.0
11
70892.050000000003
21
5532.680000000000
31
0.0
0
LINE
5
424
100
AcDbEntity
8
1-0
6
CONTINUOUS
62
3
100
AcDbLine
10
75753.990000000005
20
15989.520000000000
30
0.0
11
71575.339999999997
21
14555.980000000000
31
0.0
0
LINE
5
425
100
AcDbEntity
8
1-0
6
CONTINUOUS
62
3
100
AcDbLine
10
58313.519999999997
20
20663.529999999999
30
0.0
11
55008.330000000002
21
21015.650000000001
31
0.0
0
LINE
5
426
100
AcDbEntity
8
1-0
6
CONTINUOUS
62
3
100
AcDbLine
10
68267.929999999993
20
15162.129999999999
30
0.0
11
64082.629999999997
21
14490.620000000001
31
0.0
0
LINE
5
427
100
AcDbEntity
8
1-0
6
DOT
62
2
100
AcDbLine
10
69155.389999999999
20
24602.889999999999
30
0.0
11
72012.410000000003
21
22688.130000000001
31
0.0
0
LINE
5
428
100
AcDbEntity
8
1-0
6
CONTINUOUS
62
3
100
AcDbLine
10
61808.430000000000
20
27679.279999999999
30
0.0
11
59021.559999999998
21
27783.770000000000
31
0.0
0
LINE
5
429
100
AcDbEntity
8
1-0
6
CONTINUOUS
62
3
100
AcDbLine
10
80416.919999999998
20
23937.590000000000
30
0.0
11
82174.710000000006
21
24930.770000000000
31
0.0
0
LINE
5
42a
100
AcDbEntity
8
1-0
6
CONTINUOUS
62
3
100
AcDbLine
10
40138.570000000000
20
34832.730000000003
30
0.0
11
45472.580000000002
21
32673.720000000001
31
0.0
0
LINE
5
42b
100
AcDbEntity
8
1-0
6
CONTINUOUS
62
3
100
AcDbLine
10
83454.149999999994
20
21390.950000000001
30
0.0
11
83710.240000000005
21
21089.040000000001
31
0.0
0
LINE
5
42c
100
AcDbEntity
8
1-0
6
CONTINUOUS
62
3
100
AcDbLine
10
83738.949999999997
20
23867.919999999998
30
0.0
11
82174.710000000006
21
24930.770000000000
31
0.0
0
LINE
5
42d
100
AcDbEntity
8
1-0
6
CONTINUOUS
62
3
100
AcDbLine
10
53024.379999999997
20
13706.379999999999
30
0.0
11
51327.419999999998
21
14119.740000000000
31
0.0
0
LINE
5
42e
100
AcDbEntity
8
1-0
6
CONTINUOUS
62
3
100
AcDbLine
10
45345.570000000000
20
12607.750000000000
30
0.0
11
43948.620000000003
21
12099.760000000000
31
0.0
0
LINE
5
42f
100
AcDbEntity
8
1-0
6
CONTINUOUS
62
3
100
AcDbLine
10
81791.039999999994
20
22773.450000000001
30
0.0
11
83451.960000000006
21
21644.919999999998
31
0.0
0
LINE
5
430
100
AcDbEntity
8
1-0
6
CONTINUOUS
62
3
100
AcDbLine
10
645.420000000000
20
58215.730000000003
30
0.0
11
9531.600000000000
21
50961.750000000000
31
0.0
0
LINE
5
431
100
AcDbEntity
8
1-0
6
CONTINUOUS
62
3
100
AcDbLine
10
64916.830000000002
20
35326.680000000000
30
0.0
11
65718.110000000001
21
35076.919999999998
31
0.0
0
LINE
5
432
100
AcDbEntity
8
1-0
6
CONTINUOUS
62
3
100
AcDbLine
10
80272.610000000001
20
22125.200000000001
30
0.0
11
81156.059999999998
21
22767.900000000001
31
0.0
0
LINE
5
433
100
AcDbEntity
8
1-0
6
CONTINUOUS
62
3
100
AcDbLine
10
78615.050000000003
20
22872.700000000001
30
0.0
11
80272.610000000001
21
22125.200000000001
31
0.0
0
LINE
5
434
100
AcDbEntity
8
1-0
6
CONTINUOUS
62
3
100
AcDbLine
10
81156.059999999998
20
22767.900000000001
30
0.0
11
81791.039999999994
21
22773.450000000001
31
0.0
0
LINE
5
435
100
AcDbEntity
8
1-0
6
CONTINUOUS
62
4
100
AcDbLine
10
20565.099999999999
20
45244.739999999998
30
0.0
11
20878.130000000001
21
45088.220000000001
31
0.0
0
LINE
5
436
100
AcDbEntity
8
1-0
6
CONTINUOUS
62
4
100
AcDbLine
10
20117.880000000001
20
45132.959999999999
30
0.0
11
21057.020000000000
21
44663.379999999997
31
0.0
0
LINE
5
437
100
AcDbEntity
8
1-0
6
CONTINUOUS
62
4
100
AcDbLine
10
13327.740000000000
20
48662.959999999999
30
0.0
11
15619.299999999999
21
47053.980000000003
31
0.0
0
LINE
5
438
100
AcDbEntity
8
1-0
6
CONTINUOUS
62
4
100
AcDbLine
10
5570.380000000000
20
55357.199999999997
30
0.0
11
5841.500000000000
21
55135.889999999999
31
0.0
0
LINE
5
439
100
AcDbEntity
8
1-0
6
CONTINUOUS
62
4
100
AcDbLine
10
4241.990000000000
20
55667.080000000002
30
0.0
11
6411.050000000000
21
53896.410000000003
31
0.0
0
LINE
5
43a
100
AcDbEntity
8
1-0
6
CONTINUOUS
62
4
100
AcDbLine
10
26482.250000000000
20
42290.800000000003
30
0.0
11
26798.590000000000
21
42141.110000000001
31
0.0
0
LINE
5
43b
100
AcDbEntity
8
1-0
6
CONTINUOUS
62
4
100
AcDbLine
10
80162.809999999998
20
7432.450000000000
30
0.0
11
76512.729999999996
21
2476.070000000000
31
0.0
0
LINE
5
43c
100
AcDbEntity
8
1-0
6
CONTINUOUS
62
4
100
AcDbLine
10
81705.190000000002
20
7165.880000000000
30
0.0
11
79450.610000000001
21
8826.290000000001
31
0.0
0
LINE
5
43d
100
AcDbEntity
8
1-0
6
CONTINUOUS
62
4
100
AcDbLine
10
521.900000000000
20
58703.849999999999
30
0.0
11
2690.960000000000
21
56933.190000000002
31
0.0
0
LINE
5
43e
100
AcDbEntity
8
1-0
6
CONTINUOUS
62
4
100
AcDbLine
10
10706.760000000000
20
51236.320000000000
30
0.0
11
11223.930000000000
21
51972.889999999999
31
0.0
0
LINE
5
43f
100
AcDbEntity
8
1-0
6
CONTINUOUS
62
4
100
AcDbLine
10
10563.549999999999
20
51336.879999999997
30
0.0
11
10849.969999999999
21
51135.769999999997
31
0.0
0
LINE
5
440
100
AcDbEntity
8
1-0
6
CONTINUOUS
62
4
100
AcDbLine
10
14216.250000000000
20
48405.660000000003
30
0.0
11
15075.580000000000
21
47802.300000000003
31
0.0
0
LINE
5
441
100
AcDbEntity
8
1-0
6
CONTINUOUS
62
4
100
AcDbLine
10
19201.090000000000
20
45255.940000000002
30
0.0
11
21705.480000000000
21
44003.750000000000
31
0.0
0
LINE
5
442
100
AcDbEntity
8
1-0
6
CONTINUOUS
62
4
100
AcDbLine
10
14818.299999999999
20
48349.510000000002
30
0.0
11
15335.459999999999
21
49086.080000000002
31
0.0
0
LINE
5
443
100
AcDbEntity
8
1-0
6
CONTINUOUS
62
4
100
AcDbLine
10
1389.440000000000
20
58382.889999999999
30
0.0
11
2202.830000000000
21
57718.930000000000
31
0.0
0
LINE
5
444
100
AcDbEntity
8
1-0
6
CONTINUOUS
62
4
100
AcDbLine
10
56090.370000000003
20
31285.209999999999
30
0.0
11
57138.820000000000
21
31342.029999999999
31
0.0
0
LINE
5
445
100
AcDbEntity
8
1-0
6
CONTINUOUS
62
4
100
AcDbLine
10
1850.290000000000
20
58393.970000000001
30
0.0
11
2121.400000000000
21
58172.660000000003
31
0.0
0
LINE
5
446
100
AcDbEntity
8
1-0
6
CONTINUOUS
62
4
100
AcDbLine
10
14675.090000000000
20
48450.070000000000
30
0.0
11
14961.510000000000
21
48248.959999999999
31
0.0
0
LINE
5
447
100
AcDbEntity
8
1-0
6
CONTINUOUS
62
4
100
AcDbLine
10
69274.449999999997
20
28952.810000000001
30
0.0
11
71611.229999999996
21
27410.240000000002
31
0.0
0
LINE
5
448
100
AcDbEntity
8
1-0
6
CONTINUOUS
62
4
100
AcDbLine
10
9216.209999999999
20
51549.769999999997
30
0.0
11
11507.770000000000
21
49940.790000000001
31
0.0
0
LINE
5
449
100
AcDbEntity
8
1-0
6
CONTINUOUS
62
4
100
AcDbLine
10
5109.530000000000
20
55346.120000000003
30
0.0
11
5922.930000000000
21
54682.150000000001
31
0.0
0
LINE
5
44a
100
AcDbEntity
8
1-0
6
CONTINUOUS
62
4
100
AcDbLine
10
1985.840000000000
20
58283.320000000000
30
0.0
11
2464.940000000000
21
58870.190000000002
31
0.0
0
LINE
5
44b
100
AcDbEntity
8
1-0
6
CONTINUOUS
62
4
100
AcDbLine
10
10104.709999999999
20
51292.470000000001
30
0.0
11
10964.040000000001
21
50689.110000000001
31
0.0
0
LINE
5
44c
100
AcDbEntity
8
1-0
6
CONTINUOUS
62
4
100
AcDbLine
10
80303.720000000001
20
7328.670000000000
30
0.0
11
80021.899999999994
21
7536.220000000000
31
0.0
0
LINE
5
44d
100
AcDbEntity
8
1-0
6
CONTINUOUS
62
3
100
AcDbLine
10
65970.479999999996
20
31017.720000000001
30
0.0
11
66226.679999999993
21
30765.950000000001
31
0.0
0
LINE
5
44e
100
AcDbEntity
8
1-0
6
CONTINUOUS
62
4
100
AcDbLine
10
77568.600000000006
20
13963.180000000000
30
0.0
11
75522.850000000006
21
15570.790000000001
31
0.0
0
LINE
5
44f
100
AcDbEntity
8
1-0
6
CONTINUOUS
62
3
100
AcDbLine
10
45472.580000000002
20
32673.720000000001
30
0.0
11
49409.589999999997
21
31530.720000000001
31
0.0
0
LINE
5
450
100
AcDbEntity
8
1-0
6
CONTINUOUS
62
3
100
AcDbLine
10
65831.289999999994
20
32413.540000000001
30
0.0
11
65970.479999999996
21
31017.720000000001
31
0.0
0
LINE
5
451
100
AcDbEntity
8
1-0
6
CONTINUOUS
62
3
100
AcDbLine
10
53473.570000000000
20
30768.759999999998
30
0.0
11
55940.080000000002
21
30676.169999999998
31
0.0
0
LINE
5
452
100
AcDbEntity
8
1-0
6
CONTINUOUS
62
4
100
AcDbLine
10
68052.070000000007
20
18027.889999999999
30
0.0
11
67781.100000000006
21
18249.380000000001
31
0.0
0
LINE
5
453
100
AcDbEntity
8
1-0
6
CONTINUOUS
62
4
100
AcDbLine
10
76761.169999999998
20
10218.129999999999
30
0.0
11
77084.220000000001
21
12999.430000000000
31
0.0
0
LINE
5
454
100
AcDbEntity
8
1-0
6
CONTINUOUS
62
4
100
AcDbLine
10
77460.500000000000
20
13825.610000000001
30
0.0
11
77676.729999999996
21
14100.790000000001
31
0.0
0
LINE
5
455
100
AcDbEntity
8
1-0
6
CONTINUOUS
62
4
100
AcDbLine
10
73442.639999999999
20
17287.619999999999
30
0.0
11
73704.690000000002
21
16606.810000000001
31
0.0
0
LINE
5
456
100
AcDbEntity
8
1-0
6
CONTINUOUS
62
4
100
AcDbLine
10
76514.460000000006
20
11127.680000000000
30
0.0
11
76635.610000000001
21
12170.680000000000
31
0.0
0
LINE
5
457
100
AcDbEntity
8
1-0
6
CONTINUOUS
62
4
100
AcDbLine
10
78519.419999999998
20
16503.009999999998
30
0.0
11
78458.880000000005
21
16847.700000000001
31
0.0
0
LINE
5
458
100
AcDbEntity
8
1-0
6
CONTINUOUS
62
3
100
AcDbLine
10
49409.589999999997
20
31530.720000000001
30
0.0
11
53473.570000000000
21
30768.759999999998
31
0.0
0
LINE
5
459
100
AcDbEntity
8
1-0
6
CONTINUOUS
62
4
100
AcDbLine
10
77554.289999999994
20
9353.500000000000
30
0.0
11
73856.910000000003
21
4332.880000000000
31
0.0
0
LINE
5
45a
100
AcDbEntity
8
1-0
6
CONTINUOUS
62
4
100
AcDbLine
10
79096.669999999998
20
9086.930000000000
30
0.0
11
76842.089999999997
21
10747.340000000000
31
0.0
0
LINE
5
45b
100
AcDbEntity
8
1-0
6
CONTINUOUS
62
4
100
AcDbLine
10
77695.199999999997
20
9249.719999999999
30
0.0
11
77413.380000000005
21
9457.270000000000
31
0.0
0
LINE
5
45c
100
AcDbEntity
8
1-0
6
CONTINUOUS
62
4
100
AcDbLine
10
80793.080000000002
20
7402.940000000000
30
0.0
11
79947.619999999995
21
8025.600000000000
31
0.0
0
LINE
5
45d
100
AcDbEntity
8
1-0
6
CONTINUOUS
62
3
100
AcDbLine
10
64302.910000000003
20
32908.220000000001
30
0.0
11
65831.289999999994
21
32413.540000000001
31
0.0
0
LINE
5
45e
100
AcDbEntity
8
1-0
6
CONTINUOUS
62
3
100
AcDbLine
10
58732.870000000003
20
30827.529999999999
30
0.0
11
63298.059999999998
21
31629.419999999998
31
0.0
0
LINE
5
45f
100
AcDbEntity
8
1-0
6
CONTINUOUS
62
3
100
AcDbLine
10
83451.960000000006
20
21644.919999999998
30
0.0
11
83454.149999999994
21
21390.950000000001
31
0.0
0
LINE
5
460
100
AcDbEntity
8
1-0
6
CONTINUOUS
62
3
100
AcDbLine
10
63298.059999999998
20
31629.419999999998
30
0.0
11
64302.910000000003
21
32908.220000000001
31
0.0
0
LINE
5
461
100
AcDbEntity
8
1-0
6
CONTINUOUS
62
3
100
AcDbLine
10
74531.240000000005
20
25123.200000000001
30
0.0
11
78615.050000000003
21
22872.700000000001
31
0.0
0
LINE
5
462
100
AcDbEntity
8
1-0
6
CONTINUOUS
62
3
100
AcDbLine
10
55940.080000000002
20
30676.169999999998
30
0.0
11
58732.870000000003
21
30827.529999999999
31
0.0
0
LINE
5
463
100
AcDbEntity
8
1-0
6
CONTINUOUS
62
3
100
AcDbLine
10
38144.070000000000
20
37989.800000000003
30
0.0
11
46742.610000000001
21
34070.760000000002
31
0.0
0
LINE
5
464
100
AcDbEntity
8
1-0
6
CONTINUOUS
62
3
100
AcDbLine
10
67616.639999999999
20
25634.139999999999
30
0.0
11
64482.019999999997
21
26940.570000000000
31
0.0
0
LINE
5
465
100
AcDbEntity
8
1-0
6
CONTINUOUS
62
4
100
AcDbLine
10
61715.339999999997
20
26982.290000000001
30
0.0
11
60666.080000000002
21
27021.619999999999
31
0.0
0
LINE
5
466
100
AcDbEntity
8
1-0
6
CONTINUOUS
62
4
100
AcDbLine
10
61352.470000000001
20
26645.650000000001
30
0.0
11
61002.739999999998
21
26658.770000000000
31
0.0
0
LINE
5
467
100
AcDbEntity
8
1-0
6
CONTINUOUS
62
3
100
AcDbLine
10
59021.559999999998
20
27783.770000000000
30
0.0
11
61340.050000000003
21
22643.299999999999
31
0.0
0
LINE
5
468
100
AcDbEntity
8
1-0
6
CONTINUOUS
62
4
100
AcDbLine
10
59112.349999999999
20
23381.090000000000
30
0.0
11
58660.709999999999
21
20617.790000000001
31
0.0
0
LINE
5
469
100
AcDbEntity
8
1-0
6
CONTINUOUS
62
4
100
AcDbLine
10
59577.370000000003
20
21886.529999999999
30
0.0
11
60712.040000000001
21
21701.070000000000
31
0.0
0
LINE
5
46a
100
AcDbEntity
8
1-0
6
CONTINUOUS
62
4
100
AcDbLine
10
10852.840000000000
20
37273.430000000000
30
0.0
11
9024.629999999999
21
38584.989999999998
31
0.0
0
LINE
5
46b
100
AcDbEntity
8
1-0
6
CONTINUOUS
62
4
100
AcDbLine
10
19762.299999999999
20
30939.230000000000
30
0.0
11
15163.200000000001
21
34792.570000000000
31
0.0
0
LINE
5
46c
100
AcDbEntity
8
1-0
6
CONTINUOUS
62
4
100
AcDbLine
10
70169.979999999996
20
28721.119999999999
30
0.0
11
71046.259999999995
21
28142.660000000000
31
0.0
0
LINE
5
46d
100
AcDbEntity
8
1-0
6
CONTINUOUS
62
4
100
AcDbLine
10
9501.549999999999
20
37319.790000000001
30
0.0
11
7120.270000000000
21
34000.480000000003
31
0.0
0
LINE
5
46e
100
AcDbEntity
8
1-0
6
CONTINUOUS
62
4
100
AcDbLine
10
9806.260000000000
20
37101.190000000002
30
0.0
11
9196.850000000000
21
37538.379999999997
31
0.0
0
LINE
5
46f
100
AcDbEntity
8
1-0
6
CONTINUOUS
62
4
100
AcDbLine
10
17843.419999999998
20
31568.509999999998
30
0.0
11
16118.750000000000
21
33013.510000000002
31
0.0
0
LINE
5
470
100
AcDbEntity
8
1-0
6
CONTINUOUS
62
4
100
AcDbLine
10
61177.610000000001
20
26652.209999999999
30
0.0
11
61067.989999999998
21
23729.840000000000
31
0.0
0
LINE
5
471
100
AcDbEntity
8
1-0
6
CONTINUOUS
62
4
100
AcDbLine
10
62602.839999999997
20
27299.240000000002
30
0.0
11
59804.809999999998
21
27404.160000000000
31
0.0
0
LINE
5
472
100
AcDbEntity
8
1-0
6
CONTINUOUS
62
4
100
AcDbLine
10
66257.869999999995
20
25442.099999999999
30
0.0
11
65288.669999999998
21
25846.029999999999
31
0.0
0
LINE
5
473
100
AcDbEntity
8
1-0
6
CONTINUOUS
62
4
100
AcDbLine
10
65638.630000000005
20
25320.970000000001
30
0.0
11
64567.959999999999
21
22752.040000000001
31
0.0
0
LINE
5
474
100
AcDbEntity
8
1-0
6
CONTINUOUS
62
4
100
AcDbLine
10
67200.169999999998
20
25428.520000000000
30
0.0
11
64615.650000000001
21
26505.700000000001
31
0.0
0
LINE
5
475
100
AcDbEntity
8
1-0
6
CONTINUOUS
62
4
100
AcDbLine
10
65800.149999999994
20
25253.680000000000
30
0.0
11
65477.110000000001
21
25388.290000000001
31
0.0
0
LINE
5
476
100
AcDbEntity
8
1-0
6
CONTINUOUS
62
4
100
AcDbLine
10
39486.690000000002
20
27777.400000000001
30
0.0
11
36524.110000000001
21
20667.200000000001
31
0.0
0
LINE
5
477
100
AcDbEntity
8
1-0
6
CONTINUOUS
62
4
100
AcDbLine
10
30332.200000000001
20
30777.369999999999
30
0.0
11
28221.139999999999
21
24142.419999999998
31
0.0
0
LINE
5
478
100
AcDbEntity
8
1-0
6
CONTINUOUS
62
4
100
AcDbLine
10
39832.849999999999
20
27633.139999999999
30
0.0
11
39140.529999999999
21
27921.619999999999
31
0.0
0
LINE
5
479
100
AcDbEntity
8
1-0
6
CONTINUOUS
62
4
100
AcDbLine
10
33645.790000000001
20
31297.139999999999
30
0.0
11
27928.220000000001
21
33116.360000000001
31
0.0
0
LINE
5
47a
100
AcDbEntity
8
1-0
6
CONTINUOUS
62
4
100
AcDbLine
10
42832.839999999997
20
28008.139999999999
30
0.0
11
37294.389999999999
21
30315.849999999999
31
0.0
0
LINE
5
47b
100
AcDbEntity
8
1-0
6
CONTINUOUS
62
4
100
AcDbLine
10
40813.620000000003
20
28036.980000000000
30
0.0
11
38736.699999999997
21
28902.400000000001
31
0.0
0
LINE
5
47c
100
AcDbEntity
8
1-0
6
CONTINUOUS
62
4
100
AcDbLine
10
50829.190000000002
20
21392.209999999999
30
0.0
11
44847.800000000003
21
20920.009999999998
31
0.0
0
LINE
5
47d
100
AcDbEntity
8
1-0
6
CONTINUOUS
62
4
100
AcDbLine
10
16786.860000000001
20
31475.270000000000
30
0.0
11
16211.969999999999
21
31956.959999999999
31
0.0
0
LINE
5
47e
100
AcDbEntity
8
1-0
6
CONTINUOUS
62
4
100
AcDbLine
10
12813.530000000001
20
36789.879999999997
30
0.0
11
7938.310000000000
21
40287.320000000000
31
0.0
0
LINE
5
47f
100
AcDbEntity
8
1-0
6
CONTINUOUS
62
4
100
AcDbLine
10
24088.349999999999
20
32224.849999999999
30
0.0
11
22134.799999999999
21
31108.509999999998
31
0.0
0
LINE
5
480
100
AcDbEntity
8
1-0
6
CONTINUOUS
62
4
100
AcDbLine
10
16499.419999999998
20
31716.119999999999
30
0.0
11
14637.600000000000
21
29493.950000000001
31
0.0
0
LINE
5
481
100
AcDbEntity
8
1-0
6
CONTINUOUS
62
4
100
AcDbLine
10
25344.209999999999
20
33806.269999999997
30
0.0
11
20134.740000000002
21
30829.459999999999
31
0.0
0
LINE
5
482
100
AcDbEntity
8
1-0
6
CONTINUOUS
62
4
100
AcDbLine
10
4277.320000000000
20
42312.190000000002
30
0.0
11
2630.160000000000
21
43844.959999999999
31
0.0
0
LINE
5
483
100
AcDbEntity
8
1-0
6
CONTINUOUS
62
3
100
AcDbLine
10
737.470000000000
20
37091.440000000002
30
0.0
11
2927.580000000000
21
35467.739999999998
31
0.0
0
LINE
5
484
100
AcDbEntity
8
1-0
6
CONTINUOUS
62
3
100
AcDbLine
10
628.220000000000
20
36425.510000000002
30
0.0
11
2601.320000000000
21
34962.699999999997
31
0.0
0
LINE
5
485
100
AcDbEntity
8
1-0
6
CONTINUOUS
62
4
100
AcDbLine
10
2942.820000000000
20
42529.529999999999
30
0.0
11
422.980000000000
21
39821.639999999999
31
0.0
0
LINE
5
486
100
AcDbEntity
8
1-0
6
CONTINUOUS
62
4
100
AcDbLine
10
3217.340000000000
20
42274.070000000000
30
0.0
11
2668.290000000000
21
42785.000000000000
31
0.0
0
LINE
5
487
100
AcDbEntity
8
1-0
6
CONTINUOUS
62
4
100
AcDbLine
10
6160.860000000000
20
41583.949999999997
30
0.0
11
1768.450000000000
21
45671.320000000000
31
0.0
0
LINE
5
488
100
AcDbEntity
8
1-0
6
CONTINUOUS
62
4
100
AcDbLine
10
55170.080000000002
20
18735.680000000000
30
0.0
11
54424.300000000003
21
18815.150000000001
31
0.0
0
LINE
5
489
100
AcDbEntity
8
1-0
6
CONTINUOUS
62
4
100
AcDbLine
10
48330.370000000003
20
19690.259999999998
30
0.0
11
47582.709999999999
21
19631.250000000000
31
0.0
0
LINE
5
48a
100
AcDbEntity
8
1-0
6
CONTINUOUS
62
4
100
AcDbLine
10
47956.550000000003
20
19660.759999999998
30
0.0
11
48243.010000000002
21
16031.760000000000
31
0.0
0
LINE
5
48b
100
AcDbEntity
8
1-0
6
CONTINUOUS
62
4
100
AcDbLine
10
23809.270000000000
20
31201.560000000001
30
0.0
11
23158.090000000000
21
30829.430000000000
31
0.0
0
LINE
5
48c
100
AcDbEntity
8
1-0
6
CONTINUOUS
62
4
100
AcDbLine
10
49019.040000000001
20
20496.970000000001
30
0.0
11
46776.010000000002
21
20319.880000000001
31
0.0
0
LINE
5
48d
100
AcDbEntity
8
1-0
6
CONTINUOUS
62
4
100
AcDbLine
10
57939.209999999999
20
19949.180000000000
30
0.0
11
51972.959999999999
21
20584.770000000000
31
0.0
0
LINE
5
48e
100
AcDbEntity
8
1-0
6
CONTINUOUS
62
4
100
AcDbLine
10
54797.199999999997
20
18775.410000000000
30
0.0
11
54416.570000000000
21
15202.690000000001
31
0.0
0
LINE
5
48f
100
AcDbEntity
8
1-0
6
CONTINUOUS
62
3
100
AcDbLine
10
72489.600000000006
20
16139.120000000001
30
0.0
11
70677.509999999995
21
15564.170000000000
31
0.0
0
LINE
5
490
100
AcDbEntity
8
1-0
6
CONTINUOUS
62
4
100
AcDbLine
10
55995.320000000000
20
19402.000000000000
30
0.0
11
53757.970000000001
21
19640.369999999999
31
0.0
0
LINE
5
491
100
AcDbEntity
8
1-0
6
CONTINUOUS
62
4
100
AcDbLine
10
23483.680000000000
20
31015.500000000000
30
0.0
11
27065.639999999999
21
24746.970000000001
31
0.0
0
LINE
5
492
100
AcDbEntity
8
1-0
6
CONTINUOUS
62
4
100
AcDbLine
10
31631.639999999999
20
31150.959999999999
30
0.0
11
29487.549999999999
21
31833.150000000001
31
0.0
0
LINE
5
493
100
AcDbEntity
8
1-0
6
CONTINUOUS
62
4
100
AcDbLine
10
30689.549999999999
20
30663.660000000000
30
0.0
11
29974.849999999999
21
30891.040000000001
31
0.0
0
LINE
5
494
100
AcDbEntity
8
1-0
6
CONTINUOUS
62
3
100
AcDbLine
10
83631.460000000006
20
1071.680000000000
30
0.0
11
78045.910000000003
21
768.940000000000
31
0.0
0
LINE
5
495
100
AcDbEntity
8
1-0
6
CONTINUOUS
62
3
100
AcDbLine
10
82308.330000000002
20
7156.390000000000
30
0.0
11
77195.270000000004
21
10921.900000000000
31
0.0
0
LINE
5
496
100
AcDbEntity
8
1-0
6
CONTINUOUS
62
3
100
AcDbLine
10
70892.050000000003
20
5532.680000000000
30
0.0
11
71323.559999999998
21
14299.760000000000
31
0.0
0
LINE
5
497
100
AcDbEntity
8
1-0
6
CONTINUOUS
62
3
100
AcDbLine
10
74712.550000000003
20
18901.509999999998
30
0.0
11
70585.660000000003
21
17313.040000000001
31
0.0
0
LINE
5
498
100
AcDbEntity
8
1-0
6
DASHED2
62
3
100
AcDbLine
10
76131.600000000006
20
16877.560000000001
30
0.0
11
83241.820000000007
21
24205.709999999999
31
0.0
0
LINE
5
499
100
AcDbEntity
8
1-0
6
CONTINUOUS
62
3
100
AcDbLine
10
68076.089999999997
20
33861.839999999997
30
0.0
11
68373.660000000003
21
34816.550000000003
31
0.0
0
LINE
5
49a
100
AcDbEntity
8
1-0
6
CONTINUOUS
62
4
100
AcDbLine
10
78184.559999999998
20
9324.000000000000
30
0.0
11
77339.100000000006
21
9946.639999999999
31
0.0
0
LINE
5
49b
100
AcDbEntity
8
1-0
6
CONTINUOUS
62
3
100
AcDbLine
10
61870.389999999999
20
32975.519999999997
30
0.0
11
63504.050000000003
21
35280.139999999999
31
0.0
0
LINE
5
49c
100
AcDbEntity
8
1-0
6
CONTINUOUS
62
3
100
AcDbLine
10
63504.050000000003
20
35280.139999999999
30
0.0
11
63801.629999999997
21
36234.849999999999
31
0.0
0
LINE
5
49d
100
AcDbEntity
8
1-0
6
CONTINUOUS
62
3
100
AcDbLine
10
68076.089999999997
20
33861.839999999997
30
0.0
11
68184.789999999994
21
31924.250000000000
31
0.0
0
LINE
5
49e
100
AcDbEntity
8
1-0
6
CONTINUOUS
62
3
100
AcDbLine
10
46866.790000000001
20
13141.500000000000
30
0.0
11
45656.190000000002
21
12082.270000000000
31
0.0
0
LINE
5
49f
100
AcDbEntity
8
1-0
6
CONTINUOUS
62
3
100
AcDbLine
10
76346.889999999999
20
16668.650000000001
30
0.0
11
76259.759999999995
21
16247.950000000001
31
0.0
0
LINE
5
4a0
100
AcDbEntity
8
1-0
6
CONTINUOUS
62
3
100
AcDbLine
10
55008.330000000002
20
21015.650000000001
30
0.0
11
50679.559999999998
21
22132.709999999999
31
0.0
0
LINE
5
4a1
100
AcDbEntity
8
1-0
6
DASHED2
62
3
100
AcDbLine
10
76131.600000000006
20
16877.560000000001
30
0.0
11
76346.889999999999
21
16668.650000000001
31
0.0
0
LINE
5
4a2
100
AcDbEntity
8
1-0
6
CONTINUOUS
62
3
100
AcDbLine
10
79825.610000000001
20
15136.010000000000
30
0.0
11
79291.039999999994
21
18179.470000000001
31
0.0
0
LINE
5
4a3
100
AcDbEntity
8
1-0
6
CONTINUOUS
62
3
100
AcDbLine
10
58916.370000000003
20
24351.880000000001
30
0.0
11
58313.519999999997
21
20663.529999999999
31
0.0
0
LINE
5
4a4
100
AcDbEntity
8
1-0
6
DOT
62
3
100
AcDbLine
10
59021.559999999998
20
27783.770000000000
30
0.0
11
53981.589999999997
21
27339.740000000002
31
0.0
0
LINE
5
4a5
100
AcDbEntity
8
1-0
6
CONTINUOUS
62
3
100
AcDbLine
10
67828.210000000006
20
21889.549999999999
30
0.0
11
69155.389999999999
21
24602.889999999999
31
0.0
0
LINE
5
4a6
100
AcDbEntity
8
1-0
6
CONTINUOUS
62
3
100
AcDbLine
10
77195.270000000004
20
10921.900000000000
30
0.0
11
77313.410000000003
21
11938.990000000000
31
0.0
0
LINE
5
4a7
100
AcDbEntity
8
1-0
6
DASHED2
62
3
100
AcDbLine
10
76346.889999999999
20
16668.650000000001
30
0.0
11
83493.710000000006
21
24034.540000000001
31
0.0
0
LINE
5
4a8
100
AcDbEntity
8
1-0
6
CONTINUOUS
62
3
100
AcDbLine
10
71575.339999999997
20
14555.980000000000
30
0.0
11
71323.559999999998
21
14299.760000000000
31
0.0
0
LINE
5
4a9
100
AcDbEntity
8
1-0
6
CONTINUOUS
62
3
100
AcDbLine
10
75854.389999999999
20
19038.470000000001
30
0.0
11
74712.550000000003
21
18901.509999999998
31
0.0
0
LINE
5
4aa
100
AcDbEntity
8
1-0
6
CONTINUOUS
62
3
100
AcDbLine
10
66866.229999999996
20
20353.389999999999
30
0.0
11
67828.210000000006
21
21889.549999999999
31
0.0
0
LINE
5
4ab
100
AcDbEntity
8
1-0
6
CONTINUOUS
62
3
100
AcDbLine
10
62556.970000000001
20
33944.419999999998
30
0.0
11
62367.669999999998
21
33677.419999999998
31
0.0
0
LINE
5
4ac
100
AcDbEntity
8
1-0
6
CONTINUOUS
62
3
100
AcDbLine
10
15500.570000000000
20
46770.779999999999
30
0.0
11
25914.590000000000
21
41563.750000000000
31
0.0
0
LINE
5
4ad
100
AcDbEntity
8
1-0
6
CONTINUOUS
62
4
100
AcDbLine
10
70627.360000000001
20
28778.650000000001
30
0.0
11
70919.419999999998
21
28585.830000000002
31
0.0
0
LINE
5
4ae
100
AcDbEntity
8
1-0
6
CONTINUOUS
62
3
100
AcDbLine
10
62298.050000000003
20
15237.020000000000
30
0.0
11
62770.559999999998
21
19305.330000000002
31
0.0
0
LINE
5
4af
100
AcDbEntity
8
1-0
6
CONTINUOUS
62
3
100
AcDbLine
10
76131.600000000006
20
16877.560000000001
30
0.0
11
75617.020000000004
21
17131.360000000001
31
0.0
0
LINE
5
4b0
100
AcDbEntity
8
1-0
6
CONTINUOUS
62
3
100
AcDbLine
10
64082.629999999997
20
14490.620000000001
30
0.0
11
62939.690000000002
21
14480.620000000001
31
0.0
0
LINE
5
4b1
100
AcDbEntity
8
1-0
6
CONTINUOUS
62
3
100
AcDbLine
10
69155.389999999999
20
24602.889999999999
30
0.0
11
63890.250000000000
21
21982.200000000001
31
0.0
0
LINE
5
4b2
100
AcDbEntity
8
1-0
6
CONTINUOUS
62
4
100
AcDbLine
10
59605.599999999999
20
22059.230000000000
30
0.0
11
59549.139999999999
21
21713.830000000002
31
0.0
0
LINE
5
4b3
100
AcDbEntity
8
1-0
6
CONTINUOUS
62
4
100
AcDbLine
10
66673.979999999996
20
21919.480000000000
30
0.0
11
65730.770000000004
21
22380.830000000002
31
0.0
0
LINE
5
4b4
100
AcDbEntity
8
1-0
6
CONTINUOUS
62
4
100
AcDbLine
10
59316.629999999997
20
22461.119999999999
30
0.0
11
59147.260000000002
21
21424.849999999999
31
0.0
0
LINE
5
4b5
100
AcDbEntity
8
1-0
6
CONTINUOUS
62
4
100
AcDbLine
10
66757.710000000006
20
21294.090000000000
30
0.0
11
67219.059999999998
21
22237.290000000001
31
0.0
0
LINE
5
4b6
100
AcDbEntity
8
1-0
6
CONTINUOUS
62
4
100
AcDbLine
10
66597.100000000006
20
21762.290000000001
30
0.0
11
66750.850000000006
21
22076.680000000000
31
0.0
0
LINE
5
4b7
100
AcDbEntity
8
1-0
6
CONTINUOUS
62
3
100
AcDbLine
10
62939.690000000002
20
14480.620000000001
30
0.0
11
62298.050000000003
21
15237.020000000000
31
0.0
0
LINE
5
4b8
100
AcDbEntity
8
1-0
6
CONTINUOUS
62
3
100
AcDbLine
10
45656.190000000002
20
12082.270000000000
30
0.0
11
44073.660000000003
21
11506.770000000000
31
0.0
0
LINE
5
4b9
100
AcDbEntity
8
1-0
6
CONTINUOUS
62
4
100
AcDbLine
10
76227.369999999995
20
11689.559999999999
30
0.0
11
71884.089999999997
21
12193.950000000001
31
0.0
0
LINE
5
4ba
100
AcDbEntity
8
1-0
6
CONTINUOUS
62
3
100
AcDbLine
10
80416.919999999998
20
23937.590000000000
30
0.0
11
68184.789999999994
21
31924.250000000000
31
0.0
0
LINE
5
4bb
100
AcDbEntity
8
1-0
6
CONTINUOUS
62
4
100
AcDbLine
10
78924.699999999997
20
16218.840000000000
30
0.0
11
78743.039999999994
21
17253.020000000000
31
0.0
0
LINE
5
4bc
100
AcDbEntity
8
1-0
6
CONTINUOUS
62
3
100
AcDbLine
10
68076.089999999997
20
33861.839999999997
30
0.0
11
63504.050000000003
21
35280.139999999999
31
0.0
0
LINE
5
4bd
100
AcDbEntity
8
1-0
6
CONTINUOUS
62
3
100
AcDbLine
10
42055.900000000001
20
11372.219999999999
30
0.0
11
40318.400000000001
21
11417.660000000000
31
0.0
0
LINE
5
4be
100
AcDbEntity
8
1-0
6
CONTINUOUS
62
3
100
AcDbLine
10
76259.759999999995
20
16247.950000000001
30
0.0
11
75753.990000000005
21
15989.520000000000
31
0.0
0
LINE
5
4bf
100
AcDbEntity
8
1-0
6
CONTINUOUS
62
3
100
AcDbLine
10
75617.020000000004
20
17131.360000000001
30
0.0
11
72489.600000000006
21
16139.120000000001
31
0.0
0
LINE
5
4c0
100
AcDbEntity
8
1-0
6
CONTINUOUS
62
3
100
AcDbLine
10
70677.509999999995
20
15564.170000000000
30
0.0
11
68267.929999999993
21
15162.129999999999
31
0.0
0
LINE
5
4c1
100
AcDbEntity
8
1-0
6
CONTINUOUS
62
3
100
AcDbLine
10
44073.660000000003
20
11506.770000000000
30
0.0
11
42055.900000000001
21
11372.219999999999
31
0.0
0
LINE
5
4c2
100
AcDbEntity
8
1-0
6
CONTINUOUS
62
3
100
AcDbLine
10
62770.559999999998
20
19305.330000000002
30
0.0
11
63890.250000000000
21
21982.200000000001
31
0.0
0
LINE
5
4c3
100
AcDbEntity
8
1-0
6
CONTINUOUS
62
4
100
AcDbLine
10
11505.459999999999
20
14252.920000000000
30
0.0
11
11505.459999999999
21
14333.629999999999
31
0.0
0
LINE
5
4c4
100
AcDbEntity
8
1-0
6
CONTINUOUS
62
4
100
AcDbLine
10
12505.459999999999
20
14252.920000000000
30
0.0
11
12505.459999999999
21
14333.629999999999
31
0.0
0
LINE
5
4c5
100
AcDbEntity
8
1-0
6
CONTINUOUS
62
4
100
AcDbLine
10
9105.459999999999
20
14252.920000000000
30
0.0
11
9105.459999999999
21
14311.040000000001
31
0.0
0
LINE
5
4c6
100
AcDbEntity
8
1-0
6
CONTINUOUS
62
4
100
AcDbLine
10
9405.459999999999
20
14252.920000000000
30
0.0
11
9405.459999999999
21
14311.040000000001
31
0.0
0
LINE
5
4c7
100
AcDbEntity
8
1-0
6
CONTINUOUS
62
4
100
AcDbLine
10
9605.459999999999
20
14252.920000000000
30
0.0
11
9605.459999999999
21
14309.430000000000
31
0.0
0
LINE
5
4c8
100
AcDbEntity
8
1-0
6
CONTINUOUS
62
4
100
AcDbLine
10
9005.459999999999
20
14252.920000000000
30
0.0
11
14005.459999999999
21
14252.920000000000
31
0.0
0
LINE
5
4c9
100
AcDbEntity
8
1-0
6
CONTINUOUS
62
3
100
AcDbLine
10
46742.610000000001
20
34070.760000000002
30
0.0
11
49536.580000000002
21
33308.739999999998
31
0.0
0
LINE
5
4ca
100
AcDbEntity
8
1-0
6
CONTINUOUS
62
3
100
AcDbLine
10
24355.860000000001
20
44528.129999999997
30
0.0
11
28719.209999999999
21
42635.089999999997
31
0.0
0
LINE
5
4cb
100
AcDbEntity
8
1-0
6
CONTINUOUS
62
3
100
AcDbLine
10
8515.580000000000
20
53882.769999999997
30
0.0
11
16407.840000000000
21
48636.370000000003
31
0.0
0
LINE
5
4cc
100
AcDbEntity
8
1-0
6
CONTINUOUS
62
4
100
AcDbLine
10
12005.459999999999
20
14252.920000000000
30
0.0
11
12005.459999999999
21
14352.920000000000
31
0.0
0
LINE
5
4cd
100
AcDbEntity
8
1-0
6
CONTINUOUS
62
4
100
AcDbLine
10
9305.459999999999
20
14252.920000000000
30
0.0
11
9305.459999999999
21
14312.650000000000
31
0.0
0
LINE
5
4ce
100
AcDbEntity
8
1-0
6
CONTINUOUS
62
4
100
AcDbLine
10
13505.459999999999
20
14252.920000000000
30
0.0
11
13505.459999999999
21
14333.629999999999
31
0.0
0
LINE
5
4cf
100
AcDbEntity
8
1-0
6
CONTINUOUS
62
4
100
AcDbLine
10
12005.459999999999
20
14252.920000000000
30
0.0
11
12005.459999999999
21
14352.920000000000
31
0.0
0
LINE
5
4d0
100
AcDbEntity
8
1-0
6
CONTINUOUS
62
4
100
AcDbLine
10
10005.459999999999
20
14252.920000000000
30
0.0
11
10005.459999999999
21
14352.920000000000
31
0.0
0
LINE
5
4d1
100
AcDbEntity
8
1-0
6
CONTINUOUS
62
4
100
AcDbLine
10
11505.459999999999
20
14252.920000000000
30
0.0
11
11505.459999999999
21
14333.629999999999
31
0.0
0
LINE
5
4d2
100
AcDbEntity
8
1-0
6
CONTINUOUS
62
4
100
AcDbLine
10
9205.459999999999
20
14252.920000000000
30
0.0
11
9205.459999999999
21
14311.040000000001
31
0.0
0
LINE
5
4d3
100
AcDbEntity
8
1-0
6
CONTINUOUS
62
4
100
AcDbLine
10
14005.459999999999
20
14252.920000000000
30
0.0
11
14005.459999999999
21
14352.920000000000
31
0.0
0
LINE
5
4d4
100
AcDbEntity
8
1-0
6
CONTINUOUS
62
4
100
AcDbLine
10
9005.459999999999
20
14252.920000000000
30
0.0
11
9005.459999999999
21
14352.920000000000
31
0.0
0
LINE
5
4d5
100
AcDbEntity
8
1-0
6
CONTINUOUS
62
4
100
AcDbLine
10
9005.459999999999
20
14312.920000000000
30
0.0
11
14005.459999999999
21
14312.920000000000
31
0.0
0
LINE
5
4d6
100
AcDbEntity
8
1-0
6
CONTINUOUS
62
4
100
AcDbLine
10
13005.459999999999
20
14252.920000000000
30
0.0
11
13005.459999999999
21
14352.920000000000
31
0.0
0
LINE
5
4d7
100
AcDbEntity
8
1-0
6
CONTINUOUS
62
4
100
AcDbLine
10
9805.459999999999
20
14252.920000000000
30
0.0
11
9805.459999999999
21
14312.650000000000
31
0.0
0
LINE
5
4d8
100
AcDbEntity
8
1-0
6
CONTINUOUS
62
4
100
AcDbLine
10
9905.459999999999
20
14252.920000000000
30
0.0
11
9905.459999999999
21
14314.270000000000
31
0.0
0
LINE
5
4d9
100
AcDbEntity
8
1-0
6
CONTINUOUS
62
4
100
AcDbLine
10
9705.459999999999
20
14252.920000000000
30
0.0
11
9705.459999999999
21
14311.040000000001
31
0.0
0
LINE
5
4da
100
AcDbEntity
8
1-0
6
CONTINUOUS
62
3
100
AcDbLine
10
3245.460000000000
20
58927.019999999997
30
0.0
11
8515.580000000000
21
53882.769999999997
31
0.0
0
LINE
5
4db
100
AcDbEntity
8
1-0
6
DOT
62
3
100
AcDbLine
10
1149.560000000000
20
53247.769999999997
30
0.0
11
7499.590000000000
21
48040.730000000003
31
0.0
0
LINE
5
4dc
100
AcDbEntity
8
1-0
6
DOT
62
3
100
AcDbLine
10
7499.590000000000
20
48040.730000000003
30
0.0
11
9912.570000000000
21
46389.730000000003
31
0.0
0
LINE
5
4dd
100
AcDbEntity
8
1-0
6
DOT
62
3
100
AcDbLine
10
16262.590000000000
20
42452.720000000001
30
0.0
11
25406.560000000001
21
38261.739999999998
31
0.0
0
LINE
5
4de
100
AcDbEntity
8
1-0
6
CONTINUOUS
62
3
100
AcDbLine
10
8388.560000000000
20
32419.759999999998
30
0.0
11
12325.559999999999
21
30133.750000000000
31
0.0
0
LINE
5
4df
100
AcDbEntity
8
1-0
6
DOT
62
3
100
AcDbLine
10
9912.570000000000
20
46389.730000000003
30
0.0
11
16262.590000000000
21
42452.720000000001
31
0.0
0
LINE
5
4e0
100
AcDbEntity
8
1-0
6
CONTINUOUS
62
3
100
AcDbLine
10
47020.010000000002
20
28637.840000000000
30
0.0
11
45091.580000000002
21
22640.709999999999
31
0.0
0
LINE
5
4e1
100
AcDbEntity
8
1-0
6
DOT
62
3
100
AcDbLine
10
51187.610000000001
20
27593.709999999999
30
0.0
11
48774.589999999997
21
28101.709999999999
31
0.0
0
LINE
5
4e2
100
AcDbEntity
8
1-0
6
CONTINUOUS
62
3
100
AcDbLine
10
45345.570000000000
20
22132.709999999999
30
0.0
11
45091.580000000002
21
22640.709999999999
31
0.0
0
LINE
5
4e3
100
AcDbEntity
8
1-0
6
DOT
62
3
100
AcDbLine
10
53981.589999999997
20
27339.740000000002
30
0.0
11
51187.610000000001
21
27593.709999999999
31
0.0
0
LINE
5
4e4
100
AcDbEntity
8
1-0
6
DOT
62
3
100
AcDbLine
10
47020.010000000002
20
28637.840000000000
30
0.0
11
48774.589999999997
21
28101.709999999999
31
0.0
0
LINE
5
4e5
100
AcDbEntity
8
1-0
6
CONTINUOUS
62
3
100
AcDbLine
10
47020.010000000002
20
28637.840000000000
30
0.0
11
43948.620000000003
21
28355.740000000002
31
0.0
0
LINE
5
4e6
100
AcDbEntity
8
1-0
6
CONTINUOUS
62
3
100
AcDbLine
10
2927.580000000000
20
35467.739999999998
30
0.0
11
8388.560000000000
21
32419.759999999998
31
0.0
0
LINE
5
4e7
100
AcDbEntity
8
1-0
6
CONTINUOUS
62
3
100
AcDbLine
10
42041.970000000001
20
11671.990000000000
30
0.0
11
42795.709999999999
21
11899.280000000001
31
0.0
0
LINE
5
4e8
100
AcDbEntity
8
1-0
6
CONTINUOUS
62
3
100
AcDbLine
10
16407.840000000000
20
48636.370000000003
30
0.0
11
24355.860000000001
21
44528.129999999997
31
0.0
0
LINE
5
4e9
100
AcDbEntity
8
1-0
6
CONTINUOUS
62
3
100
AcDbLine
10
47618.489999999998
20
8216.459999999999
30
0.0
11
46857.940000000002
21
6162.960000000000
31
0.0
0
LINE
5
4ea
100
AcDbEntity
8
1-0
6
CONTINUOUS
62
3
100
AcDbLine
10
43798.050000000003
20
11789.080000000000
30
0.0
11
42041.970000000001
21
11671.990000000000
31
0.0
0
LINE
5
4eb
100
AcDbEntity
8
1-0
6
CONTINUOUS
62
3
100
AcDbLine
10
46857.940000000002
20
6162.960000000000
30
0.0
11
47240.550000000003
21
6786.340000000000
31
0.0
0
LINE
5
4ec
100
AcDbEntity
8
1-0
6
CONTINUOUS
62
3
100
AcDbLine
10
46862.320000000000
20
14773.980000000000
30
0.0
11
46361.589999999997
21
13496.730000000000
31
0.0
0
LINE
5
4ed
100
AcDbEntity
8
1-0
6
CONTINUOUS
62
3
100
AcDbLine
10
28719.209999999999
20
42635.089999999997
30
0.0
11
38144.070000000000
21
37989.800000000003
31
0.0
0
LINE
5
4ee
100
AcDbEntity
8
1-0
6
CONTINUOUS
62
3
100
AcDbLine
10
44837.610000000001
20
16163.719999999999
30
0.0
11
54743.550000000003
21
13750.760000000000
31
0.0
0
LINE
5
4ef
100
AcDbEntity
8
1-0
6
CONTINUOUS
62
3
100
AcDbLine
10
50531.830000000002
20
13850.400000000000
30
0.0
11
56086.599999999999
21
12497.309999999999
31
0.0
0
LINE
5
4f0
100
AcDbEntity
8
1-0
6
CONTINUOUS
62
3
100
AcDbLine
10
47439.879999999997
20
14603.540000000001
30
0.0
11
49340.199999999997
21
14140.650000000000
31
0.0
0
LINE
5
4f1
100
AcDbEntity
8
1-0
6
CONTINUOUS
62
3
100
AcDbLine
10
34326.410000000003
20
19416.919999999998
30
0.0
11
46862.389999999999
21
14773.950000000001
31
0.0
0
LINE
5
4f2
100
AcDbEntity
8
1-0
6
CONTINUOUS
62
3
100
AcDbLine
10
7567.410000000000
20
23574.169999999998
30
0.0
11
9232.709999999999
21
23700.860000000001
31
0.0
0
LINE
5
4f3
100
AcDbEntity
8
1-0
6
CONTINUOUS
62
4
100
AcDbLine
10
9866.190000000001
20
23067.380000000001
30
0.0
11
9634.830000000000
21
23452.840000000000
31
0.0
0
LINE
5
4f4
100
AcDbEntity
8
1-0
6
CONTINUOUS
62
4
100
AcDbLine
10
9359.410000000000
20
22230.169999999998
30
0.0
11
9486.110000000001
21
23447.470000000001
31
0.0
0
LINE
5
4f5
100
AcDbEntity
8
1-0
6
CONTINUOUS
62
4
100
AcDbLine
10
9993.060000000000
20
24207.820000000000
30
0.0
11
8725.760000000000
21
22940.509999999998
31
0.0
0
LINE
5
4f6
100
AcDbEntity
8
1-0
6
CONTINUOUS
62
4
100
AcDbLine
10
9359.410000000000
20
24918.160000000000
30
0.0
11
9232.709999999999
21
23700.860000000001
31
0.0
0
LINE
5
4f7
100
AcDbEntity
8
1-0
6
CONTINUOUS
62
4
100
AcDbLine
10
9866.180000000000
20
24080.939999999999
30
0.0
11
9471.230000000000
21
23844.049999999999
31
0.0
0
LINE
5
4f8
100
AcDbEntity
8
1-0
6
CONTINUOUS
62
3
100
AcDbLine
10
14735.410000000000
20
23484.570000000000
30
0.0
11
14377.010000000000
21
23663.770000000000
31
0.0
0
LINE
5
4f9
100
AcDbEntity
8
1-0
6
CONTINUOUS
62
3
100
AcDbLine
10
15631.410000000000
20
23574.169999999998
30
0.0
11
14735.410000000000
21
23484.570000000000
31
0.0
0
LINE
5
4fa
100
AcDbEntity
8
1-0
6
CONTINUOUS
62
4
100
AcDbLine
10
14377.010000000000
20
23484.570000000000
30
0.0
11
14018.610000000001
21
23574.169999999998
31
0.0
0
LINE
5
4fb
100
AcDbEntity
8
1-0
6
CONTINUOUS
62
3
100
AcDbLine
10
12943.400000000000
20
23574.169999999998
30
0.0
11
9486.110000000001
21
23447.470000000001
31
0.0
0
LINE
5
4fc
100
AcDbEntity
8
1-0
6
CONTINUOUS
62
4
100
AcDbLine
10
12943.400000000000
20
23574.169999999998
30
0.0
11
9486.110000000001
21
23700.860000000001
31
0.0
0
LINE
5
4fd
100
AcDbEntity
8
1-0
6
CONTINUOUS
62
4
100
AcDbLine
10
5208.590000000000
20
6802.230000000000
30
0.0
11
5208.590000000000
21
3437.640000000000
31
0.0
0
LINE
5
4fe
100
AcDbEntity
8
1-0
6
CONTINUOUS
62
4
100
AcDbLine
10
3656.520000000000
20
4000.140000000000
30
0.0
11
10937.770000000000
21
4000.140000000000
31
0.0
0
LINE
5
4ff
100
AcDbEntity
8
1-0
6
CONTINUOUS
62
4
100
AcDbLine
10
10937.770000000000
20
6802.230000000000
30
0.0
11
10937.770000000000
21
3437.640000000000
31
0.0
0
LINE
5
500
100
AcDbEntity
8
1-0
6
CONTINUOUS
62
4
100
AcDbLine
10
3656.520000000000
20
4562.650000000000
30
0.0
11
10937.770000000000
21
4562.650000000000
31
0.0
0
LINE
5
501
100
AcDbEntity
8
1-0
6
CONTINUOUS
62
4
100
AcDbLine
10
3656.520000000000
20
5677.230000000000
30
0.0
11
10937.770000000000
21
5677.230000000000
31
0.0
0
LINE
5
502
100
AcDbEntity
8
1-0
6
CONTINUOUS
62
4
100
AcDbLine
10
3656.520000000000
20
5125.140000000000
30
0.0
11
10937.770000000000
21
5125.140000000000
31
0.0
0
LINE
5
503
100
AcDbEntity
8
1-0
6
CONTINUOUS
62
4
100
AcDbLine
10
9052.350000000000
20
5677.230000000000
30
0.0
11
9052.350000000000
21
5125.140000000000
31
0.0
0
LINE
5
504
100
AcDbEntity
8
1-0
6
CONTINUOUS
62
4
100
AcDbLine
10
7166.930000000000
20
5677.230000000000
30
0.0
11
7166.930000000000
21
5125.140000000000
31
0.0
0
LINE
5
505
100
AcDbEntity
8
1-0
6
CONTINUOUS
62
4
100
AcDbLine
10
3656.520000000000
20
6239.730000000000
30
0.0
11
10937.770000000000
21
6239.730000000000
31
0.0
0
LINE
5
506
100
AcDbEntity
8
1-0
6
CONTINUOUS
62
4
100
AcDbLine
10
3656.520000000000
20
3437.640000000000
30
0.0
11
10937.770000000000
21
3437.640000000000
31
0.0
0
LINE
5
507
100
AcDbEntity
8
1-0
6
CONTINUOUS
62
4
100
AcDbLine
10
3656.520000000000
20
6802.230000000000
30
0.0
11
3656.520000000000
21
3437.640000000000
31
0.0
0
LINE
5
508
100
AcDbEntity
8
1-0
6
CONTINUOUS
62
4
100
AcDbLine
10
3656.520000000000
20
6802.230000000000
30
0.0
11
10937.770000000000
21
6802.230000000000
31
0.0
0
LINE
5
509
100
AcDbEntity
8
1-0
6
CONTINUOUS
62
3
100
AcDbLine
10
8852.629999999999
20
23067.389999999999
30
0.0
11
9087.200000000001
21
23458.580000000002
31
0.0
0
LINE
5
50a
100
AcDbEntity
8
1-0
6
CONTINUOUS
62
4
100
AcDbLine
10
8852.629999999999
20
24080.939999999999
30
0.0
11
9087.200000000001
21
23689.750000000000
31
0.0
0
LINE
5
50b
100
AcDbEntity
8
1-0
6
CONTINUOUS
62
4
100
AcDbLine
10
8852.629999999999
20
23067.389999999999
30
0.0
11
9247.590000000000
21
23304.290000000001
31
0.0
0
LINE
5
50c
100
AcDbEntity
8
1-0
6
CONTINUOUS
62
4
100
AcDbLine
10
15631.410000000000
20
23574.169999999998
30
0.0
11
14735.410000000000
21
23663.779999999999
31
0.0
0
LINE
5
50d
100
AcDbEntity
8
1-0
6
CONTINUOUS
62
3
100
AcDbLine
10
16706.610000000001
20
23753.369999999999
30
0.0
11
16169.010000000000
21
23394.970000000001
31
0.0
0
LINE
5
50e
100
AcDbEntity
8
1-0
6
CONTINUOUS
62
3
100
AcDbLine
10
16169.010000000000
20
23394.970000000001
30
0.0
11
16706.610000000001
21
23394.970000000001
31
0.0
0
LINE
5
50f
100
AcDbEntity
8
1-0
6
CONTINUOUS
62
4
100
AcDbLine
10
11005.459999999999
20
14252.920000000000
30
0.0
11
11005.459999999999
21
14352.920000000000
31
0.0
0
LINE
5
510
100
AcDbEntity
8
1-0
6
CONTINUOUS
62
4
100
AcDbLine
10
11505.459999999999
20
14252.920000000000
30
0.0
11
11505.459999999999
21
14333.629999999999
31
0.0
0
LINE
5
511
100
AcDbEntity
8
1-0
6
CONTINUOUS
62
4
100
AcDbLine
10
9505.459999999999
20
14252.920000000000
30
0.0
11
9505.459999999999
21
14333.629999999999
31
0.0
0
LINE
5
512
100
AcDbEntity
8
1-0
6
CONTINUOUS
62
4
100
AcDbLine
10
11505.459999999999
20
14252.920000000000
30
0.0
11
11505.459999999999
21
14333.629999999999
31
0.0
0
LINE
5
513
100
AcDbEntity
8
1-0
6
CONTINUOUS
62
4
100
AcDbLine
10
10505.459999999999
20
14252.920000000000
30
0.0
11
10505.459999999999
21
14333.629999999999
31
0.0
0
LINE
5
514
100
AcDbEntity
8
1-0
6
CONTINUOUS
62
4
100
AcDbLine
10
15631.410000000000
20
23574.169999999998
30
0.0
11
6671.410000000000
21
23574.169999999998
31
0.0
0
LINE
5
515
100
AcDbEntity
8
1-0
6
CONTINUOUS
62
3
100
AcDbLine
10
9359.410000000000
20
22230.169999999998
30
0.0
11
9232.709999999999
21
23447.470000000001
31
0.0
0
LINE
5
516
100
AcDbEntity
8
1-0
6
CONTINUOUS
62
4
100
AcDbLine
10
9359.410000000000
20
25366.160000000000
30
0.0
11
9359.410000000000
21
21782.160000000000
31
0.0
0
LINE
5
517
100
AcDbEntity
8
1-0
6
CONTINUOUS
62
3
100
AcDbLine
10
9866.190000000001
20
23067.380000000001
30
0.0
11
9471.230000000000
21
23304.290000000001
31
0.0
0
LINE
5
518
100
AcDbEntity
8
1-0
6
CONTINUOUS
62
3
100
AcDbLine
10
9866.180000000000
20
24080.939999999999
30
0.0
11
9634.830000000000
21
23695.490000000002
31
0.0
0
LINE
5
519
100
AcDbEntity
8
1-0
6
CONTINUOUS
62
4
100
AcDbLine
10
14735.410000000000
20
23663.779999999999
30
0.0
11
14377.010000000000
21
23484.570000000000
31
0.0
0
LINE
5
51a
100
AcDbEntity
8
1-0
6
CONTINUOUS
62
4
100
AcDbLine
10
9993.060000000000
20
22940.509999999998
30
0.0
11
8725.760000000000
21
24207.820000000000
31
0.0
0
LINE
5
51b
100
AcDbEntity
8
1-0
6
CONTINUOUS
62
3
100
AcDbLine
10
16169.010000000000
20
23753.369999999999
30
0.0
11
16706.610000000001
21
23753.369999999999
31
0.0
0
LINE
5
51c
100
AcDbEntity
8
1-0
6
CONTINUOUS
62
4
100
AcDbLine
10
7567.410000000000
20
23574.169999999998
30
0.0
11
9232.709999999999
21
23447.470000000001
31
0.0
0
LINE
5
51d
100
AcDbEntity
8
1-0
6
CONTINUOUS
62
3
100
AcDbLine
10
8852.629999999999
20
24080.939999999999
30
0.0
11
9247.590000000000
21
23844.040000000001
31
0.0
0
LINE
5
51e
100
AcDbEntity
8
1-0
6
CONTINUOUS
62
3
100
AcDbLine
10
9359.410000000000
20
24918.160000000000
30
0.0
11
9486.110000000001
21
23700.860000000001
31
0.0
0
LINE
5
51f
100
AcDbEntity
8
1-0
6
CONTINUOUS
62
3
100
AcDbLine
10
14377.010000000000
20
23663.770000000000
30
0.0
11
14018.610000000001
21
23574.169999999998
31
0.0
0
LINE
5
520
100
AcDbEntity
8
1-0
6
CONTINUOUS
62
3
100
AcDbLine
10
43948.620000000003
20
28355.740000000002
30
0.0
11
39376.610000000001
21
30260.770000000000
31
0.0
0
LINE
5
521
100
AcDbEntity
8
1-0
6
CONTINUOUS
62
3
100
AcDbLine
10
2601.320000000000
20
34962.699999999997
30
0.0
11
8092.530000000000
21
31897.849999999999
31
0.0
0
LINE
5
522
100
AcDbEntity
8
1-0
6
CONTINUOUS
62
3
100
AcDbLine
10
69155.389999999999
20
24602.889999999999
30
0.0
11
67616.639999999999
21
25634.139999999999
31
0.0
0
LINE
5
523
100
AcDbEntity
8
1-0
6
CONTINUOUS
62
3
100
AcDbLine
10
34326.410000000003
20
19416.919999999998
30
0.0
11
29357.810000000001
21
21582.689999999999
31
0.0
0
LINE
5
524
100
AcDbEntity
8
1-0
6
CONTINUOUS
62
3
100
AcDbLine
10
47449.910000000003
20
8625.080000000000
30
0.0
11
49335.860000000001
21
14141.680000000000
31
0.0
0
LINE
5
525
100
AcDbEntity
8
1-0
6
CONTINUOUS
62
3
100
AcDbLine
10
8092.530000000000
20
31897.849999999999
30
0.0
11
12048.400000000000
21
29600.889999999999
31
0.0
0
LINE
5
526
100
AcDbEntity
8
1-0
6
DASHED2
62
3
100
AcDbLine
10
64124.029999999999
20
29443.990000000002
30
0.0
11
62138.510000000002
21
22427.910000000000
31
0.0
0
LINE
5
527
100
AcDbEntity
8
1-0
6
CONTINUOUS
62
4
100
AcDbLine
10
78356.410000000003
20
23976.610000000001
30
0.0
11
78675.449999999997
21
23832.759999999998
31
0.0
0
LINE
5
528
100
AcDbEntity
8
1-0
6
CONTINUOUS
62
3
100
AcDbLine
10
18050.549999999999
20
27151.119999999999
30
0.0
11
13810.459999999999
21
29115.290000000001
31
0.0
0
LINE
5
529
100
AcDbEntity
8
1-0
6
CONTINUOUS
62
4
100
AcDbLine
10
78515.919999999998
20
23904.680000000000
30
0.0
11
78885.919999999998
21
24725.110000000001
31
0.0
0
LINE
5
52a
100
AcDbEntity
8
1-0
6
CONTINUOUS
62
4
100
AcDbLine
10
66034.630000000005
20
33397.820000000000
30
0.0
11
66270.850000000006
21
31028.919999999998
31
0.0
0
LINE
5
52b
100
AcDbEntity
8
1-0
6
CONTINUOUS
62
4
100
AcDbLine
10
70773.380000000005
20
28682.240000000002
30
0.0
11
71393.289999999994
21
29621.270000000000
31
0.0
0
LINE
5
52c
100
AcDbEntity
8
1-0
6
CONTINUOUS
62
3
100
AcDbLine
10
47449.910000000003
20
8625.080000000000
30
0.0
11
46179.949999999997
21
5196.130000000000
31
0.0
0
LINE
5
52d
100
AcDbEntity
8
1-0
6
CONTINUOUS
62
3
100
AcDbLine
10
61305.349999999999
20
12561.299999999999
30
0.0
11
58258.589999999997
21
12407.680000000000
31
0.0
0
LINE
5
52e
100
AcDbEntity
8
1-0
6
CONTINUOUS
62
3
100
AcDbLine
10
79291.039999999994
20
18179.470000000001
30
0.0
11
77088.610000000001
21
19753.770000000000
31
0.0
0
LINE
5
52f
100
AcDbEntity
8
1-0
6
DASHED2
62
3
100
AcDbLine
10
65718.110000000001
20
35076.919999999998
30
0.0
11
64265.529999999999
21
29943.990000000002
31
0.0
0
LINE
5
530
100
AcDbEntity
8
1-0
6
CONTINUOUS
62
3
100
AcDbLine
10
56086.599999999999
20
12497.309999999999
30
0.0
11
58258.589999999997
21
12407.680000000000
31
0.0
0
LINE
5
531
100
AcDbEntity
8
1-0
6
CONTINUOUS
62
3
100
AcDbLine
10
61359.220000000001
20
20944.049999999999
30
0.0
11
61340.050000000003
21
22643.299999999999
31
0.0
0
LINE
5
532
100
AcDbEntity
8
1-0
6
CONTINUOUS
62
3
100
AcDbLine
10
20072.570000000000
20
31657.740000000002
30
0.0
11
15373.580000000000
21
35594.750000000000
31
0.0
0
LINE
5
533
100
AcDbEntity
8
1-0
6
CONTINUOUS
62
3
100
AcDbLine
10
25406.580000000002
20
34705.709999999999
30
0.0
11
20072.570000000000
21
31657.740000000002
31
0.0
0
LINE
5
534
100
AcDbEntity
8
1-0
6
CONTINUOUS
62
3
100
AcDbLine
10
12579.549999999999
20
37880.760000000002
30
0.0
11
6737.600000000000
21
42071.739999999998
31
0.0
0
LINE
5
535
100
AcDbEntity
8
1-0
6
CONTINUOUS
62
3
100
AcDbLine
10
6737.600000000000
20
42071.739999999998
30
0.0
11
537.100000000000
21
47841.650000000001
31
0.0
0
LINE
5
536
100
AcDbEntity
8
1-0
6
CONTINUOUS
62
3
100
AcDbLine
10
15373.580000000000
20
35594.750000000000
30
0.0
11
12579.549999999999
21
37880.760000000002
31
0.0
0
LINE
5
537
100
AcDbEntity
8
1-0
6
CONTINUOUS
62
3
100
AcDbLine
10
39376.610000000001
20
30260.770000000000
30
0.0
11
25406.580000000002
21
34705.709999999999
31
0.0
0
LINE
5
538
100
AcDbEntity
8
1-0
6
CONTINUOUS
62
4
100
AcDbLine
10
66770.570000000007
20
32064.259999999998
30
0.0
11
67946.130000000005
21
32181.500000000000
31
0.0
0
LINE
5
539
100
AcDbEntity
8
1-0
6
CONTINUOUS
62
4
100
AcDbLine
10
5705.940000000000
20
55246.540000000001
30
0.0
11
6275.080000000000
21
55943.720000000001
31
0.0
0
LINE
5
53a
100
AcDbEntity
8
1-0
6
CONTINUOUS
62
4
100
AcDbLine
10
63118.830000000002
20
31886.889999999999
30
0.0
11
64458.290000000001
21
33591.540000000001
31
0.0
0
LINE
5
53b
100
AcDbEntity
8
1-0
6
CONTINUOUS
62
4
100
AcDbLine
10
63013.419999999998
20
32723.869999999999
30
0.0
11
63229.650000000001
21
32999.040000000001
31
0.0
0
LINE
5
53c
100
AcDbEntity
8
1-0
6
CONTINUOUS
62
4
100
AcDbLine
10
50637.949999999997
20
31605.639999999999
30
0.0
11
53390.010000000002
21
31089.650000000001
31
0.0
0
LINE
5
53d
100
AcDbEntity
8
1-0
6
CONTINUOUS
62
4
100
AcDbLine
10
48081.089999999997
20
32853.599999999999
30
0.0
11
48262.180000000000
21
33477.349999999999
31
0.0
0
LINE
5
53e
100
AcDbEntity
8
1-0
6
CONTINUOUS
62
4
100
AcDbLine
10
47913.050000000003
20
32902.400000000001
30
0.0
11
48249.129999999997
21
32804.800000000003
31
0.0
0
LINE
5
53f
100
AcDbEntity
8
1-0
6
CONTINUOUS
62
4
100
AcDbLine
10
63033.059999999998
20
32263.299999999999
30
0.0
11
63681.779999999999
21
33088.889999999999
31
0.0
0
LINE
5
540
100
AcDbEntity
8
1-0
6
CONTINUOUS
62
4
100
AcDbLine
10
56423.639999999999
20
31603.720000000001
30
0.0
11
56773.099999999999
21
31622.639999999999
31
0.0
0
LINE
5
541
100
AcDbEntity
8
1-0
6
CONTINUOUS
62
4
100
AcDbLine
10
51952.559999999998
20
31969.619999999999
30
0.0
11
52296.550000000003
21
31905.139999999999
31
0.0
0
LINE
5
542
100
AcDbEntity
8
1-0
6
CONTINUOUS
62
4
100
AcDbLine
10
60491.919999999998
20
32050.310000000001
30
0.0
11
60836.610000000001
21
32110.860000000001
31
0.0
0
LINE
5
543
100
AcDbEntity
8
1-0
6
CONTINUOUS
62
4
100
AcDbLine
10
52124.550000000003
20
31937.369999999999
30
0.0
11
52290.410000000003
21
32821.949999999997
31
0.0
0
LINE
5
544
100
AcDbEntity
8
1-0
6
CONTINUOUS
62
4
100
AcDbLine
10
60664.269999999997
20
32080.590000000000
30
0.0
11
60533.970000000001
21
32822.410000000003
31
0.0
0
LINE
5
545
100
AcDbEntity
8
1-0
6
CONTINUOUS
62
4
100
AcDbLine
10
66753.210000000006
20
32238.400000000001
30
0.0
11
66787.940000000002
21
31890.150000000001
31
0.0
0
LINE
5
546
100
AcDbEntity
8
1-0
6
CONTINUOUS
62
4
100
AcDbLine
10
66419.979999999996
20
32556.910000000000
30
0.0
11
66524.160000000003
21
31512.110000000001
31
0.0
0
LINE
5
547
100
AcDbEntity
8
1-0
6
CONTINUOUS
62
4
100
AcDbLine
10
77914.029999999999
20
23847.040000000001
30
0.0
11
78871.179999999993
21
23415.400000000001
31
0.0
0
LINE
5
548
100
AcDbEntity
8
1-0
6
CONTINUOUS
62
4
100
AcDbLine
10
74257.610000000001
20
25959.060000000001
30
0.0
11
75177.210000000006
21
25452.330000000002
31
0.0
0
LINE
5
549
100
AcDbEntity
8
1-0
6
CONTINUOUS
62
4
100
AcDbLine
10
73346.470000000001
20
26118.650000000001
30
0.0
11
75798.759999999995
21
24767.230000000000
31
0.0
0
LINE
5
54a
100
AcDbEntity
8
1-0
6
DASHED2
62
3
100
AcDbLine
10
64412.699999999997
20
29362.330000000002
30
0.0
11
62441.739999999998
21
22397.669999999998
31
0.0
0
LINE
5
54b
100
AcDbEntity
8
1-0
6
CONTINUOUS
62
4
100
AcDbLine
10
74708.949999999997
20
26052.880000000001
30
0.0
11
75015.440000000002
21
25883.970000000001
31
0.0
0
LINE
5
54c
100
AcDbEntity
8
1-0
6
CONTINUOUS
62
4
100
AcDbLine
10
55232.879999999997
20
30938.290000000001
30
0.0
11
58028.779999999999
21
31089.840000000000
31
0.0
0
LINE
5
54d
100
AcDbEntity
8
1-0
6
CONTINUOUS
62
4
100
AcDbLine
10
74862.190000000002
20
25968.430000000000
30
0.0
11
75466.940000000002
21
27065.820000000000
31
0.0
0
LINE
5
54e
100
AcDbEntity
8
1-0
6
CONTINUOUS
62
3
100
AcDbLine
10
13809.440000000001
20
29127.070000000000
30
0.0
11
14639.190000000001
21
28958.060000000001
31
0.0
0
LINE
5
54f
100
AcDbEntity
8
1-0
6
CONTINUOUS
62
4
100
AcDbLine
10
76993.050000000003
20
23933.250000000000
30
0.0
11
79545.509999999995
21
22782.180000000000
31
0.0
0
LINE
5
550
100
AcDbEntity
8
1-0
6
CONTINUOUS
62
4
100
AcDbLine
10
59389.180000000000
20
31247.430000000000
30
0.0
11
62146.949999999997
21
31731.830000000002
31
0.0
0
LINE
5
551
100
AcDbEntity
8
1-0
6
CONTINUOUS
62
4
100
AcDbLine
10
37071.250000000000
20
36948.019999999997
30
0.0
11
38020.330000000002
21
36498.889999999999
31
0.0
0
LINE
5
552
100
AcDbEntity
8
1-0
6
CONTINUOUS
62
4
100
AcDbLine
10
60199.089999999997
20
31694.259999999998
30
0.0
11
61233.239999999998
21
31875.939999999999
31
0.0
0
LINE
5
553
100
AcDbEntity
8
1-0
6
CONTINUOUS
62
4
100
AcDbLine
10
63121.529999999999
20
32861.440000000002
30
0.0
11
62413.870000000003
21
33417.500000000000
31
0.0
0
LINE
5
554
100
AcDbEntity
8
1-0
6
CONTINUOUS
62
4
100
AcDbLine
10
51553.269999999997
20
31739.240000000002
30
0.0
11
52585.269999999997
21
31545.759999999998
31
0.0
0
LINE
5
555
100
AcDbEntity
8
1-0
6
CONTINUOUS
62
4
100
AcDbLine
10
36152.010000000002
20
37051.139999999999
30
0.0
11
38682.930000000000
21
35853.449999999997
31
0.0
0
LINE
5
556
100
AcDbEntity
8
1-0
6
CONTINUOUS
62
4
100
AcDbLine
10
42006.349999999999
20
34400.349999999999
30
0.0
11
44601.790000000001
21
33349.809999999998
31
0.0
0
LINE
5
557
100
AcDbEntity
8
1-0
6
CONTINUOUS
62
4
100
AcDbLine
10
26037.549999999999
20
42169.330000000002
30
0.0
11
26986.650000000001
21
41720.209999999999
31
0.0
0
LINE
5
558
100
AcDbEntity
8
1-0
6
CONTINUOUS
62
4
100
AcDbLine
10
46569.330000000002
20
32667.720000000001
30
0.0
11
49258.290000000001
21
31887.040000000001
31
0.0
0
LINE
5
559
100
AcDbEntity
8
1-0
6
CONTINUOUS
62
4
100
AcDbLine
10
67916.589999999997
20
18138.639999999999
30
0.0
11
65168.519999999997
21
14776.719999999999
31
0.0
0
LINE
5
55a
100
AcDbEntity
8
1-0
6
CONTINUOUS
62
4
100
AcDbLine
10
37515.930000000000
20
37069.480000000003
30
0.0
11
37832.279999999999
21
36919.790000000001
31
0.0
0
LINE
5
55b
100
AcDbEntity
8
1-0
6
CONTINUOUS
62
4
100
AcDbLine
10
47493.279999999999
20
32711.869999999999
30
0.0
11
48501.620000000003
21
32419.119999999999
31
0.0
0
LINE
5
55c
100
AcDbEntity
8
1-0
6
CONTINUOUS
62
4
100
AcDbLine
10
31305.580000000002
20
40008.320000000000
30
0.0
11
31621.919999999998
21
39858.629999999997
31
0.0
0
LINE
5
55d
100
AcDbEntity
8
1-0
6
CONTINUOUS
62
4
100
AcDbLine
10
37674.110000000001
20
36994.620000000003
30
0.0
11
38059.080000000002
21
37808.129999999997
31
0.0
0
LINE
5
55e
100
AcDbEntity
8
1-0
6
DOT
62
3
100
AcDbLine
10
305.400000000000
20
53990.220000000001
30
0.0
11
1149.560000000000
21
53247.769999999997
31
0.0
0
LINE
5
55f
100
AcDbEntity
8
1-0
6
DOT
62
3
100
AcDbLine
10
47020.010000000002
20
28637.840000000000
30
0.0
11
38537.959999999999
21
32298.849999999999
31
0.0
0
LINE
5
560
100
AcDbEntity
8
1-0
6
DOT
62
3
100
AcDbLine
10
38537.959999999999
20
32298.849999999999
30
0.0
11
25406.560000000001
21
38261.739999999998
31
0.0
0
LINE
5
561
100
AcDbEntity
8
1-0
6
CONTINUOUS
62
4
100
AcDbLine
10
29941.639999999999
20
39989.980000000003
30
0.0
11
32472.570000000000
21
38792.290000000001
31
0.0
0
LINE
5
562
100
AcDbEntity
8
1-0
6
CONTINUOUS
62
4
100
AcDbLine
10
26640.419999999998
20
42215.940000000002
30
0.0
11
27096.660000000000
21
43180.040000000001
31
0.0
0
LINE
5
563
100
AcDbEntity
8
1-0
6
CONTINUOUS
62
4
100
AcDbLine
10
56598.360000000001
20
31613.180000000000
30
0.0
11
56541.440000000002
21
32663.560000000001
31
0.0
0
LINE
5
564
100
AcDbEntity
8
1-0
6
CONTINUOUS
62
4
100
AcDbLine
10
31463.750000000000
20
39933.459999999999
30
0.0
11
31927.049999999999
21
40912.529999999999
31
0.0
0
LINE
5
565
100
AcDbEntity
8
1-0
6
CONTINUOUS
62
4
100
AcDbLine
10
20721.619999999999
20
45166.500000000000
30
0.0
11
21124.110000000001
21
45971.459999999999
31
0.0
0
LINE
5
566
100
AcDbEntity
8
1-0
6
CONTINUOUS
62
4
100
AcDbLine
10
43366.980000000003
20
34496.910000000003
30
0.0
11
43691.400000000001
21
34365.589999999997
31
0.0
0
LINE
5
567
100
AcDbEntity
8
1-0
6
CONTINUOUS
62
4
100
AcDbLine
10
25118.310000000001
20
42272.449999999997
30
0.0
11
27649.240000000002
21
41074.760000000002
31
0.0
0
LINE
5
568
100
AcDbEntity
8
1-0
6
CONTINUOUS
62
3
100
AcDbLine
10
76614.160000000003
20
19299.150000000001
30
0.0
11
75854.389999999999
21
19038.470000000001
31
0.0
0
LINE
5
569
100
AcDbEntity
8
1-0
6
CONTINUOUS
62
3
100
AcDbLine
10
83614.610000000001
20
7090.950000000000
30
0.0
11
82308.330000000002
21
7156.390000000000
31
0.0
0
LINE
5
56a
100
AcDbEntity
8
1-0
6
CONTINUOUS
62
3
100
AcDbLine
10
60446.949999999997
20
15548.150000000000
30
0.0
11
61359.220000000001
21
20944.049999999999
31
0.0
0
LINE
5
56b
100
AcDbEntity
8
1-0
6
CONTINUOUS
62
3
100
AcDbLine
10
61340.050000000003
20
22643.299999999999
30
0.0
11
63890.250000000000
21
21982.200000000001
31
0.0
0
LINE
5
56c
100
AcDbEntity
8
1-0
6
CONTINUOUS
62
3
100
AcDbLine
10
66377.399999999994
20
13494.590000000000
30
0.0
11
61305.349999999999
21
12561.299999999999
31
0.0
0
LINE
5
56d
100
AcDbEntity
8
1-0
6
CONTINUOUS
62
3
100
AcDbLine
10
45853.559999999998
20
21751.730000000000
30
0.0
11
45345.570000000000
21
22132.709999999999
31
0.0
0
LINE
5
56e
100
AcDbEntity
8
1-0
6
CONTINUOUS
62
3
100
AcDbLine
10
50679.559999999998
20
22132.709999999999
30
0.0
11
45853.559999999998
21
21751.730000000000
31
0.0
0
LINE
5
56f
100
AcDbEntity
8
1-0
6
CONTINUOUS
62
3
100
AcDbLine
10
49917.589999999997
20
12861.719999999999
30
0.0
11
48012.559999999998
21
8416.709999999999
31
0.0
0
LINE
5
570
100
AcDbEntity
8
1-0
6
CONTINUOUS
62
3
100
AcDbLine
10
70585.660000000003
20
17313.040000000001
30
0.0
11
66866.229999999996
21
20353.389999999999
31
0.0
0
LINE
5
571
100
AcDbEntity
8
1-0
6
CONTINUOUS
62
3
100
AcDbLine
10
77088.610000000001
20
19753.770000000000
30
0.0
11
76614.160000000003
21
19299.150000000001
31
0.0
0
LINE
5
572
100
AcDbEntity
8
1-0
6
CONTINUOUS
62
3
100
AcDbLine
10
77313.410000000003
20
11938.990000000000
30
0.0
11
79825.610000000001
21
15136.010000000000
31
0.0
0
LINE
5
573
100
AcDbEntity
8
1-0
6
CONTINUOUS
62
3
100
AcDbLine
10
12048.400000000000
20
29600.889999999999
30
0.0
11
29345.360000000001
21
21588.279999999999
31
0.0
0
LINE
5
574
100
AcDbEntity
8
1-0
6
CONTINUOUS
62
3
100
AcDbLine
10
29597.560000000001
20
22132.709999999999
30
0.0
11
34550.599999999999
21
19973.720000000001
31
0.0
0
LINE
5
575
100
AcDbEntity
8
1-0
6
CONTINUOUS
62
3
100
AcDbLine
10
12325.559999999999
20
30133.750000000000
30
0.0
11
29597.560000000001
21
22132.709999999999
31
0.0
0
LINE
5
576
100
AcDbEntity
8
1-0
6
CONTINUOUS
62
4
100
AcDbLine
10
42929.989999999998
20
34350.150000000001
30
0.0
11
43903.290000000001
21
33956.199999999997
31
0.0
0
LINE
5
577
100
AcDbEntity
8
1-0
6
CONTINUOUS
62
4
100
AcDbLine
10
43529.199999999997
20
34431.269999999997
30
0.0
11
43866.860000000001
21
35265.529999999999
31
0.0
0
LINE
5
578
100
AcDbEntity
8
1-0
6
CONTINUOUS
62
4
100
AcDbLine
10
30860.869999999999
20
39886.860000000001
30
0.0
11
31809.970000000001
21
39437.730000000003
31
0.0
0
LINE
5
579
100
AcDbEntity
8
1-0
6
CONTINUOUS
62
3
100
AcDbLine
10
50526.540000000001
20
13851.680000000000
30
0.0
11
49917.589999999997
21
12861.719999999999
31
0.0
0
LINE
5
57a
100
AcDbEntity
8
1-0
6
DASHED2
62
3
100
AcDbLine
10
66006.779999999999
20
34995.260000000002
30
0.0
11
64554.190000000002
21
29862.290000000001
31
0.0
0
LINE
5
57b
100
AcDbEntity
8
1-0
6
CONTINUOUS
62
3
100
AcDbLine
10
54743.550000000003
20
13750.760000000000
30
0.0
11
60446.949999999997
21
15548.150000000000
31
0.0
0
LINE
5
57c
100
AcDbEntity
8
1-0
6
CONTINUOUS
62
3
100
AcDbLine
10
34550.599999999999
20
19973.720000000001
30
0.0
11
44837.610000000001
21
16163.719999999999
31
0.0
0
LINE
5
57d
100
AcDbEntity
8
1-0
6
CONTINUOUS
62
3
100
AcDbLine
10
48012.559999999998
20
8416.709999999999
30
0.0
11
46742.599999999999
21
4987.750000000000
31
0.0
0
LINE
5
57e
100
AcDbEntity
8
1-0
6
CONTINUOUS
62
3
100
AcDbLine
10
66959.850000000006
20
34725.629999999997
30
0.0
11
65718.110000000001
21
35076.919999999998
31
0.0
0
LINE
5
57f
100
AcDbEntity
8
1-0
6
CONTINUOUS
62
3
100
AcDbLine
10
0.000000000000
20
0.000000000000
30
0.0
11
0.000000000000
21
0.000000000000
31
0.0
0
LINE
5
580
100
AcDbEntity
8
1-0
6
CONTINUOUS
62
3
100
AcDbLine
10
0.000000000000
20
0.000000000000
30
0.0
11
0.000000000000
21
0.000000000000
31
0.0
0
LINE
5
581
100
AcDbEntity
8
1-0
6
CONTINUOUS
62
3
100
AcDbLine
10
0.000000000000
20
0.000000000000
30
0.0
11
0.000000000000
21
0.000000000000
31
0.0
0
LINE
5
582
100
AcDbEntity
8
1-0
6
CONTINUOUS
62
3
100
AcDbLine
10
0.000000000000
20
0.000000000000
30
0.0
11
0.000000000000
21
0.000000000000
31
0.0
0
LINE
5
583
100
AcDbEntity
8
1-0
6
CONTINUOUS
62
3
100
AcDbLine
10
0.000000000000
20
0.000000000000
30
0.0
11
0.000000000000
21
0.000000000000
31
0.0
0
LINE
5
584
100
AcDbEntity
8
1-0
6
CONTINUOUS
62
3
100
AcDbLine
10
0.000000000000
20
0.000000000000
30
0.0
11
0.000000000000
21
0.000000000000
31
0.0
0
LINE
5
585
100
AcDbEntity
8
1-0
6
CONTINUOUS
62
3
100
AcDbLine
10
0.000000000000
20
0.000000000000
30
0.0
11
0.000000000000
21
0.000000000000
31
0.0
0
LINE
5
586
100
AcDbEntity
8
1-0
6
CONTINUOUS
62
3
100
AcDbLine
10
0.000000000000
20
0.000000000000
30
0.0
11
0.000000000000
21
0.000000000000
31
0.0
0
LINE
5
587
100
AcDbEntity
8
1-0
6
CONTINUOUS
62
3
100
AcDbLine
10
0.000000000000
20
0.000000000000
30
0.0
11
0.000000000000
21
0.000000000000
31
0.0
0
LINE
5
588
100
AcDbEntity
8
1-0
6
CONTINUOUS
62
3
100
AcDbLine
10
0.000000000000
20
0.000000000000
30
0.0
11
0.000000000000
21
0.000000000000
31
0.0
0
LINE
5
589
100
AcDbEntity
8
1-0
6
CONTINUOUS
62
3
100
AcDbLine
10
0.000000000000
20
0.000000000000
30
0.0
11
0.000000000000
21
0.000000000000
31
0.0
0
LINE
5
58a
100
AcDbEntity
8
1-0
6
CONTINUOUS
62
3
100
AcDbLine
10
0.000000000000
20
0.000000000000
30
0.0
11
0.000000000000
21
0.000000000000
31
0.0
0
LINE
5
58b
100
AcDbEntity
8
1-0
6
CONTINUOUS
62
3
100
AcDbLine
10
0.000000000000
20
0.000000000000
30
0.0
11
0.000000000000
21
0.000000000000
31
0.0
0
LINE
5
58c
100
AcDbEntity
8
1-0
6
CONTINUOUS
62
3
100
AcDbLine
10
0.000000000000
20
0.000000000000
30
0.0
11
0.000000000000
21
0.000000000000
31
0.0
0
LINE
5
58d
100
AcDbEntity
8
1-0
6
CONTINUOUS
62
3
100
AcDbLine
10
0.000000000000
20
0.000000000000
30
0.0
11
0.000000000000
21
0.000000000000
31
0.0
0
LINE
5
58e
100
AcDbEntity
8
1-0
6
CONTINUOUS
62
3
100
AcDbLine
10
0.000000000000
20
0.000000000000
30
0.0
11
0.000000000000
21
0.000000000000
31
0.0
0
LINE
5
58f
100
AcDbEntity
8
1-0
6
CONTINUOUS
62
3
100
AcDbLine
10
0.000000000000
20
0.000000000000
30
0.0
11
0.000000000000
21
0.000000000000
31
0.0
0
LINE
5
590
100
AcDbEntity
8
1-0
6
CONTINUOUS
62
3
100
AcDbLine
10
0.000000000000
20
0.000000000000
30
0.0
11
0.000000000000
21
0.000000000000
31
0.0
0
LINE
5
591
100
AcDbEntity
8
1-0
6
CONTINUOUS
62
3
100
AcDbLine
10
0.000000000000
20
0.000000000000
30
0.0
11
0.000000000000
21
0.000000000000
31
0.0
0
LINE
5
592
100
AcDbEntity
8
1-0
6
CONTINUOUS
62
3
100
AcDbLine
10
0.000000000000
20
0.000000000000
30
0.0
11
0.000000000000
21
0.000000000000
31
0.0
0
LINE
5
593
100
AcDbEntity
8
1-0
6
CONTINUOUS
62
3
100
AcDbLine
10
0.000000000000
20
0.000000000000
30
0.0
11
0.000000000000
21
0.000000000000
31
0.0
0
LINE
5
594
100
AcDbEntity
8
1-0
6
CONTINUOUS
62
3
100
AcDbLine
10
0.000000000000
20
0.000000000000
30
0.0
11
0.000000000000
21
0.000000000000
31
0.0
0
LINE
5
595
100
AcDbEntity
8
1-0
6
CONTINUOUS
62
3
100
AcDbLine
10
0.000000000000
20
0.000000000000
30
0.0
11
0.000000000000
21
0.000000000000
31
0.0
0
LINE
5
596
100
AcDbEntity
8
1-0
6
CONTINUOUS
62
3
100
AcDbLine
10
0.000000000000
20
0.000000000000
30
0.0
11
0.000000000000
21
0.000000000000
31
0.0
0
LINE
5
597
100
AcDbEntity
8
1-0
6
CONTINUOUS
62
3
100
AcDbLine
10
0.000000000000
20
0.000000000000
30
0.0
11
0.000000000000
21
0.000000000000
31
0.0
0
LINE
5
598
100
AcDbEntity
8
1-0
6
CONTINUOUS
62
3
100
AcDbLine
10
0.000000000000
20
0.000000000000
30
0.0
11
0.000000000000
21
0.000000000000
31
0.0
0
LINE
5
599
100
AcDbEntity
8
1-0
6
CONTINUOUS
62
3
100
AcDbLine
10
0.000000000000
20
0.000000000000
30
0.0
11
0.000000000000
21
0.000000000000
31
0.0
0
LINE
5
59a
100
AcDbEntity
8
1-0
6
CONTINUOUS
62
3
100
AcDbLine
10
0.000000000000
20
0.000000000000
30
0.0
11
0.000000000000
21
0.000000000000
31
0.0
0
LINE
5
59b
100
AcDbEntity
8
1-0
6
CONTINUOUS
62
3
100
AcDbLine
10
0.000000000000
20
0.000000000000
30
0.0
11
0.000000000000
21
0.000000000000
31
0.0
0
LINE
5
59c
100
AcDbEntity
8
1-0
6
CONTINUOUS
62
3
100
AcDbLine
10
0.000000000000
20
0.000000000000
30
0.0
11
0.000000000000
21
0.000000000000
31
0.0
0
LINE
5
59d
100
AcDbEntity
8
1-0
6
CONTINUOUS
62
3
100
AcDbLine
10
0.000000000000
20
0.000000000000
30
0.0
11
0.000000000000
21
0.000000000000
31
0.0
0
LINE
5
59e
100
AcDbEntity
8
1-0
6
CONTINUOUS
62
3
100
AcDbLine
10
0.000000000000
20
0.000000000000
30
0.0
11
0.000000000000
21
0.000000000000
31
0.0
0
LINE
5
59f
100
AcDbEntity
8
1-0
6
CONTINUOUS
62
3
100
AcDbLine
10
0.000000000000
20
0.000000000000
30
0.0
11
0.000000000000
21
0.000000000000
31
0.0
0
LINE
5
5a0
100
AcDbEntity
8
1-0
6
CONTINUOUS
62
3
100
AcDbLine
10
0.000000000000
20
0.000000000000
30
0.0
11
0.000000000000
21
0.000000000000
31
0.0
0
LINE
5
5a1
100
AcDbEntity
8
1-0
6
CONTINUOUS
62
3
100
AcDbLine
10
0.000000000000
20
0.000000000000
30
0.0
11
0.000000000000
21
0.000000000000
31
0.0
0
LINE
5
5a2
100
AcDbEntity
8
1-0
6
CONTINUOUS
62
3
100
AcDbLine
10
0.000000000000
20
0.000000000000
30
0.0
11
0.000000000000
21
0.000000000000
31
0.0
0
LINE
5
5a3
100
AcDbEntity
8
1-0
6
CONTINUOUS
62
3
100
AcDbLine
10
0.000000000000
20
0.000000000000
30
0.0
11
0.000000000000
21
0.000000000000
31
0.0
0
LINE
5
5a4
100
AcDbEntity
8
1-0
6
CONTINUOUS
62
3
100
AcDbLine
10
0.000000000000
20
0.000000000000
30
0.0
11
0.000000000000
21
0.000000000000
31
0.0
0
LINE
5
5a5
100
AcDbEntity
8
1-0
6
CONTINUOUS
62
3
100
AcDbLine
10
0.000000000000
20
0.000000000000
30
0.0
11
0.000000000000
21
0.000000000000
31
0.0
0
LINE
5
5a6
100
AcDbEntity
8
1-0
6
CONTINUOUS
62
3
100
AcDbLine
10
0.000000000000
20
0.000000000000
30
0.0
11
0.000000000000
21
0.000000000000
31
0.0
0
LINE
5
5a7
100
AcDbEntity
8
1-0
6
CONTINUOUS
62
3
100
AcDbLine
10
0.000000000000
20
0.000000000000
30
0.0
11
0.000000000000
21
0.000000000000
31
0.0
0
LINE
5
5a8
100
AcDbEntity
8
1-0
6
CONTINUOUS
62
3
100
AcDbLine
10
0.000000000000
20
0.000000000000
30
0.0
11
0.000000000000
21
0.000000000000
31
0.0
0
LINE
5
5a9
100
AcDbEntity
8
1-0
6
CONTINUOUS
62
3
100
AcDbLine
10
0.000000000000
20
0.000000000000
30
0.0
11
0.000000000000
21
0.000000000000
31
0.0
0
LINE
5
5aa
100
AcDbEntity
8
1-0
6
CONTINUOUS
62
3
100
AcDbLine
10
0.000000000000
20
0.000000000000
30
0.0
11
0.000000000000
21
0.000000000000
31
0.0
0
LINE
5
5ab
100
AcDbEntity
8
1-0
6
CONTINUOUS
62
3
100
AcDbLine
10
0.000000000000
20
0.000000000000
30
0.0
11
0.000000000000
21
0.000000000000
31
0.0
0
LINE
5
5ac
100
AcDbEntity
8
1-0
6
CONTINUOUS
62
3
100
AcDbLine
10
0.000000000000
20
0.000000000000
30
0.0
11
0.000000000000
21
0.000000000000
31
0.0
0
LINE
5
5ad
100
AcDbEntity
8
1-0
6
CONTINUOUS
62
3
100
AcDbLine
10
0.000000000000
20
0.000000000000
30
0.0
11
0.000000000000
21
0.000000000000
31
0.0
0
LINE
5
5ae
100
AcDbEntity
8
1-0
6
CONTINUOUS
62
3
100
AcDbLine
10
0.000000000000
20
0.000000000000
30
0.0
11
0.000000000000
21
0.000000000000
31
0.0
0
LINE
5
5af
100
AcDbEntity
8
1-0
6
CONTINUOUS
62
3
100
AcDbLine
10
0.000000000000
20
0.000000000000
30
0.0
11
0.000000000000
21
0.000000000000
31
0.0
0
LINE
5
5b0
100
AcDbEntity
8
1-0
6
CONTINUOUS
62
3
100
AcDbLine
10
0.000000000000
20
0.000000000000
30
0.0
11
0.000000000000
21
0.000000000000
31
0.0
0
LINE
5
5b1
100
AcDbEntity
8
1-0
6
CONTINUOUS
62
3
100
AcDbLine
10
0.000000000000
20
0.000000000000
30
0.0
11
0.000000000000
21
0.000000000000
31
0.0
0
LINE
5
5b2
100
AcDbEntity
8
1-0
6
CONTINUOUS
62
3
100
AcDbLine
10
0.000000000000
20
0.000000000000
30
0.0
11
0.000000000000
21
0.000000000000
31
0.0
0
LINE
5
5b3
100
AcDbEntity
8
1-0
6
CONTINUOUS
62
3
100
AcDbLine
10
0.000000000000
20
0.000000000000
30
0.0
11
0.000000000000
21
0.000000000000
31
0.0
0
LINE
5
5b4
100
AcDbEntity
8
1-0
6
CONTINUOUS
62
3
100
AcDbLine
10
0.000000000000
20
0.000000000000
30
0.0
11
0.000000000000
21
0.000000000000
31
0.0
0
LINE
5
5b5
100
AcDbEntity
8
1-0
6
CONTINUOUS
62
3
100
AcDbLine
10
0.000000000000
20
0.000000000000
30
0.0
11
0.000000000000
21
0.000000000000
31
0.0
0
LINE
5
5b6
100
AcDbEntity
8
1-0
6
CONTINUOUS
62
3
100
AcDbLine
10
0.000000000000
20
0.000000000000
30
0.0
11
0.000000000000
21
0.000000000000
31
0.0
0
LINE
5
5b7
100
AcDbEntity
8
1-0
6
CONTINUOUS
62
3
100
AcDbLine
10
0.000000000000
20
0.000000000000
30
0.0
11
0.000000000000
21
0.000000000000
31
0.0
0
LINE
5
5b8
100
AcDbEntity
8
1-0
6
CONTINUOUS
62
3
100
AcDbLine
10
0.000000000000
20
0.000000000000
30
0.0
11
0.000000000000
21
0.000000000000
31
0.0
0
LINE
5
5b9
100
AcDbEntity
8
1-0
6
CONTINUOUS
62
3
100
AcDbLine
10
0.000000000000
20
0.000000000000
30
0.0
11
0.000000000000
21
0.000000000000
31
0.0
0
LINE
5
5ba
100
AcDbEntity
8
1-0
6
CONTINUOUS
62
3
100
AcDbLine
10
0.000000000000
20
0.000000000000
30
0.0
11
0.000000000000
21
0.000000000000
31
0.0
0
LINE
5
5bb
100
AcDbEntity
8
1-0
6
CONTINUOUS
62
3
100
AcDbLine
10
0.000000000000
20
0.000000000000
30
0.0
11
0.000000000000
21
0.000000000000
31
0.0
0
LINE
5
5bc
100
AcDbEntity
8
1-0
6
CONTINUOUS
62
3
100
AcDbLine
10
0.000000000000
20
0.000000000000
30
0.0
11
0.000000000000
21
0.000000000000
31
0.0
0
LINE
5
5bd
100
AcDbEntity
8
1-0
6
CONTINUOUS
62
3
100
AcDbLine
10
0.000000000000
20
0.000000000000
30
0.0
11
0.000000000000
21
0.000000000000
31
0.0
0
LINE
5
5be
100
AcDbEntity
8
1-0
6
CONTINUOUS
62
3
100
AcDbLine
10
0.000000000000
20
0.000000000000
30
0.0
11
0.000000000000
21
0.000000000000
31
0.0
0
LINE
5
5bf
100
AcDbEntity
8
1-0
6
CONTINUOUS
62
3
100
AcDbLine
10
0.000000000000
20
0.000000000000
30
0.0
11
0.000000000000
21
0.000000000000
31
0.0
0
LINE
5
5c0
100
AcDbEntity
8
1-0
6
CONTINUOUS
62
3
100
AcDbLine
10
0.000000000000
20
0.000000000000
30
0.0
11
0.000000000000
21
0.000000000000
31
0.0
0
LINE
5
5c1
100
AcDbEntity
8
1-0
6
CONTINUOUS
62
3
100
AcDbLine
10
0.000000000000
20
0.000000000000
30
0.0
11
0.000000000000
21
0.000000000000
31
0.0
0
LINE
5
5c2
100
AcDbEntity
8
1-0
6
CONTINUOUS
62
3
100
AcDbLine
10
0.000000000000
20
0.000000000000
30
0.0
11
0.000000000000
21
0.000000000000
31
0.0
0
LINE
5
5c3
100
AcDbEntity
8
1-0
6
CONTINUOUS
62
3
100
AcDbLine
10
0.000000000000
20
0.000000000000
30
0.0
11
0.000000000000
21
0.000000000000
31
0.0
0
LINE
5
5c4
100
AcDbEntity
8
1-0
6
CONTINUOUS
62
3
100
AcDbLine
10
0.000000000000
20
0.000000000000
30
0.0
11
0.000000000000
21
0.000000000000
31
0.0
0
LINE
5
5c5
100
AcDbEntity
8
1-0
6
CONTINUOUS
62
3
100
AcDbLine
10
0.000000000000
20
0.000000000000
30
0.0
11
0.000000000000
21
0.000000000000
31
0.0
0
LINE
5
5c6
100
AcDbEntity
8
1-0
6
CONTINUOUS
62
3
100
AcDbLine
10
0.000000000000
20
0.000000000000
30
0.0
11
0.000000000000
21
0.000000000000
31
0.0
0
LINE
5
5c7
100
AcDbEntity
8
1-0
6
CONTINUOUS
62
3
100
AcDbLine
10
0.000000000000
20
0.000000000000
30
0.0
11
0.000000000000
21
0.000000000000
31
0.0
0
LINE
5
5c8
100
AcDbEntity
8
1-0
6
CONTINUOUS
62
3
100
AcDbLine
10
0.000000000000
20
0.000000000000
30
0.0
11
0.000000000000
21
0.000000000000
31
0.0
0
LINE
5
5c9
100
AcDbEntity
8
1-0
6
CONTINUOUS
62
3
100
AcDbLine
10
0.000000000000
20
0.000000000000
30
0.0
11
0.000000000000
21
0.000000000000
31
0.0
0
LINE
5
5ca
100
AcDbEntity
8
1-0
6
CONTINUOUS
62
3
100
AcDbLine
10
0.000000000000
20
0.000000000000
30
0.0
11
0.000000000000
21
0.000000000000
31
0.0
0
LINE
5
5cb
100
AcDbEntity
8
1-0
6
CONTINUOUS
62
3
100
AcDbLine
10
0.000000000000
20
0.000000000000
30
0.0
11
0.000000000000
21
0.000000000000
31
0.0
0
LINE
5
5cc
100
AcDbEntity
8
1-0
6
CONTINUOUS
62
3
100
AcDbLine
10
0.000000000000
20
0.000000000000
30
0.0
11
0.000000000000
21
0.000000000000
31
0.0
0
LINE
5
5cd
100
AcDbEntity
8
1-0
6
CONTINUOUS
62
3
100
AcDbLine
10
0.000000000000
20
0.000000000000
30
0.0
11
0.000000000000
21
0.000000000000
31
0.0
0
LINE
5
5ce
100
AcDbEntity
8
1-0
6
CONTINUOUS
62
3
100
AcDbLine
10
0.000000000000
20
0.000000000000
30
0.0
11
0.000000000000
21
0.000000000000
31
0.0
0
LINE
5
5cf
100
AcDbEntity
8
1-0
6
CONTINUOUS
62
3
100
AcDbLine
10
0.000000000000
20
0.000000000000
30
0.0
11
0.000000000000
21
0.000000000000
31
0.0
0
LINE
5
5d0
100
AcDbEntity
8
1-0
6
CONTINUOUS
62
3
100
AcDbLine
10
0.000000000000
20
0.000000000000
30
0.0
11
0.000000000000
21
0.000000000000
31
0.0
0
LINE
5
5d1
100
AcDbEntity
8
1-0
6
CONTINUOUS
62
3
100
AcDbLine
10
0.000000000000
20
0.000000000000
30
0.0
11
0.000000000000
21
0.000000000000
31
0.0
0
LINE
5
5d2
100
AcDbEntity
8
1-0
6
CONTINUOUS
62
3
100
AcDbLine
10
0.000000000000
20
0.000000000000
30
0.0
11
0.000000000000
21
0.000000000000
31
0.0
0
LINE
5
5d3
100
AcDbEntity
8
1-0
6
CONTINUOUS
62
3
100
AcDbLine
10
0.000000000000
20
0.000000000000
30
0.0
11
0.000000000000
21
0.000000000000
31
0.0
0
LINE
5
5d4
100
AcDbEntity
8
1-0
6
CONTINUOUS
62
3
100
AcDbLine
10
0.000000000000
20
0.000000000000
30
0.0
11
0.000000000000
21
0.000000000000
31
0.0
0
LINE
5
5d5
100
AcDbEntity
8
1-0
6
CONTINUOUS
62
3
100
AcDbLine
10
0.000000000000
20
0.000000000000
30
0.0
11
0.000000000000
21
0.000000000000
31
0.0
0
LINE
5
5d6
100
AcDbEntity
8
1-0
6
CONTINUOUS
62
3
100
AcDbLine
10
0.000000000000
20
0.000000000000
30
0.0
11
0.000000000000
21
0.000000000000
31
0.0
0
LINE
5
5d7
100
AcDbEntity
8
1-0
6
CONTINUOUS
62
3
100
AcDbLine
10
0.000000000000
20
0.000000000000
30
0.0
11
0.000000000000
21
0.000000000000
31
0.0
0
LINE
5
5d8
100
AcDbEntity
8
1-0
6
CONTINUOUS
62
3
100
AcDbLine
10
0.000000000000
20
0.000000000000
30
0.0
11
0.000000000000
21
0.000000000000
31
0.0
0
LINE
5
5d9
100
AcDbEntity
8
1-0
6
CONTINUOUS
62
3
100
AcDbLine
10
0.000000000000
20
0.000000000000
30
0.0
11
0.000000000000
21
0.000000000000
31
0.0
0
LINE
5
5da
100
AcDbEntity
8
1-0
6
CONTINUOUS
62
3
100
AcDbLine
10
0.000000000000
20
0.000000000000
30
0.0
11
0.000000000000
21
0.000000000000
31
0.0
0
LINE
5
5db
100
AcDbEntity
8
1-0
6
CONTINUOUS
62
3
100
AcDbLine
10
0.000000000000
20
0.000000000000
30
0.0
11
0.000000000000
21
0.000000000000
31
0.0
0
LINE
5
5dc
100
AcDbEntity
8
1-0
6
CONTINUOUS
62
3
100
AcDbLine
10
0.000000000000
20
0.000000000000
30
0.0
11
0.000000000000
21
0.000000000000
31
0.0
0
LINE
5
5dd
100
AcDbEntity
8
1-0
6
CONTINUOUS
62
3
100
AcDbLine
10
0.000000000000
20
0.000000000000
30
0.0
11
0.000000000000
21
0.000000000000
31
0.0
0
LINE
5
5de
100
AcDbEntity
8
1-0
6
CONTINUOUS
62
3
100
AcDbLine
10
0.000000000000
20
0.000000000000
30
0.0
11
0.000000000000
21
0.000000000000
31
0.0
0
LINE
5
5df
100
AcDbEntity
8
1-0
6
CONTINUOUS
62
3
100
AcDbLine
10
0.000000000000
20
0.000000000000
30
0.0
11
0.000000000000
21
0.000000000000
31
0.0
0
LINE
5
5e0
100
AcDbEntity
8
1-0
6
CONTINUOUS
62
3
100
AcDbLine
10
0.000000000000
20
0.000000000000
30
0.0
11
0.000000000000
21
0.000000000000
31
0.0
0
LINE
5
5e1
100
AcDbEntity
8
1-0
6
CONTINUOUS
62
3
100
AcDbLine
10
0.000000000000
20
0.000000000000
30
0.0
11
0.000000000000
21
0.000000000000
31
0.0
0
LINE
5
5e2
100
AcDbEntity
8
1-0
6
CONTINUOUS
62
3
100
AcDbLine
10
0.000000000000
20
0.000000000000
30
0.0
11
0.000000000000
21
0.000000000000
31
0.0
0
LINE
5
5e3
100
AcDbEntity
8
1-0
6
CONTINUOUS
62
3
100
AcDbLine
10
0.000000000000
20
0.000000000000
30
0.0
11
0.000000000000
21
0.000000000000
31
0.0
0
LINE
5
5e4
100
AcDbEntity
8
1-0
6
CONTINUOUS
62
3
100
AcDbLine
10
0.000000000000
20
0.000000000000
30
0.0
11
0.000000000000
21
0.000000000000
31
0.0
0
LINE
5
5e5
100
AcDbEntity
8
1-0
6
CONTINUOUS
62
3
100
AcDbLine
10
0.000000000000
20
0.000000000000
30
0.0
11
0.000000000000
21
0.000000000000
31
0.0
0
LINE
5
5e6
100
AcDbEntity
8
1-0
6
CONTINUOUS
62
3
100
AcDbLine
10
0.000000000000
20
0.000000000000
30
0.0
11
0.000000000000
21
0.000000000000
31
0.0
0
LINE
5
5e7
100
AcDbEntity
8
1-0
6
CONTINUOUS
62
3
100
AcDbLine
10
0.000000000000
20
0.000000000000
30
0.0
11
0.000000000000
21
0.000000000000
31
0.0
0
LINE
5
5e8
100
AcDbEntity
8
1-0
6
CONTINUOUS
62
3
100
AcDbLine
10
0.000000000000
20
0.000000000000
30
0.0
11
0.000000000000
21
0.000000000000
31
0.0
0
LINE
5
5e9
100
AcDbEntity
8
1-0
6
CONTINUOUS
62
3
100
AcDbLine
10
0.000000000000
20
0.000000000000
30
0.0
11
0.000000000000
21
0.000000000000
31
0.0
0
LINE
5
5ea
100
AcDbEntity
8
1-0
6
CONTINUOUS
62
3
100
AcDbLine
10
0.000000000000
20
0.000000000000
30
0.0
11
0.000000000000
21
0.000000000000
31
0.0
0
LINE
5
5eb
100
AcDbEntity
8
1-0
6
CONTINUOUS
62
3
100
AcDbLine
10
0.000000000000
20
0.000000000000
30
0.0
11
0.000000000000
21
0.000000000000
31
0.0
0
LINE
5
5ec
100
AcDbEntity
8
1-0
6
CONTINUOUS
62
3
100
AcDbLine
10
0.000000000000
20
0.000000000000
30
0.0
11
0.000000000000
21
0.000000000000
31
0.0
0
LINE
5
5ed
100
AcDbEntity
8
1-0
6
CONTINUOUS
62
3
100
AcDbLine
10
0.000000000000
20
0.000000000000
30
0.0
11
0.000000000000
21
0.000000000000
31
0.0
0
LINE
5
5ee
100
AcDbEntity
8
1-0
6
CONTINUOUS
62
3
100
AcDbLine
10
0.000000000000
20
0.000000000000
30
0.0
11
0.000000000000
21
0.000000000000
31
0.0
0
LINE
5
5ef
100
AcDbEntity
8
1-0
6
CONTINUOUS
62
3
100
AcDbLine
10
0.000000000000
20
0.000000000000
30
0.0
11
0.000000000000
21
0.000000000000
31
0.0
0
LINE
5
5f0
100
AcDbEntity
8
1-0
6
CONTINUOUS
62
3
100
AcDbLine
10
0.000000000000
20
0.000000000000
30
0.0
11
0.000000000000
21
0.000000000000
31
0.0
0
LINE
5
5f1
100
AcDbEntity
8
1-0
6
CONTINUOUS
62
3
100
AcDbLine
10
0.000000000000
20
0.000000000000
30
0.0
11
0.000000000000
21
0.000000000000
31
0.0
0
LINE
5
5f2
100
AcDbEntity
8
1-0
6
CONTINUOUS
62
3
100
AcDbLine
10
0.000000000000
20
0.000000000000
30
0.0
11
0.000000000000
21
0.000000000000
31
0.0
0
LINE
5
5f3
100
AcDbEntity
8
1-0
6
CONTINUOUS
62
3
100
AcDbLine
10
0.000000000000
20
0.000000000000
30
0.0
11
0.000000000000
21
0.000000000000
31
0.0
0
LINE
5
5f4
100
AcDbEntity
8
1-0
6
CONTINUOUS
62
3
100
AcDbLine
10
0.000000000000
20
0.000000000000
30
0.0
11
0.000000000000
21
0.000000000000
31
0.0
0
LINE
5
5f5
100
AcDbEntity
8
1-0
6
CONTINUOUS
62
3
100
AcDbLine
10
0.000000000000
20
0.000000000000
30
0.0
11
0.000000000000
21
0.000000000000
31
0.0
0
LINE
5
5f6
100
AcDbEntity
8
1-0
6
CONTINUOUS
62
3
100
AcDbLine
10
0.000000000000
20
0.000000000000
30
0.0
11
0.000000000000
21
0.000000000000
31
0.0
0
LINE
5
5f7
100
AcDbEntity
8
1-0
6
CONTINUOUS
62
3
100
AcDbLine
10
0.000000000000
20
0.000000000000
30
0.0
11
0.000000000000
21
0.000000000000
31
0.0
0
LINE
5
5f8
100
AcDbEntity
8
1-0
6
CONTINUOUS
62
3
100
AcDbLine
10
0.000000000000
20
0.000000000000
30
0.0
11
0.000000000000
21
0.000000000000
31
0.0
0
LINE
5
5f9
100
AcDbEntity
8
1-0
6
CONTINUOUS
62
3
100
AcDbLine
10
0.000000000000
20
0.000000000000
30
0.0
11
0.000000000000
21
0.000000000000
31
0.0
0
LINE
5
5fa
100
AcDbEntity
8
1-0
6
CONTINUOUS
62
3
100
AcDbLine
10
0.000000000000
20
0.000000000000
30
0.0
11
0.000000000000
21
0.000000000000
31
0.0
0
LINE
5
5fb
100
AcDbEntity
8
1-0
6
CONTINUOUS
62
3
100
AcDbLine
10
0.000000000000
20
0.000000000000
30
0.0
11
0.000000000000
21
0.000000000000
31
0.0
0
LINE
5
5fc
100
AcDbEntity
8
1-0
6
CONTINUOUS
62
3
100
AcDbLine
10
0.000000000000
20
0.000000000000
30
0.0
11
0.000000000000
21
0.000000000000
31
0.0
0
LINE
5
5fd
100
AcDbEntity
8
1-0
6
CONTINUOUS
62
3
100
AcDbLine
10
0.000000000000
20
0.000000000000
30
0.0
11
0.000000000000
21
0.000000000000
31
0.0
0
LINE
5
5fe
100
AcDbEntity
8
1-0
6
CONTINUOUS
62
3
100
AcDbLine
10
0.000000000000
20
0.000000000000
30
0.0
11
0.000000000000
21
0.000000000000
31
0.0
0
LINE
5
5ff
100
AcDbEntity
8
1-0
6
CONTINUOUS
62
3
100
AcDbLine
10
0.000000000000
20
0.000000000000
30
0.0
11
0.000000000000
21
0.000000000000
31
0.0
0
LINE
5
600
100
AcDbEntity
8
1-0
6
CONTINUOUS
62
3
100
AcDbLine
10
0.000000000000
20
0.000000000000
30
0.0
11
0.000000000000
21
0.000000000000
31
0.0
0
LINE
5
601
100
AcDbEntity
8
1-0
6
CONTINUOUS
62
3
100
AcDbLine
10
0.000000000000
20
0.000000000000
30
0.0
11
0.000000000000
21
0.000000000000
31
0.0
0
LINE
5
602
100
AcDbEntity
8
1-0
6
CONTINUOUS
62
3
100
AcDbLine
10
0.000000000000
20
0.000000000000
30
0.0
11
0.000000000000
21
0.000000000000
31
0.0
0
LINE
5
603
100
AcDbEntity
8
1-0
6
CONTINUOUS
62
3
100
AcDbLine
10
0.000000000000
20
0.000000000000
30
0.0
11
0.000000000000
21
0.000000000000
31
0.0
0
LINE
5
604
100
AcDbEntity
8
1-0
6
CONTINUOUS
62
3
100
AcDbLine
10
0.000000000000
20
0.000000000000
30
0.0
11
0.000000000000
21
0.000000000000
31
0.0
0
LINE
5
605
100
AcDbEntity
8
1-0
6
CONTINUOUS
62
3
100
AcDbLine
10
0.000000000000
20
0.000000000000
30
0.0
11
0.000000000000
21
0.000000000000
31
0.0
0
LINE
5
606
100
AcDbEntity
8
1-0
6
CONTINUOUS
62
3
100
AcDbLine
10
0.000000000000
20
0.000000000000
30
0.0
11
0.000000000000
21
0.000000000000
31
0.0
0
LINE
5
607
100
AcDbEntity
8
1-0
6
CONTINUOUS
62
3
100
AcDbLine
10
0.000000000000
20
0.000000000000
30
0.0
11
0.000000000000
21
0.000000000000
31
0.0
0
LINE
5
608
100
AcDbEntity
8
1-0
6
CONTINUOUS
62
3
100
AcDbLine
10
0.000000000000
20
0.000000000000
30
0.0
11
0.000000000000
21
0.000000000000
31
0.0
0
LINE
5
609
100
AcDbEntity
8
1-0
6
CONTINUOUS
62
3
100
AcDbLine
10
0.000000000000
20
0.000000000000
30
0.0
11
0.000000000000
21
0.000000000000
31
0.0
0
LINE
5
60a
100
AcDbEntity
8
1-0
6
CONTINUOUS
62
3
100
AcDbLine
10
0.000000000000
20
0.000000000000
30
0.0
11
0.000000000000
21
0.000000000000
31
0.0
0
LINE
5
60b
100
AcDbEntity
8
1-0
6
CONTINUOUS
62
3
100
AcDbLine
10
0.000000000000
20
0.000000000000
30
0.0
11
0.000000000000
21
0.000000000000
31
0.0
0
LINE
5
60c
100
AcDbEntity
8
1-0
6
CONTINUOUS
62
3
100
AcDbLine
10
0.000000000000
20
0.000000000000
30
0.0
11
0.000000000000
21
0.000000000000
31
0.0
0
LINE
5
60d
100
AcDbEntity
8
1-0
6
CONTINUOUS
62
3
100
AcDbLine
10
0.000000000000
20
0.000000000000
30
0.0
11
0.000000000000
21
0.000000000000
31
0.0
0
LINE
5
60e
100
AcDbEntity
8
1-0
6
CONTINUOUS
62
3
100
AcDbLine
10
0.000000000000
20
0.000000000000
30
0.0
11
0.000000000000
21
0.000000000000
31
0.0
0
LINE
5
60f
100
AcDbEntity
8
1-0
6
CONTINUOUS
62
3
100
AcDbLine
10
0.000000000000
20
0.000000000000
30
0.0
11
0.000000000000
21
0.000000000000
31
0.0
0
LINE
5
610
100
AcDbEntity
8
1-0
6
CONTINUOUS
62
3
100
AcDbLine
10
0.000000000000
20
0.000000000000
30
0.0
11
0.000000000000
21
0.000000000000
31
0.0
0
LINE
5
611
100
AcDbEntity
8
1-0
6
CONTINUOUS
62
3
100
AcDbLine
10
0.000000000000
20
0.000000000000
30
0.0
11
0.000000000000
21
0.000000000000
31
0.0
0
LINE
5
612
100
AcDbEntity
8
1-0
6
CONTINUOUS
62
3
100
AcDbLine
10
0.000000000000
20
0.000000000000
30
0.0
11
0.000000000000
21
0.000000000000
31
0.0
0
LINE
5
613
100
AcDbEntity
8
1-0
6
CONTINUOUS
62
3
100
AcDbLine
10
0.000000000000
20
0.000000000000
30
0.0
11
0.000000000000
21
0.000000000000
31
0.0
0
LINE
5
614
100
AcDbEntity
8
1-0
6
CONTINUOUS
62
3
100
AcDbLine
10
0.000000000000
20
0.000000000000
30
0.0
11
0.000000000000
21
0.000000000000
31
0.0
0
LINE
5
615
100
AcDbEntity
8
1-0
6
CONTINUOUS
62
3
100
AcDbLine
10
-6189.490000000000
20
81991.860000000001
30
0.0
11
-5967.970000000000
21
81544.990000000005
31
0.0
0
LINE
5
616
100
AcDbEntity
8
1-0
6
CONTINUOUS
62
3
100
AcDbLine
10
-5967.970000000000
20
81544.990000000005
30
0.0
11
-5743.600000000000
21
81099.770000000004
31
0.0
0
LINE
5
617
100
AcDbEntity
8
1-0
6
CONTINUOUS
62
3
100
AcDbLine
10
-5743.600000000000
20
81099.770000000004
30
0.0
11
-5515.580000000000
21
80656.520000000004
31
0.0
0
LINE
5
618
100
AcDbEntity
8
1-0
6
CONTINUOUS
62
3
100
AcDbLine
10
-5515.580000000000
20
80656.520000000004
30
0.0
11
-5283.100000000000
21
80215.639999999999
31
0.0
0
LINE
5
619
100
AcDbEntity
8
1-0
6
CONTINUOUS
62
3
100
AcDbLine
10
-5283.100000000000
20
80215.639999999999
30
0.0
11
-5045.720000000000
21
79777.250000000000
31
0.0
0
LINE
5
61a
100
AcDbEntity
8
1-0
6
CONTINUOUS
62
3
100
AcDbLine
10
-5045.720000000000
20
79777.250000000000
30
0.0
11
-4803.750000000000
21
79341.179999999993
31
0.0
0
LINE
5
61b
100
AcDbEntity
8
1-0
6
CONTINUOUS
62
3
100
AcDbLine
10
-4803.750000000000
20
79341.179999999993
30
0.0
11
-4557.680000000000
21
78907.220000000001
31
0.0
0
LINE
5
61c
100
AcDbEntity
8
1-0
6
CONTINUOUS
62
3
100
AcDbLine
10
-4557.680000000000
20
78907.220000000001
30
0.0
11
-4307.990000000000
21
78475.059999999998
31
0.0
0
LINE
5
61d
100
AcDbEntity
8
1-0
6
CONTINUOUS
62
3
100
AcDbLine
10
-4307.990000000000
20
78475.059999999998
30
0.0
11
-4055.110000000000
21
78044.479999999996
31
0.0
0
LINE
5
61e
100
AcDbEntity
8
1-0
6
CONTINUOUS
62
3
100
AcDbLine
10
-4055.110000000000
20
78044.479999999996
30
0.0
11
-3799.520000000000
21
77615.190000000002
31
0.0
0
LINE
5
61f
100
AcDbEntity
8
1-0
6
CONTINUOUS
62
3
100
AcDbLine
10
-3799.520000000000
20
77615.190000000002
30
0.0
11
-3541.680000000000
21
77187.000000000000
31
0.0
0
LINE
5
620
100
AcDbEntity
8
1-0
6
CONTINUOUS
62
3
100
AcDbLine
10
-3541.680000000000
20
77187.000000000000
30
0.0
11
-3282.060000000000
21
76759.600000000006
31
0.0
0
LINE
5
621
100
AcDbEntity
8
1-0
6
CONTINUOUS
62
3
100
AcDbLine
10
-3282.060000000000
20
76759.600000000006
30
0.0
11
-3021.130000000000
21
76332.759999999995
31
0.0
0
LINE
5
622
100
AcDbEntity
8
1-0
6
CONTINUOUS
62
3
100
AcDbLine
10
-3021.130000000000
20
76332.759999999995
30
0.0
11
-2759.360000000000
21
75906.210000000006
31
0.0
0
LINE
5
623
100
AcDbEntity
8
1-0
6
CONTINUOUS
62
3
100
AcDbLine
10
-2759.360000000000
20
75906.210000000006
30
0.0
11
-2497.190000000000
21
75479.729999999996
31
0.0
0
LINE
5
624
100
AcDbEntity
8
1-0
6
CONTINUOUS
62
3
100
AcDbLine
10
-2497.190000000000
20
75479.729999999996
30
0.0
11
-2235.080000000000
21
75053.029999999999
31
0.0
0
LINE
5
625
100
AcDbEntity
8
1-0
6
CONTINUOUS
62
3
100
AcDbLine
10
-2235.080000000000
20
75053.029999999999
30
0.0
11
-1973.530000000000
21
74625.880000000005
31
0.0
0
LINE
5
626
100
AcDbEntity
8
1-0
6
CONTINUOUS
62
3
100
AcDbLine
10
-1973.530000000000
20
74625.880000000005
30
0.0
11
-1712.980000000000
21
74197.990000000005
31
0.0
0
LINE
5
627
100
AcDbEntity
8
1-0
6
CONTINUOUS
62
3
100
AcDbLine
10
-1712.980000000000
20
74197.990000000005
30
0.0
11
-1453.910000000000
21
73769.160000000003
31
0.0
0
LINE
5
628
100
AcDbEntity
8
1-0
6
CONTINUOUS
62
3
100
AcDbLine
10
-1453.910000000000
20
73769.160000000003
30
0.0
11
-1196.760000000000
21
73339.139999999999
31
0.0
0
LINE
5
629
100
AcDbEntity
8
1-0
6
CONTINUOUS
62
3
100
AcDbLine
10
-1196.760000000000
20
73339.139999999999
30
0.0
11
-942.010000000000
21
72907.619999999995
31
0.0
0
LINE
5
62a
100
AcDbEntity
8
1-0
6
CONTINUOUS
62
3
100
AcDbLine
10
-942.010000000000
20
72907.619999999995
30
0.0
11
-690.060000000000
21
72474.419999999998
31
0.0
0
LINE
5
62b
100
AcDbEntity
8
1-0
6
CONTINUOUS
62
3
100
AcDbLine
10
-690.060000000000
20
72474.419999999998
30
0.0
11
-440.560000000000
21
72039.789999999994
31
0.0
0
LINE
5
62c
100
AcDbEntity
8
1-0
6
CONTINUOUS
62
3
100
AcDbLine
10
-440.560000000000
20
72039.789999999994
30
0.0
11
-192.850000000000
21
71604.119999999995
31
0.0
0
LINE
5
62d
100
AcDbEntity
8
1-0
6
CONTINUOUS
62
3
100
AcDbLine
10
-192.850000000000
20
71604.119999999995
30
0.0
11
53.720000000000
21
71167.839999999997
31
0.0
0
LINE
5
62e
100
AcDbEntity
8
1-0
6
CONTINUOUS
62
3
100
AcDbLine
10
53.720000000000
20
71167.839999999997
30
0.0
11
299.820000000000
21
70731.440000000002
31
0.0
0
LINE
5
62f
100
AcDbEntity
8
1-0
6
CONTINUOUS
62
3
100
AcDbLine
10
299.820000000000
20
70731.440000000002
30
0.0
11
546.100000000000
21
70295.279999999999
31
0.0
0
LINE
5
630
100
AcDbEntity
8
1-0
6
CONTINUOUS
62
3
100
AcDbLine
10
546.100000000000
20
70295.279999999999
30
0.0
11
793.250000000000
21
69859.850000000006
31
0.0
0
LINE
5
631
100
AcDbEntity
8
1-0
6
CONTINUOUS
62
3
100
AcDbLine
10
793.250000000000
20
69859.850000000006
30
0.0
11
1041.920000000000
21
69425.529999999999
31
0.0
0
LINE
5
632
100
AcDbEntity
8
1-0
6
CONTINUOUS
62
3
100
AcDbLine
10
1041.920000000000
20
69425.529999999999
30
0.0
11
1292.780000000000
21
68992.789999999994
31
0.0
0
LINE
5
633
100
AcDbEntity
8
1-0
6
CONTINUOUS
62
3
100
AcDbLine
10
1292.780000000000
20
68992.789999999994
30
0.0
11
1546.490000000000
21
68562.029999999999
31
0.0
0
LINE
5
634
100
AcDbEntity
8
1-0
6
CONTINUOUS
62
3
100
AcDbLine
10
1546.490000000000
20
68562.029999999999
30
0.0
11
1803.700000000000
21
68133.720000000001
31
0.0
0
LINE
5
635
100
AcDbEntity
8
1-0
6
CONTINUOUS
62
3
100
AcDbLine
10
1803.700000000000
20
68133.720000000001
30
0.0
11
2065.100000000000
21
67708.250000000000
31
0.0
0
LINE
5
636
100
AcDbEntity
8
1-0
6
CONTINUOUS
62
3
100
AcDbLine
10
2065.100000000000
20
67708.250000000000
30
0.0
11
2331.350000000000
21
67286.059999999998
31
0.0
0
LINE
5
637
100
AcDbEntity
8
1-0
6
CONTINUOUS
62
3
100
AcDbLine
10
2331.350000000000
20
67286.059999999998
30
0.0
11
2603.100000000000
21
66867.570000000007
31
0.0
0
LINE
5
638
100
AcDbEntity
8
1-0
6
CONTINUOUS
62
3
100
AcDbLine
10
2603.100000000000
20
66867.570000000007
30
0.0
11
2881.020000000000
21
66453.270000000004
31
0.0
0
LINE
5
639
100
AcDbEntity
8
1-0
6
CONTINUOUS
62
3
100
AcDbLine
10
2881.020000000000
20
66453.270000000004
30
0.0
11
3165.770000000000
21
66043.509999999995
31
0.0
0
LINE
5
63a
100
AcDbEntity
8
1-0
6
CONTINUOUS
62
3
100
AcDbLine
10
3165.770000000000
20
66043.509999999995
30
0.0
11
3457.230000000000
21
65638.270000000004
31
0.0
0
LINE
5
63b
100
AcDbEntity
8
1-0
6
CONTINUOUS
62
3
100
AcDbLine
10
3457.230000000000
20
65638.270000000004
30
0.0
11
3754.300000000000
21
65236.720000000001
31
0.0
0
LINE
5
63c
100
AcDbEntity
8
1-0
6
CONTINUOUS
62
3
100
AcDbLine
10
3754.300000000000
20
65236.720000000001
30
0.0
11
4055.810000000000
21
64838.129999999997
31
0.0
0
LINE
5
63d
100
AcDbEntity
8
1-0
6
CONTINUOUS
62
3
100
AcDbLine
10
4055.810000000000
20
64838.129999999997
30
0.0
11
4360.560000000000
21
64441.650000000001
31
0.0
0
LINE
5
63e
100
AcDbEntity
8
1-0
6
CONTINUOUS
62
3
100
AcDbLine
10
4360.560000000000
20
64441.650000000001
30
0.0
11
4667.400000000000
21
64046.470000000001
31
0.0
0
LINE
5
63f
100
AcDbEntity
8
1-0
6
CONTINUOUS
62
3
100
AcDbLine
10
4667.400000000000
20
64046.470000000001
30
0.0
11
4975.130000000000
21
63651.820000000000
31
0.0
0
LINE
5
640
100
AcDbEntity
8
1-0
6
CONTINUOUS
62
3
100
AcDbLine
10
4975.130000000000
20
63651.820000000000
30
0.0
11
5282.590000000000
21
63256.889999999999
31
0.0
0
LINE
5
641
100
AcDbEntity
8
1-0
6
CONTINUOUS
62
3
100
AcDbLine
10
5282.590000000000
20
63256.889999999999
30
0.0
11
5588.590000000000
21
62860.860000000001
31
0.0
0
LINE
5
642
100
AcDbEntity
8
1-0
6
CONTINUOUS
62
3
100
AcDbLine
10
5588.590000000000
20
62860.860000000001
30
0.0
11
5891.960000000000
21
62462.949999999997
31
0.0
0
LINE
5
643
100
AcDbEntity
8
1-0
6
CONTINUOUS
62
3
100
AcDbLine
10
5891.960000000000
20
62462.949999999997
30
0.0
11
6191.510000000000
21
62062.339999999997
31
0.0
0
LINE
5
644
100
AcDbEntity
8
1-0
6
CONTINUOUS
62
3
100
AcDbLine
10
6191.510000000000
20
62062.339999999997
30
0.0
11
6486.270000000000
21
61658.349999999999
31
0.0
0
LINE
5
645
100
AcDbEntity
8
1-0
6
CONTINUOUS
62
3
100
AcDbLine
10
6486.270000000000
20
61658.349999999999
30
0.0
11
6776.400000000000
21
61251.120000000003
31
0.0
0
LINE
5
646
100
AcDbEntity
8
1-0
6
CONTINUOUS
62
3
100
AcDbLine
10
6776.400000000000
20
61251.120000000003
30
0.0
11
7062.490000000000
21
60841.089999999997
31
0.0
0
LINE
5
647
100
AcDbEntity
8
1-0
6
CONTINUOUS
62
3
100
AcDbLine
10
7062.490000000000
20
60841.089999999997
30
0.0
11
7345.120000000000
21
60428.610000000001
31
0.0
0
LINE
5
648
100
AcDbEntity
8
1-0
6
CONTINUOUS
62
3
100
AcDbLine
10
7345.120000000000
20
60428.610000000001
30
0.0
11
7624.860000000000
21
60014.150000000001
31
0.0
0
LINE
5
649
100
AcDbEntity
8
1-0
6
CONTINUOUS
62
3
100
AcDbLine
10
7624.860000000000
20
60014.150000000001
30
0.0
11
7902.310000000000
21
59598.080000000002
31
0.0
0
LINE
5
64a
100
AcDbEntity
8
1-0
6
CONTINUOUS
62
3
100
AcDbLine
10
7902.310000000000
20
59598.080000000002
30
0.0
11
8178.050000000000
21
59180.839999999997
31
0.0
0
LINE
5
64b
100
AcDbEntity
8
1-0
6
CONTINUOUS
62
3
100
AcDbLine
10
8178.050000000000
20
59180.839999999997
30
0.0
11
8452.670000000000
21
58762.839999999997
31
0.0
0
LINE
5
64c
100
AcDbEntity
8
1-0
6
CONTINUOUS
62
3
100
AcDbLine
10
8452.670000000000
20
58762.839999999997
30
0.0
11
8726.740000000000
21
58344.480000000003
31
0.0
0
LINE
5
64d
100
AcDbEntity
8
1-0
6
CONTINUOUS
62
3
100
AcDbLine
10
8726.740000000000
20
58344.480000000003
30
0.0
11
9000.870000000001
21
57926.199999999997
31
0.0
0
LINE
5
64e
100
AcDbEntity
8
1-0
6
CONTINUOUS
62
3
100
AcDbLine
10
9000.870000000001
20
57926.199999999997
30
0.0
11
9275.620000000001
21
57508.349999999999
31
0.0
0
LINE
5
64f
100
AcDbEntity
8
1-0
6
CONTINUOUS
62
3
100
AcDbLine
10
9275.620000000001
20
57508.349999999999
30
0.0
11
9551.570000000000
21
57091.430000000000
31
0.0
0
LINE
5
650
100
AcDbEntity
8
1-0
6
CONTINUOUS
62
3
100
AcDbLine
10
9551.570000000000
20
57091.430000000000
30
0.0
11
9829.260000000000
21
56675.739999999998
31
0.0
0
LINE
5
651
100
AcDbEntity
8
1-0
6
CONTINUOUS
62
3
100
AcDbLine
10
9829.260000000000
20
56675.739999999998
30
0.0
11
10108.100000000000
21
56260.860000000001
31
0.0
0
LINE
5
652
100
AcDbEntity
8
1-0
6
CONTINUOUS
62
3
100
AcDbLine
10
10108.100000000000
20
56260.860000000001
30
0.0
11
10386.760000000000
21
55845.820000000000
31
0.0
0
LINE
5
653
100
AcDbEntity
8
1-0
6
CONTINUOUS
62
3
100
AcDbLine
10
10386.760000000000
20
55845.820000000000
30
0.0
11
10663.870000000001
21
55429.589999999997
31
0.0
0
LINE
5
654
100
AcDbEntity
8
1-0
6
CONTINUOUS
62
3
100
AcDbLine
10
10663.870000000001
20
55429.589999999997
30
0.0
11
10938.059999999999
21
55011.129999999997
31
0.0
0
LINE
5
655
100
AcDbEntity
8
1-0
6
CONTINUOUS
62
3
100
AcDbLine
10
10938.059999999999
20
55011.129999999997
30
0.0
11
11208.459999999999
21
54589.870000000003
31
0.0
0
LINE
5
656
100
AcDbEntity
8
1-0
6
CONTINUOUS
62
3
100
AcDbLine
10
11208.459999999999
20
54589.870000000003
30
0.0
11
11475.900000000000
21
54166.379999999997
31
0.0
0
LINE
5
657
100
AcDbEntity
8
1-0
6
CONTINUOUS
62
3
100
AcDbLine
10
11475.900000000000
20
54166.379999999997
30
0.0
11
11741.650000000000
21
53741.629999999997
31
0.0
0
LINE
5
658
100
AcDbEntity
8
1-0
6
CONTINUOUS
62
3
100
AcDbLine
10
11741.650000000000
20
53741.629999999997
30
0.0
11
12006.940000000001
21
53316.550000000003
31
0.0
0
LINE
5
659
100
AcDbEntity
8
1-0
6
CONTINUOUS
62
3
100
AcDbLine
10
12006.940000000001
20
53316.550000000003
30
0.0
11
12273.040000000001
21
52892.110000000001
31
0.0
0
LINE
5
65a
100
AcDbEntity
8
1-0
6
CONTINUOUS
62
3
100
AcDbLine
10
12273.040000000001
20
52892.110000000001
30
0.0
11
12541.180000000000
21
52469.230000000003
31
0.0
0
LINE
5
65b
100
AcDbEntity
8
1-0
6
CONTINUOUS
62
3
100
AcDbLine
10
12541.180000000000
20
52469.230000000003
30
0.0
11
12812.620000000001
21
52048.849999999999
31
0.0
0
LINE
5
65c
100
AcDbEntity
8
1-0
6
CONTINUOUS
62
3
100
AcDbLine
10
12812.620000000001
20
52048.849999999999
30
0.0
11
13088.600000000000
21
51631.919999999998
31
0.0
0
LINE
5
65d
100
AcDbEntity
8
1-0
6
CONTINUOUS
62
3
100
AcDbLine
10
13088.600000000000
20
51631.919999999998
30
0.0
11
13370.370000000001
21
51219.349999999999
31
0.0
0
LINE
5
65e
100
AcDbEntity
8
1-0
6
CONTINUOUS
62
3
100
AcDbLine
10
13370.370000000001
20
51219.349999999999
30
0.0
11
13659.170000000000
21
50812.160000000003
31
0.0
0
LINE
5
65f
100
AcDbEntity
8
1-0
6
CONTINUOUS
62
3
100
AcDbLine
10
13659.170000000000
20
50812.160000000003
30
0.0
11
13956.270000000000
21
50411.220000000001
31
0.0
0
LINE
5
660
100
AcDbEntity
8
1-0
6
CONTINUOUS
62
3
100
AcDbLine
10
13956.270000000000
20
50411.220000000001
30
0.0
11
14163.760000000000
21
50144.769999999997
31
0.0
0
LINE
5
661
100
AcDbEntity
8
1-0
6
CONTINUOUS
62
3
100
AcDbLine
10
372.270000000000
20
90942.990000000005
30
0.0
11
150.840000000000
21
91391.279999999999
31
0.0
0
LINE
5
662
100
AcDbEntity
8
1-0
6
CONTINUOUS
62
3
100
AcDbLine
10
150.840000000000
20
91391.279999999999
30
0.0
11
-70.560000000000
21
91839.580000000002
31
0.0
0
LINE
5
663
100
AcDbEntity
8
1-0
6
CONTINUOUS
62
3
100
AcDbLine
10
-70.560000000000
20
91839.580000000002
30
0.0
11
-291.850000000000
21
92287.940000000002
31
0.0
0
LINE
5
664
100
AcDbEntity
8
1-0
6
CONTINUOUS
62
3
100
AcDbLine
10
-291.850000000000
20
92287.940000000002
30
0.0
11
-512.960000000000
21
92736.389999999999
31
0.0
0
LINE
5
665
100
AcDbEntity
8
1-0
6
CONTINUOUS
62
3
100
AcDbLine
10
-512.960000000000
20
92736.389999999999
30
0.0
11
-733.860000000000
21
93184.929999999993
31
0.0
0
LINE
5
666
100
AcDbEntity
8
1-0
6
CONTINUOUS
62
3
100
AcDbLine
10
-733.860000000000
20
93184.929999999993
30
0.0
11
-954.500000000000
21
93633.619999999995
31
0.0
0
LINE
5
667
100
AcDbEntity
8
1-0
6
CONTINUOUS
62
3
100
AcDbLine
10
-954.500000000000
20
93633.619999999995
30
0.0
11
-1174.820000000000
21
94082.449999999997
31
0.0
0
LINE
5
668
100
AcDbEntity
8
1-0
6
CONTINUOUS
62
3
100
AcDbLine
10
-1174.820000000000
20
94082.449999999997
30
0.0
11
-1394.750000000000
21
94531.490000000005
31
0.0
0
LINE
5
669
100
AcDbEntity
8
1-0
6
CONTINUOUS
62
3
100
AcDbLine
10
-1394.750000000000
20
94531.490000000005
30
0.0
11
-1614.250000000000
21
94980.720000000001
31
0.0
0
LINE
5
66a
100
AcDbEntity
8
1-0
6
CONTINUOUS
62
3
100
AcDbLine
10
-1614.250000000000
20
94980.720000000001
30
0.0
11
-1833.270000000000
21
95430.199999999997
31
0.0
0
LINE
5
66b
100
AcDbEntity
8
1-0
6
CONTINUOUS
62
3
100
AcDbLine
10
-1833.270000000000
20
95430.199999999997
30
0.0
11
-2051.750000000000
21
95879.960000000006
31
0.0
0
LINE
5
66c
100
AcDbEntity
8
1-0
6
CONTINUOUS
62
3
100
AcDbLine
10
-2051.750000000000
20
95879.960000000006
30
0.0
11
-2269.640000000000
21
96329.979999999996
31
0.0
0
LINE
5
66d
100
AcDbEntity
8
1-0
6
CONTINUOUS
62
3
100
AcDbLine
10
-2269.640000000000
20
96329.979999999996
30
0.0
11
-2486.880000000000
21
96780.339999999997
31
0.0
0
LINE
5
66e
100
AcDbEntity
8
1-0
6
CONTINUOUS
62
3
100
AcDbLine
10
-2486.880000000000
20
96780.339999999997
30
0.0
11
-2703.400000000000
21
97231.039999999994
31
0.0
0
LINE
5
66f
100
AcDbEntity
8
1-0
6
CONTINUOUS
62
3
100
AcDbLine
10
-2703.400000000000
20
97231.039999999994
30
0.0
11
-2919.200000000000
21
97682.130000000005
31
0.0
0
LINE
5
670
100
AcDbEntity
8
1-0
6
CONTINUOUS
62
3
100
AcDbLine
10
-2919.200000000000
20
97682.130000000005
30
0.0
11
-3134.170000000000
21
98133.580000000002
31
0.0
0
LINE
5
671
100
AcDbEntity
8
1-0
6
CONTINUOUS
62
3
100
AcDbLine
10
-3134.170000000000
20
98133.580000000002
30
0.0
11
-3348.280000000000
21
98585.479999999996
31
0.0
0
LINE
5
672
100
AcDbEntity
8
1-0
6
CONTINUOUS
62
3
100
AcDbLine
10
-3348.280000000000
20
98585.479999999996
30
0.0
11
-3561.510000000000
21
99037.820000000007
31
0.0
0
LINE
5
673
100
AcDbEntity
8
1-0
6
CONTINUOUS
62
3
100
AcDbLine
10
-3561.510000000000
20
99037.820000000007
30
0.0
11
-3773.850000000000
21
99490.580000000002
31
0.0
0
LINE
5
674
100
AcDbEntity
8
1-0
6
CONTINUOUS
62
3
100
AcDbLine
10
-3773.850000000000
20
99490.580000000002
30
0.0
11
-3985.270000000000
21
99943.759999999995
31
0.0
0
LINE
5
675
100
AcDbEntity
8
1-0
6
CONTINUOUS
62
3
100
AcDbLine
10
-3985.270000000000
20
99943.759999999995
30
0.0
11
-4195.780000000000
21
100397.390000000000
31
0.0
0
LINE
5
676
100
AcDbEntity
8
1-0
6
CONTINUOUS
62
3
100
AcDbLine
10
-4195.780000000000
20
100397.390000000000
30
0.0
11
-4405.330000000000
21
100851.460000000010
31
0.0
0
LINE
5
677
100
AcDbEntity
8
1-0
6
CONTINUOUS
62
3
100
AcDbLine
10
-4405.330000000000
20
100851.460000000010
30
0.0
11
-4613.950000000000
21
101305.960000000010
31
0.0
0
LINE
5
678
100
AcDbEntity
8
1-0
6
CONTINUOUS
62
3
100
AcDbLine
10
-4613.950000000000
20
101305.960000000010
30
0.0
11
-4821.600000000000
21
101760.910000000000
31
0.0
0
LINE
5
679
100
AcDbEntity
8
1-0
6
CONTINUOUS
62
3
100
AcDbLine
10
-4821.600000000000
20
101760.910000000000
30
0.0
11
-5028.260000000000
21
102216.310000000000
31
0.0
0
LINE
5
67a
100
AcDbEntity
8
1-0
6
CONTINUOUS
62
3
100
AcDbLine
10
-5028.260000000000
20
102216.310000000000
30
0.0
11
-5233.950000000000
21
102672.120000000000
31
0.0
0
LINE
5
67b
100
AcDbEntity
8
1-0
6
CONTINUOUS
62
3
100
AcDbLine
10
-5233.950000000000
20
102672.120000000000
30
0.0
11
-5438.630000000000
21
103128.420000000000
31
0.0
0
LINE
5
67c
100
AcDbEntity
8
1-0
6
CONTINUOUS
62
3
100
AcDbLine
10
-5438.630000000000
20
103128.420000000000
30
0.0
11
-5642.280000000000
21
103585.130000000000
31
0.0
0
LINE
5
67d
100
AcDbEntity
8
1-0
6
CONTINUOUS
62
3
100
AcDbLine
10
-5642.280000000000
20
103585.130000000000
30
0.0
11
-5844.880000000000
21
104042.310000000000
31
0.0
0
LINE
5
67e
100
AcDbEntity
8
1-0
6
CONTINUOUS
62
3
100
AcDbLine
10
-5844.880000000000
20
104042.310000000000
30
0.0
11
-6046.480000000000
21
104499.920000000000
31
0.0
0
LINE
5
67f
100
AcDbEntity
8
1-0
6
CONTINUOUS
62
3
100
AcDbLine
10
-6046.480000000000
20
104499.920000000000
30
0.0
11
-6246.990000000000
21
104958.009999999990
31
0.0
0
LINE
5
680
100
AcDbEntity
8
1-0
6
CONTINUOUS
62
3
100
AcDbLine
10
0.000000000000
20
0.000000000000
30
0.0
11
0.000000000000
21
0.000000000000
31
0.0
0
LINE
5
681
100
AcDbEntity
8
1-0
6
CONTINUOUS
62
3
100
AcDbLine
10
0.000000000000
20
0.000000000000
30
0.0
11
0.000000000000
21
0.000000000000
31
0.0
0
LINE
5
682
100
AcDbEntity
8
1-0
6
CONTINUOUS
62
3
100
AcDbLine
10
0.000000000000
20
0.000000000000
30
0.0
11
0.000000000000
21
0.000000000000
31
0.0
0
LINE
5
683
100
AcDbEntity
8
1-0
6
CONTINUOUS
62
3
100
AcDbLine
10
0.000000000000
20
0.000000000000
30
0.0
11
0.000000000000
21
0.000000000000
31
0.0
0
LINE
5
684
100
AcDbEntity
8
1-0
6
CONTINUOUS
62
3
100
AcDbLine
10
0.000000000000
20
0.000000000000
30
0.0
11
0.000000000000
21
0.000000000000
31
0.0
0
LINE
5
685
100
AcDbEntity
8
1-0
6
CONTINUOUS
62
3
100
AcDbLine
10
0.000000000000
20
0.000000000000
30
0.0
11
0.000000000000
21
0.000000000000
31
0.0
0
LINE
5
686
100
AcDbEntity
8
1-0
6
CONTINUOUS
62
3
100
AcDbLine
10
0.000000000000
20
0.000000000000
30
0.0
11
0.000000000000
21
0.000000000000
31
0.0
0
LINE
5
687
100
AcDbEntity
8
1-0
6
CONTINUOUS
62
3
100
AcDbLine
10
0.000000000000
20
0.000000000000
30
0.0
11
0.000000000000
21
0.000000000000
31
0.0
0
LINE
5
688
100
AcDbEntity
8
1-0
6
CONTINUOUS
62
3
100
AcDbLine
10
0.000000000000
20
0.000000000000
30
0.0
11
0.000000000000
21
0.000000000000
31
0.0
0
LINE
5
689
100
AcDbEntity
8
1-0
6
CONTINUOUS
62
3
100
AcDbLine
10
0.000000000000
20
0.000000000000
30
0.0
11
0.000000000000
21
0.000000000000
31
0.0
0
LINE
5
68a
100
AcDbEntity
8
1-0
6
CONTINUOUS
62
3
100
AcDbLine
10
0.000000000000
20
0.000000000000
30
0.0
11
0.000000000000
21
0.000000000000
31
0.0
0
LINE
5
68b
100
AcDbEntity
8
1-0
6
CONTINUOUS
62
3
100
AcDbLine
10
0.000000000000
20
0.000000000000
30
0.0
11
0.000000000000
21
0.000000000000
31
0.0
0
LINE
5
68c
100
AcDbEntity
8
1-0
6
CONTINUOUS
62
3
100
AcDbLine
10
0.000000000000
20
0.000000000000
30
0.0
11
0.000000000000
21
0.000000000000
31
0.0
0
LINE
5
68d
100
AcDbEntity
8
1-0
6
CONTINUOUS
62
3
100
AcDbLine
10
0.000000000000
20
0.000000000000
30
0.0
11
0.000000000000
21
0.000000000000
31
0.0
0
LINE
5
68e
100
AcDbEntity
8
1-0
6
CONTINUOUS
62
3
100
AcDbLine
10
0.000000000000
20
0.000000000000
30
0.0
11
0.000000000000
21
0.000000000000
31
0.0
0
LINE
5
68f
100
AcDbEntity
8
1-0
6
CONTINUOUS
62
3
100
AcDbLine
10
0.000000000000
20
0.000000000000
30
0.0
11
0.000000000000
21
0.000000000000
31
0.0
0
LINE
5
690
100
AcDbEntity
8
1-0
6
CONTINUOUS
62
3
100
AcDbLine
10
0.000000000000
20
0.000000000000
30
0.0
11
0.000000000000
21
0.000000000000
31
0.0
0
LINE
5
691
100
AcDbEntity
8
1-0
6
CONTINUOUS
62
3
100
AcDbLine
10
0.000000000000
20
0.000000000000
30
0.0
11
0.000000000000
21
0.000000000000
31
0.0
0
LINE
5
692
100
AcDbEntity
8
1-0
6
CONTINUOUS
62
3
100
AcDbLine
10
0.000000000000
20
0.000000000000
30
0.0
11
0.000000000000
21
0.000000000000
31
0.0
0
LINE
5
693
100
AcDbEntity
8
1-0
6
CONTINUOUS
62
3
100
AcDbLine
10
0.000000000000
20
0.000000000000
30
0.0
11
0.000000000000
21
0.000000000000
31
0.0
0
LINE
5
694
100
AcDbEntity
8
1-0
6
CONTINUOUS
62
3
100
AcDbLine
10
0.000000000000
20
0.000000000000
30
0.0
11
0.000000000000
21
0.000000000000
31
0.0
0
LINE
5
695
100
AcDbEntity
8
1-0
6
CONTINUOUS
62
3
100
AcDbLine
10
0.000000000000
20
0.000000000000
30
0.0
11
0.000000000000
21
0.000000000000
31
0.0
0
LINE
5
696
100
AcDbEntity
8
1-0
6
CONTINUOUS
62
3
100
AcDbLine
10
0.000000000000
20
0.000000000000
30
0.0
11
0.000000000000
21
0.000000000000
31
0.0
0
LINE
5
697
100
AcDbEntity
8
1-0
6
CONTINUOUS
62
3
100
AcDbLine
10
0.000000000000
20
0.000000000000
30
0.0
11
0.000000000000
21
0.000000000000
31
0.0
0
LINE
5
698
100
AcDbEntity
8
1-0
6
CONTINUOUS
62
3
100
AcDbLine
10
0.000000000000
20
0.000000000000
30
0.0
11
0.000000000000
21
0.000000000000
31
0.0
0
LINE
5
699
100
AcDbEntity
8
1-0
6
CONTINUOUS
62
3
100
AcDbLine
10
0.000000000000
20
0.000000000000
30
0.0
11
0.000000000000
21
0.000000000000
31
0.0
0
LINE
5
69a
100
AcDbEntity
8
1-0
6
CONTINUOUS
62
3
100
AcDbLine
10
0.000000000000
20
0.000000000000
30
0.0
11
0.000000000000
21
0.000000000000
31
0.0
0
LINE
5
69b
100
AcDbEntity
8
1-0
6
CONTINUOUS
62
3
100
AcDbLine
10
0.000000000000
20
0.000000000000
30
0.0
11
0.000000000000
21
0.000000000000
31
0.0
0
LINE
5
69c
100
AcDbEntity
8
1-0
6
CONTINUOUS
62
3
100
AcDbLine
10
0.000000000000
20
0.000000000000
30
0.0
11
0.000000000000
21
0.000000000000
31
0.0
0
LINE
5
69d
100
AcDbEntity
8
1-0
6
CONTINUOUS
62
3
100
AcDbLine
10
0.000000000000
20
0.000000000000
30
0.0
11
0.000000000000
21
0.000000000000
31
0.0
0
LINE
5
69e
100
AcDbEntity
8
1-0
6
CONTINUOUS
62
3
100
AcDbLine
10
0.000000000000
20
0.000000000000
30
0.0
11
0.000000000000
21
0.000000000000
31
0.0
0
LINE
5
69f
100
AcDbEntity
8
1-0
6
CONTINUOUS
62
3
100
AcDbLine
10
0.000000000000
20
0.000000000000
30
0.0
11
0.000000000000
21
0.000000000000
31
0.0
0
LINE
5
6a0
100
AcDbEntity
8
1-0
6
CONTINUOUS
62
3
100
AcDbLine
10
0.000000000000
20
0.000000000000
30
0.0
11
0.000000000000
21
0.000000000000
31
0.0
0
LINE
5
6a1
100
AcDbEntity
8
1-0
6
CONTINUOUS
62
3
100
AcDbLine
10
0.000000000000
20
0.000000000000
30
0.0
11
0.000000000000
21
0.000000000000
31
0.0
0
LINE
5
6a2
100
AcDbEntity
8
1-0
6
CONTINUOUS
62
3
100
AcDbLine
10
0.000000000000
20
0.000000000000
30
0.0
11
0.000000000000
21
0.000000000000
31
0.0
0
LINE
5
6a3
100
AcDbEntity
8
1-0
6
CONTINUOUS
62
3
100
AcDbLine
10
0.000000000000
20
0.000000000000
30
0.0
11
0.000000000000
21
0.000000000000
31
0.0
0
LINE
5
6a4
100
AcDbEntity
8
1-0
6
CONTINUOUS
62
3
100
AcDbLine
10
0.000000000000
20
0.000000000000
30
0.0
11
0.000000000000
21
0.000000000000
31
0.0
0
LINE
5
6a5
100
AcDbEntity
8
1-0
6
CONTINUOUS
62
3
100
AcDbLine
10
0.000000000000
20
0.000000000000
30
0.0
11
0.000000000000
21
0.000000000000
31
0.0
0
LINE
5
6a6
100
AcDbEntity
8
1-0
6
CONTINUOUS
62
3
100
AcDbLine
10
0.000000000000
20
0.000000000000
30
0.0
11
0.000000000000
21
0.000000000000
31
0.0
0
LINE
5
6a7
100
AcDbEntity
8
1-0
6
CONTINUOUS
62
3
100
AcDbLine
10
0.000000000000
20
0.000000000000
30
0.0
11
0.000000000000
21
0.000000000000
31
0.0
0
LINE
5
6a8
100
AcDbEntity
8
1-0
6
CONTINUOUS
62
3
100
AcDbLine
10
0.000000000000
20
0.000000000000
30
0.0
11
0.000000000000
21
0.000000000000
31
0.0
0
LINE
5
6a9
100
AcDbEntity
8
1-0
6
CONTINUOUS
62
3
100
AcDbLine
10
0.000000000000
20
0.000000000000
30
0.0
11
0.000000000000
21
0.000000000000
31
0.0
0
LINE
5
6aa
100
AcDbEntity
8
1-0
6
CONTINUOUS
62
3
100
AcDbLine
10
0.000000000000
20
0.000000000000
30
0.0
11
0.000000000000
21
0.000000000000
31
0.0
0
LINE
5
6ab
100
AcDbEntity
8
1-0
6
CONTINUOUS
62
3
100
AcDbLine
10
0.000000000000
20
0.000000000000
30
0.0
11
0.000000000000
21
0.000000000000
31
0.0
0
LINE
5
6ac
100
AcDbEntity
8
1-0
6
CONTINUOUS
62
3
100
AcDbLine
10
0.000000000000
20
0.000000000000
30
0.0
11
0.000000000000
21
0.000000000000
31
0.0
0
LINE
5
6ad
100
AcDbEntity
8
1-0
6
CONTINUOUS
62
3
100
AcDbLine
10
0.000000000000
20
0.000000000000
30
0.0
11
0.000000000000
21
0.000000000000
31
0.0
0
LINE
5
6ae
100
AcDbEntity
8
1-0
6
CONTINUOUS
62
3
100
AcDbLine
10
0.000000000000
20
0.000000000000
30
0.0
11
0.000000000000
21
0.000000000000
31
0.0
0
LINE
5
6af
100
AcDbEntity
8
1-0
6
CONTINUOUS
62
3
100
AcDbLine
10
0.000000000000
20
0.000000000000
30
0.0
11
0.000000000000
21
0.000000000000
31
0.0
0
LINE
5
6b0
100
AcDbEntity
8
1-0
6
CONTINUOUS
62
3
100
AcDbLine
10
0.000000000000
20
0.000000000000
30
0.0
11
0.000000000000
21
0.000000000000
31
0.0
0
LINE
5
6b1
100
AcDbEntity
8
1-0
6
CONTINUOUS
62
3
100
AcDbLine
10
0.000000000000
20
0.000000000000
30
0.0
11
0.000000000000
21
0.000000000000
31
0.0
0
LINE
5
6b2
100
AcDbEntity
8
1-0
6
CONTINUOUS
62
3
100
AcDbLine
10
0.000000000000
20
0.000000000000
30
0.0
11
0.000000000000
21
0.000000000000
31
0.0
0
LINE
5
6b3
100
AcDbEntity
8
1-0
6
CONTINUOUS
62
3
100
AcDbLine
10
0.000000000000
20
0.000000000000
30
0.0
11
0.000000000000
21
0.000000000000
31
0.0
0
LINE
5
6b4
100
AcDbEntity
8
1-0
6
CONTINUOUS
62
3
100
AcDbLine
10
0.000000000000
20
0.000000000000
30
0.0
11
0.000000000000
21
0.000000000000
31
0.0
0
LINE
5
6b5
100
AcDbEntity
8
1-0
6
CONTINUOUS
62
3
100
AcDbLine
10
0.000000000000
20
0.000000000000
30
0.0
11
0.000000000000
21
0.000000000000
31
0.0
0
LINE
5
6b6
100
AcDbEntity
8
1-0
6
CONTINUOUS
62
3
100
AcDbLine
10
0.000000000000
20
0.000000000000
30
0.0
11
0.000000000000
21
0.000000000000
31
0.0
0
LINE
5
6b7
100
AcDbEntity
8
1-0
6
CONTINUOUS
62
3
100
AcDbLine
10
0.000000000000
20
0.000000000000
30
0.0
11
0.000000000000
21
0.000000000000
31
0.0
0
LINE
5
6b8
100
AcDbEntity
8
1-0
6
CONTINUOUS
62
3
100
AcDbLine
10
0.000000000000
20
0.000000000000
30
0.0
11
0.000000000000
21
0.000000000000
31
0.0
0
LINE
5
6b9
100
AcDbEntity
8
1-0
6
CONTINUOUS
62
3
100
AcDbLine
10
0.000000000000
20
0.000000000000
30
0.0
11
0.000000000000
21
0.000000000000
31
0.0
0
LINE
5
6ba
100
AcDbEntity
8
1-0
6
CONTINUOUS
62
3
100
AcDbLine
10
0.000000000000
20
0.000000000000
30
0.0
11
0.000000000000
21
0.000000000000
31
0.0
0
LINE
5
6bb
100
AcDbEntity
8
1-0
6
CONTINUOUS
62
3
100
AcDbLine
10
0.000000000000
20
0.000000000000
30
0.0
11
0.000000000000
21
0.000000000000
31
0.0
0
LINE
5
6bc
100
AcDbEntity
8
1-0
6
CONTINUOUS
62
3
100
AcDbLine
10
0.000000000000
20
0.000000000000
30
0.0
11
0.000000000000
21
0.000000000000
31
0.0
0
LINE
5
6bd
100
AcDbEntity
8
1-0
6
CONTINUOUS
62
3
100
AcDbLine
10
0.000000000000
20
0.000000000000
30
0.0
11
0.000000000000
21
0.000000000000
31
0.0
0
LINE
5
6be
100
AcDbEntity
8
1-0
6
CONTINUOUS
62
3
100
AcDbLine
10
0.000000000000
20
0.000000000000
30
0.0
11
0.000000000000
21
0.000000000000
31
0.0
0
LINE
5
6bf
100
AcDbEntity
8
1-0
6
CONTINUOUS
62
3
100
AcDbLine
10
0.000000000000
20
0.000000000000
30
0.0
11
0.000000000000
21
0.000000000000
31
0.0
0
LINE
5
6c0
100
AcDbEntity
8
1-0
6
CONTINUOUS
62
3
100
AcDbLine
10
0.000000000000
20
0.000000000000
30
0.0
11
0.000000000000
21
0.000000000000
31
0.0
0
LINE
5
6c1
100
AcDbEntity
8
1-0
6
CONTINUOUS
62
3
100
AcDbLine
10
0.000000000000
20
0.000000000000
30
0.0
11
0.000000000000
21
0.000000000000
31
0.0
0
LINE
5
6c2
100
AcDbEntity
8
1-0
6
CONTINUOUS
62
3
100
AcDbLine
10
0.000000000000
20
0.000000000000
30
0.0
11
0.000000000000
21
0.000000000000
31
0.0
0
LINE
5
6c3
100
AcDbEntity
8
1-0
6
CONTINUOUS
62
3
100
AcDbLine
10
0.000000000000
20
0.000000000000
30
0.0
11
0.000000000000
21
0.000000000000
31
0.0
0
LINE
5
6c4
100
AcDbEntity
8
1-0
6
CONTINUOUS
62
3
100
AcDbLine
10
0.000000000000
20
0.000000000000
30
0.0
11
0.000000000000
21
0.000000000000
31
0.0
0
LINE
5
6c5
100
AcDbEntity
8
1-0
6
CONTINUOUS
62
3
100
AcDbLine
10
0.000000000000
20
0.000000000000
30
0.0
11
0.000000000000
21
0.000000000000
31
0.0
0
LINE
5
6c6
100
AcDbEntity
8
1-0
6
CONTINUOUS
62
3
100
AcDbLine
10
0.000000000000
20
0.000000000000
30
0.0
11
0.000000000000
21
0.000000000000
31
0.0
0
LINE
5
6c7
100
AcDbEntity
8
1-0
6
CONTINUOUS
62
3
100
AcDbLine
10
0.000000000000
20
0.000000000000
30
0.0
11
0.000000000000
21
0.000000000000
31
0.0
0
LINE
5
6c8
100
AcDbEntity
8
1-0
6
CONTINUOUS
62
3
100
AcDbLine
10
0.000000000000
20
0.000000000000
30
0.0
11
0.000000000000
21
0.000000000000
31
0.0
0
LINE
5
6c9
100
AcDbEntity
8
1-0
6
CONTINUOUS
62
3
100
AcDbLine
10
0.000000000000
20
0.000000000000
30
0.0
11
0.000000000000
21
0.000000000000
31
0.0
0
LINE
5
6ca
100
AcDbEntity
8
1-0
6
CONTINUOUS
62
3
100
AcDbLine
10
0.000000000000
20
0.000000000000
30
0.0
11
0.000000000000
21
0.000000000000
31
0.0
0
LINE
5
6cb
100
AcDbEntity
8
1-0
6
CONTINUOUS
62
3
100
AcDbLine
10
0.000000000000
20
0.000000000000
30
0.0
11
0.000000000000
21
0.000000000000
31
0.0
0
LINE
5
6cc
100
AcDbEntity
8
1-0
6
CONTINUOUS
62
3
100
AcDbLine
10
-5863.240000000000
20
137803.130000000000
30
0.0
11
-5366.750000000000
21
137848.750000000000
31
0.0
0
LINE
5
6cd
100
AcDbEntity
8
1-0
6
CONTINUOUS
62
3
100
AcDbLine
10
-5366.750000000000
20
137848.750000000000
30
0.0
11
-4867.330000000000
21
137864.769999999990
31
0.0
0
LINE
5
6ce
100
AcDbEntity
8
1-0
6
CONTINUOUS
62
3
100
AcDbLine
10
-4867.330000000000
20
137864.769999999990
30
0.0
11
-4365.800000000000
21
137853.320000000010
31
0.0
0
LINE
5
6cf
100
AcDbEntity
8
1-0
6
CONTINUOUS
62
3
100
AcDbLine
10
-4365.800000000000
20
137853.320000000010
30
0.0
11
-3863.210000000000
21
137816.519999999990
31
0.0
0
LINE
5
6d0
100
AcDbEntity
8
1-0
6
CONTINUOUS
62
3
100
AcDbLine
10
-3863.210000000000
20
137816.519999999990
30
0.0
11
-3360.380000000000
21
137756.609999999990
31
0.0
0
LINE
5
6d1
100
AcDbEntity
8
1-0
6
CONTINUOUS
62
3
100
AcDbLine
10
-3360.380000000000
20
137756.609999999990
30
0.0
11
-2858.320000000000
21
137675.700000000010
31
0.0
0
LINE
5
6d2
100
AcDbEntity
8
1-0
6
CONTINUOUS
62
3
100
AcDbLine
10
-2858.320000000000
20
137675.700000000010
30
0.0
11
-2357.900000000000
21
137575.970000000000
31
0.0
0
LINE
5
6d3
100
AcDbEntity
8
1-0
6
CONTINUOUS
62
3
100
AcDbLine
10
-2357.900000000000
20
137575.970000000000
30
0.0
11
-1860.020000000000
21
137459.560000000000
31
0.0
0
LINE
5
6d4
100
AcDbEntity
8
1-0
6
CONTINUOUS
62
3
100
AcDbLine
10
-1860.020000000000
20
137459.560000000000
30
0.0
11
-1365.680000000000
21
137328.640000000010
31
0.0
0
LINE
5
6d5
100
AcDbEntity
8
1-0
6
CONTINUOUS
62
3
100
AcDbLine
10
-1365.680000000000
20
137328.640000000010
30
0.0
11
-875.740000000000
21
137185.350000000010
31
0.0
0
LINE
5
6d6
100
AcDbEntity
8
1-0
6
CONTINUOUS
62
3
100
AcDbLine
10
-875.740000000000
20
137185.350000000010
30
0.0
11
-391.170000000000
21
137031.880000000000
31
0.0
0
LINE
5
6d7
100
AcDbEntity
8
1-0
6
CONTINUOUS
62
3
100
AcDbLine
10
-391.170000000000
20
137031.880000000000
30
0.0
11
87.260000000000
21
136869.340000000000
31
0.0
0
LINE
5
6d8
100
AcDbEntity
8
1-0
6
CONTINUOUS
62
3
100
AcDbLine
10
87.260000000000
20
136869.340000000000
30
0.0
11
559.100000000000
21
136696.660000000000
31
0.0
0
LINE
5
6d9
100
AcDbEntity
8
1-0
6
CONTINUOUS
62
3
100
AcDbLine
10
559.100000000000
20
136696.660000000000
30
0.0
11
1023.930000000000
21
136512.620000000000
31
0.0
0
LINE
5
6da
100
AcDbEntity
8
1-0
6
CONTINUOUS
62
3
100
AcDbLine
10
1023.930000000000
20
136512.620000000000
30
0.0
11
1481.280000000000
21
136315.870000000000
31
0.0
0
LINE
5
6db
100
AcDbEntity
8
1-0
6
CONTINUOUS
62
3
100
AcDbLine
10
1481.280000000000
20
136315.870000000000
30
0.0
11
1930.700000000000
21
136105.140000000010
31
0.0
0
LINE
5
6dc
100
AcDbEntity
8
1-0
6
CONTINUOUS
62
3
100
AcDbLine
10
1930.700000000000
20
136105.140000000010
30
0.0
11
2371.890000000000
21
135879.340000000000
31
0.0
0
LINE
5
6dd
100
AcDbEntity
8
1-0
6
CONTINUOUS
62
3
100
AcDbLine
10
2371.890000000000
20
135879.340000000000
30
0.0
11
2805.130000000000
21
135638.940000000000
31
0.0
0
LINE
5
6de
100
AcDbEntity
8
1-0
6
CONTINUOUS
62
3
100
AcDbLine
10
2805.130000000000
20
135638.940000000000
30
0.0
11
3231.190000000000
21
135385.220000000000
31
0.0
0
LINE
5
6df
100
AcDbEntity
8
1-0
6
CONTINUOUS
62
3
100
AcDbLine
10
3231.190000000000
20
135385.220000000000
30
0.0
11
3650.740000000000
21
135119.429999999990
31
0.0
0
LINE
5
6e0
100
AcDbEntity
8
1-0
6
CONTINUOUS
62
3
100
AcDbLine
10
3650.740000000000
20
135119.429999999990
30
0.0
11
4064.460000000000
21
134842.859999999990
31
0.0
0
LINE
5
6e1
100
AcDbEntity
8
1-0
6
CONTINUOUS
62
3
100
AcDbLine
10
4064.460000000000
20
134842.859999999990
30
0.0
11
4473.080000000000
21
134556.780000000000
31
0.0
0
LINE
5
6e2
100
AcDbEntity
8
1-0
6
CONTINUOUS
62
3
100
AcDbLine
10
4473.080000000000
20
134556.780000000000
30
0.0
11
4877.300000000000
21
134262.500000000000
31
0.0
0
LINE
5
6e3
100
AcDbEntity
8
1-0
6
CONTINUOUS
62
3
100
AcDbLine
10
4877.300000000000
20
134262.500000000000
30
0.0
11
5277.840000000000
21
133961.230000000010
31
0.0
0
LINE
5
6e4
100
AcDbEntity
8
1-0
6
CONTINUOUS
62
3
100
AcDbLine
10
5277.840000000000
20
133961.230000000010
30
0.0
11
5675.330000000000
21
133654.299999999990
31
0.0
0
LINE
5
6e5
100
AcDbEntity
8
1-0
6
CONTINUOUS
62
3
100
AcDbLine
10
5675.330000000000
20
133654.299999999990
30
0.0
11
6070.570000000000
21
133342.980000000010
31
0.0
0
LINE
5
6e6
100
AcDbEntity
8
1-0
6
CONTINUOUS
62
3
100
AcDbLine
10
6070.570000000000
20
133342.980000000010
30
0.0
11
6464.170000000000
21
133028.540000000010
31
0.0
0
LINE
5
6e7
100
AcDbEntity
8
1-0
6
CONTINUOUS
62
3
100
AcDbLine
10
6464.170000000000
20
133028.540000000010
30
0.0
11
6856.890000000000
21
132712.250000000000
31
0.0
0
LINE
5
6e8
100
AcDbEntity
8
1-0
6
CONTINUOUS
62
3
100
AcDbLine
10
6856.890000000000
20
132712.250000000000
30
0.0
11
7249.460000000000
21
132395.410000000000
31
0.0
0
LINE
5
6e9
100
AcDbEntity
8
1-0
6
CONTINUOUS
62
3
100
AcDbLine
10
7249.460000000000
20
132395.410000000000
30
0.0
11
7642.490000000000
21
132079.269999999990
31
0.0
0
LINE
5
6ea
100
AcDbEntity
8
1-0
6
CONTINUOUS
62
3
100
AcDbLine
10
7642.490000000000
20
132079.269999999990
30
0.0
11
8036.740000000000
21
131765.100000000010
31
0.0
0
LINE
5
6eb
100
AcDbEntity
8
1-0
6
CONTINUOUS
62
3
100
AcDbLine
10
8036.740000000000
20
131765.100000000010
30
0.0
11
8432.910000000000
21
131454.200000000010
31
0.0
0
LINE
5
6ec
100
AcDbEntity
8
1-0
6
CONTINUOUS
62
3
100
AcDbLine
10
8432.910000000000
20
131454.200000000010
30
0.0
11
8831.730000000000
21
131147.820000000010
31
0.0
0
LINE
5
6ed
100
AcDbEntity
8
1-0
6
CONTINUOUS
62
3
100
AcDbLine
10
8831.730000000000
20
131147.820000000010
30
0.0
11
9233.760000000000
21
130847.120000000000
31
0.0
0
LINE
5
6ee
100
AcDbEntity
8
1-0
6
CONTINUOUS
62
3
100
AcDbLine
10
9233.760000000000
20
130847.120000000000
30
0.0
11
9638.969999999999
21
130552.000000000000
31
0.0
0
LINE
5
6ef
100
AcDbEntity
8
1-0
6
CONTINUOUS
62
3
100
AcDbLine
10
9638.969999999999
20
130552.000000000000
30
0.0
11
10047.200000000001
21
130262.009999999990
31
0.0
0
LINE
5
6f0
100
AcDbEntity
8
1-0
6
CONTINUOUS
62
3
100
AcDbLine
10
10047.200000000001
20
130262.009999999990
30
0.0
11
10458.100000000000
21
129976.679999999990
31
0.0
0
LINE
5
6f1
100
AcDbEntity
8
1-0
6
CONTINUOUS
62
3
100
AcDbLine
10
10458.100000000000
20
129976.679999999990
30
0.0
11
10871.459999999999
21
129695.480000000000
31
0.0
0
LINE
5
6f2
100
AcDbEntity
8
1-0
6
CONTINUOUS
62
3
100
AcDbLine
10
10871.459999999999
20
129695.480000000000
30
0.0
11
11287.000000000000
21
129417.940000000000
31
0.0
0
LINE
5
6f3
100
AcDbEntity
8
1-0
6
CONTINUOUS
62
3
100
AcDbLine
10
11287.000000000000
20
129417.940000000000
30
0.0
11
11704.520000000000
21
129143.580000000000
31
0.0
0
LINE
5
6f4
100
AcDbEntity
8
1-0
6
CONTINUOUS
62
3
100
AcDbLine
10
11704.520000000000
20
129143.580000000000
30
0.0
11
12123.680000000000
21
128871.899999999990
31
0.0
0
LINE
5
6f5
100
AcDbEntity
8
1-0
6
CONTINUOUS
62
3
100
AcDbLine
10
12123.680000000000
20
128871.899999999990
30
0.0
11
12544.260000000000
21
128602.420000000000
31
0.0
0
LINE
5
6f6
100
AcDbEntity
8
1-0
6
CONTINUOUS
62
3
100
AcDbLine
10
12544.260000000000
20
128602.420000000000
30
0.0
11
12966.010000000000
21
128334.670000000000
31
0.0
0
LINE
5
6f7
100
AcDbEntity
8
1-0
6
CONTINUOUS
62
3
100
AcDbLine
10
12966.010000000000
20
128334.670000000000
30
0.0
11
13388.690000000001
21
128068.120000000000
31
0.0
0
LINE
5
6f8
100
AcDbEntity
8
1-0
6
CONTINUOUS
62
3
100
AcDbLine
10
13388.690000000001
20
128068.120000000000
30
0.0
11
13812.150000000000
21
127802.580000000000
31
0.0
0
LINE
5
6f9
100
AcDbEntity
8
1-0
6
CONTINUOUS
62
3
100
AcDbLine
10
13812.150000000000
20
127802.580000000000
30
0.0
11
14236.400000000000
21
127538.110000000000
31
0.0
0
LINE
5
6fa
100
AcDbEntity
8
1-0
6
CONTINUOUS
62
3
100
AcDbLine
10
14236.400000000000
20
127538.110000000000
30
0.0
11
14661.530000000001
21
127274.800000000000
31
0.0
0
LINE
5
6fb
100
AcDbEntity
8
1-0
6
CONTINUOUS
62
3
100
AcDbLine
10
14661.530000000001
20
127274.800000000000
30
0.0
11
15087.500000000000
21
127012.740000000010
31
0.0
0
LINE
5
6fc
100
AcDbEntity
8
1-0
6
CONTINUOUS
62
3
100
AcDbLine
10
15087.500000000000
20
127012.740000000010
30
0.0
11
15514.350000000000
21
126752.030000000000
31
0.0
0
LINE
5
6fd
100
AcDbEntity
8
1-0
6
CONTINUOUS
62
3
100
AcDbLine
10
15514.350000000000
20
126752.030000000000
30
0.0
11
15942.200000000001
21
126492.759999999990
31
0.0
0
LINE
5
6fe
100
AcDbEntity
8
1-0
6
CONTINUOUS
62
3
100
AcDbLine
10
15942.200000000001
20
126492.759999999990
30
0.0
11
16370.959999999999
21
126235.030000000000
31
0.0
0
LINE
5
6ff
100
AcDbEntity
8
1-0
6
CONTINUOUS
62
3
100
AcDbLine
10
16370.959999999999
20
126235.030000000000
30
0.0
11
16800.799999999999
21
125978.899999999990
31
0.0
0
LINE
5
700
100
AcDbEntity
8
1-0
6
CONTINUOUS
62
3
100
AcDbLine
10
16800.799999999999
20
125978.899999999990
30
0.0
11
17231.639999999999
21
125724.509999999990
31
0.0
0
LINE
5
701
100
AcDbEntity
8
1-0
6
CONTINUOUS
62
3
100
AcDbLine
10
17231.639999999999
20
125724.509999999990
30
0.0
11
17663.529999999999
21
125471.920000000000
31
0.0
0
LINE
5
702
100
AcDbEntity
8
1-0
6
CONTINUOUS
62
3
100
AcDbLine
10
17663.529999999999
20
125471.920000000000
30
0.0
11
18096.529999999999
21
125221.240000000010
31
0.0
0
LINE
5
703
100
AcDbEntity
8
1-0
6
CONTINUOUS
62
3
100
AcDbLine
10
18096.529999999999
20
125221.240000000010
30
0.0
11
18530.700000000001
21
124972.539999999990
31
0.0
0
LINE
5
704
100
AcDbEntity
8
1-0
6
CONTINUOUS
62
3
100
AcDbLine
10
18530.700000000001
20
124972.539999999990
30
0.0
11
18966.029999999999
21
124725.950000000000
31
0.0
0
LINE
5
705
100
AcDbEntity
8
1-0
6
CONTINUOUS
62
3
100
AcDbLine
10
18966.029999999999
20
124725.950000000000
30
0.0
11
19402.580000000002
21
124481.530000000000
31
0.0
0
LINE
5
706
100
AcDbEntity
8
1-0
6
CONTINUOUS
62
3
100
AcDbLine
10
19402.580000000002
20
124481.530000000000
30
0.0
11
19840.349999999999
21
124239.380000000000
31
0.0
0
LINE
5
707
100
AcDbEntity
8
1-0
6
CONTINUOUS
62
3
100
AcDbLine
10
19840.349999999999
20
124239.380000000000
30
0.0
11
20279.419999999998
21
123999.590000000000
31
0.0
0
LINE
5
708
100
AcDbEntity
8
1-0
6
CONTINUOUS
62
3
100
AcDbLine
10
20279.419999999998
20
123999.590000000000
30
0.0
11
20719.790000000001
21
123762.289999999990
31
0.0
0
LINE
5
709
100
AcDbEntity
8
1-0
6
CONTINUOUS
62
3
100
AcDbLine
10
20719.790000000001
20
123762.289999999990
30
0.0
11
21161.480000000000
21
123527.509999999990
31
0.0
0
LINE
5
70a
100
AcDbEntity
8
1-0
6
CONTINUOUS
62
3
100
AcDbLine
10
21161.480000000000
20
123527.509999999990
30
0.0
11
21604.540000000001
21
123295.399999999990
31
0.0
0
LINE
5
70b
100
AcDbEntity
8
1-0
6
CONTINUOUS
62
3
100
AcDbLine
10
21604.540000000001
20
123295.399999999990
30
0.0
11
22049.029999999999
21
123066.009999999990
31
0.0
0
LINE
5
70c
100
AcDbEntity
8
1-0
6
CONTINUOUS
62
3
100
AcDbLine
10
22049.029999999999
20
123066.009999999990
30
0.0
11
22494.970000000001
21
122839.460000000010
31
0.0
0
LINE
5
70d
100
AcDbEntity
8
1-0
6
CONTINUOUS
62
3
100
AcDbLine
10
22494.970000000001
20
122839.460000000010
30
0.0
11
22942.369999999999
21
122615.830000000000
31
0.0
0
LINE
5
70e
100
AcDbEntity
8
1-0
6
CONTINUOUS
62
3
100
AcDbLine
10
22942.369999999999
20
122615.830000000000
30
0.0
11
23391.080000000002
21
122394.899999999990
31
0.0
0
LINE
5
70f
100
AcDbEntity
8
1-0
6
CONTINUOUS
62
3
100
AcDbLine
10
23391.080000000002
20
122394.899999999990
30
0.0
11
23840.889999999999
21
122176.100000000010
31
0.0
0
LINE
5
710
100
AcDbEntity
8
1-0
6
CONTINUOUS
62
3
100
AcDbLine
10
23840.889999999999
20
122176.100000000010
30
0.0
11
24291.439999999999
21
121958.840000000000
31
0.0
0
LINE
5
711
100
AcDbEntity
8
1-0
6
CONTINUOUS
62
3
100
AcDbLine
10
24291.439999999999
20
121958.840000000000
30
0.0
11
24742.439999999999
21
121742.560000000000
31
0.0
0
LINE
5
712
100
AcDbEntity
8
1-0
6
CONTINUOUS
62
3
100
AcDbLine
10
24742.439999999999
20
121742.560000000000
30
0.0
11
25193.580000000002
21
121526.679999999990
31
0.0
0
LINE
5
713
100
AcDbEntity
8
1-0
6
CONTINUOUS
62
3
100
AcDbLine
10
25193.580000000002
20
121526.679999999990
30
0.0
11
25644.580000000002
21
121310.620000000000
31
0.0
0
LINE
5
714
100
AcDbEntity
8
1-0
6
CONTINUOUS
62
3
100
AcDbLine
10
25644.580000000002
20
121310.620000000000
30
0.0
11
26095.160000000000
21
121093.800000000000
31
0.0
0
LINE
5
715
100
AcDbEntity
8
1-0
6
CONTINUOUS
62
3
100
AcDbLine
10
26095.160000000000
20
121093.800000000000
30
0.0
11
26544.970000000001
21
120875.600000000010
31
0.0
0
LINE
5
716
100
AcDbEntity
8
1-0
6
CONTINUOUS
62
3
100
AcDbLine
10
26544.970000000001
20
120875.600000000010
30
0.0
11
26993.730000000000
21
120655.520000000000
31
0.0
0
LINE
5
717
100
AcDbEntity
8
1-0
6
CONTINUOUS
62
3
100
AcDbLine
10
26993.730000000000
20
120655.520000000000
30
0.0
11
27441.150000000001
21
120432.940000000000
31
0.0
0
LINE
5
718
100
AcDbEntity
8
1-0
6
CONTINUOUS
62
3
100
AcDbLine
10
27441.150000000001
20
120432.940000000000
30
0.0
11
27886.900000000001
21
120207.280000000000
31
0.0
0
LINE
5
719
100
AcDbEntity
8
1-0
6
CONTINUOUS
62
3
100
AcDbLine
10
27886.900000000001
20
120207.280000000000
30
0.0
11
28330.799999999999
21
119978.050000000000
31
0.0
0
LINE
5
71a
100
AcDbEntity
8
1-0
6
CONTINUOUS
62
3
100
AcDbLine
10
28330.799999999999
20
119978.050000000000
30
0.0
11
28772.849999999999
21
119745.360000000000
31
0.0
0
LINE
5
71b
100
AcDbEntity
8
1-0
6
CONTINUOUS
62
3
100
AcDbLine
10
28772.849999999999
20
119745.360000000000
30
0.0
11
29213.250000000000
21
119509.570000000010
31
0.0
0
LINE
5
71c
100
AcDbEntity
8
1-0
6
CONTINUOUS
62
3
100
AcDbLine
10
29213.250000000000
20
119509.570000000010
30
0.0
11
29652.189999999999
21
119271.000000000000
31
0.0
0
LINE
5
71d
100
AcDbEntity
8
1-0
6
CONTINUOUS
62
3
100
AcDbLine
10
29652.189999999999
20
119271.000000000000
30
0.0
11
30089.880000000001
21
119029.950000000000
31
0.0
0
LINE
5
71e
100
AcDbEntity
8
1-0
6
CONTINUOUS
62
3
100
AcDbLine
10
30089.880000000001
20
119029.950000000000
30
0.0
11
30526.500000000000
21
118786.789999999990
31
0.0
0
LINE
5
71f
100
AcDbEntity
8
1-0
6
CONTINUOUS
62
3
100
AcDbLine
10
30526.500000000000
20
118786.789999999990
30
0.0
11
30962.230000000000
21
118541.820000000010
31
0.0
0
LINE
5
720
100
AcDbEntity
8
1-0
6
CONTINUOUS
62
3
100
AcDbLine
10
30962.230000000000
20
118541.820000000010
30
0.0
11
31397.209999999999
21
118295.410000000000
31
0.0
0
LINE
5
721
100
AcDbEntity
8
1-0
6
CONTINUOUS
62
3
100
AcDbLine
10
31397.209999999999
20
118295.410000000000
30
0.0
11
31831.720000000001
21
118047.840000000000
31
0.0
0
LINE
5
722
100
AcDbEntity
8
1-0
6
CONTINUOUS
62
3
100
AcDbLine
10
31831.720000000001
20
118047.840000000000
30
0.0
11
32265.880000000001
21
117799.500000000000
31
0.0
0
LINE
5
723
100
AcDbEntity
8
1-0
6
CONTINUOUS
62
3
100
AcDbLine
10
32265.880000000001
20
117799.500000000000
30
0.0
11
32699.939999999999
21
117550.660000000000
31
0.0
0
LINE
5
724
100
AcDbEntity
8
1-0
6
CONTINUOUS
62
3
100
AcDbLine
10
32699.939999999999
20
117550.660000000000
30
0.0
11
33134.029999999999
21
117301.679999999990
31
0.0
0
LINE
5
725
100
AcDbEntity
8
1-0
6
CONTINUOUS
62
3
100
AcDbLine
10
33134.029999999999
20
117301.679999999990
30
0.0
11
33568.370000000003
21
117052.899999999990
31
0.0
0
LINE
5
726
100
AcDbEntity
8
1-0
6
CONTINUOUS
62
3
100
AcDbLine
10
33568.370000000003
20
117052.899999999990
30
0.0
11
34003.110000000001
21
116804.620000000000
31
0.0
0
LINE
5
727
100
AcDbEntity
8
1-0
6
CONTINUOUS
62
3
100
AcDbLine
10
34003.110000000001
20
116804.620000000000
30
0.0
11
34438.440000000002
21
116557.240000000010
31
0.0
0
LINE
5
728
100
AcDbEntity
8
1-0
6
CONTINUOUS
62
3
100
AcDbLine
10
34438.440000000002
20
116557.240000000010
30
0.0
11
34874.489999999998
21
116310.840000000000
31
0.0
0
LINE
5
729
100
AcDbEntity
8
1-0
6
CONTINUOUS
62
3
100
AcDbLine
10
34874.489999999998
20
116310.840000000000
30
0.0
11
35310.269999999997
21
116063.990000000010
31
0.0
0
LINE
5
72a
100
AcDbEntity
8
1-0
6
CONTINUOUS
62
3
100
AcDbLine
10
35310.269999999997
20
116063.990000000010
30
0.0
11
35744.239999999998
21
115814.450000000000
31
0.0
0
LINE
5
72b
100
AcDbEntity
8
1-0
6
CONTINUOUS
62
3
100
AcDbLine
10
35744.239999999998
20
115814.450000000000
30
0.0
11
36174.949999999997
21
115559.940000000000
31
0.0
0
LINE
5
72c
100
AcDbEntity
8
1-0
6
CONTINUOUS
62
3
100
AcDbLine
10
36174.949999999997
20
115559.940000000000
30
0.0
11
36600.889999999999
21
115298.149999999990
31
0.0
0
LINE
5
72d
100
AcDbEntity
8
1-0
6
CONTINUOUS
62
3
100
AcDbLine
10
36600.889999999999
20
115298.149999999990
30
0.0
11
37020.500000000000
21
115026.850000000010
31
0.0
0
LINE
5
72e
100
AcDbEntity
8
1-0
6
CONTINUOUS
62
3
100
AcDbLine
10
37020.500000000000
20
115026.850000000010
30
0.0
11
37432.339999999997
21
114743.750000000000
31
0.0
0
LINE
5
72f
100
AcDbEntity
8
1-0
6
CONTINUOUS
62
3
100
AcDbLine
10
37432.339999999997
20
114743.750000000000
30
0.0
11
37835.010000000002
21
114446.929999999990
31
0.0
0
LINE
5
730
100
AcDbEntity
8
1-0
6
CONTINUOUS
62
3
100
AcDbLine
10
37835.010000000002
20
114446.929999999990
30
0.0
11
38228.040000000001
21
114136.390000000000
31
0.0
0
LINE
5
731
100
AcDbEntity
8
1-0
6
CONTINUOUS
62
3
100
AcDbLine
10
38228.040000000001
20
114136.390000000000
30
0.0
11
38611.239999999998
21
113812.810000000000
31
0.0
0
LINE
5
732
100
AcDbEntity
8
1-0
6
CONTINUOUS
62
3
100
AcDbLine
10
38611.239999999998
20
113812.810000000000
30
0.0
11
38984.360000000001
21
113476.890000000000
31
0.0
0
LINE
5
733
100
AcDbEntity
8
1-0
6
CONTINUOUS
62
3
100
AcDbLine
10
38984.360000000001
20
113476.890000000000
30
0.0
11
39347.250000000000
21
113129.270000000000
31
0.0
0
LINE
5
734
100
AcDbEntity
8
1-0
6
CONTINUOUS
62
3
100
AcDbLine
10
39347.250000000000
20
113129.270000000000
30
0.0
11
39699.680000000000
21
112770.630000000000
31
0.0
0
LINE
5
735
100
AcDbEntity
8
1-0
6
CONTINUOUS
62
3
100
AcDbLine
10
39699.680000000000
20
112770.630000000000
30
0.0
11
40041.440000000002
21
112401.610000000000
31
0.0
0
LINE
5
736
100
AcDbEntity
8
1-0
6
CONTINUOUS
62
3
100
AcDbLine
10
40041.440000000002
20
112401.610000000000
30
0.0
11
40372.309999999998
21
112022.920000000000
31
0.0
0
LINE
5
737
100
AcDbEntity
8
1-0
6
CONTINUOUS
62
3
100
AcDbLine
10
40372.309999999998
20
112022.920000000000
30
0.0
11
40692.110000000001
21
111635.230000000000
31
0.0
0
LINE
5
738
100
AcDbEntity
8
1-0
6
CONTINUOUS
62
3
100
AcDbLine
10
40692.110000000001
20
111635.230000000000
30
0.0
11
41000.620000000003
21
111239.170000000000
31
0.0
0
LINE
5
739
100
AcDbEntity
8
1-0
6
CONTINUOUS
62
3
100
AcDbLine
10
41000.620000000003
20
111239.170000000000
30
0.0
11
41297.669999999998
21
110835.429999999990
31
0.0
0
LINE
5
73a
100
AcDbEntity
8
1-0
6
CONTINUOUS
62
3
100
AcDbLine
10
41297.669999999998
20
110835.429999999990
30
0.0
11
41583.889999999999
21
110424.850000000010
31
0.0
0
LINE
5
73b
100
AcDbEntity
8
1-0
6
CONTINUOUS
62
3
100
AcDbLine
10
41583.889999999999
20
110424.850000000010
30
0.0
11
41860.760000000002
21
110008.350000000010
31
0.0
0
LINE
5
73c
100
AcDbEntity
8
1-0
6
CONTINUOUS
62
3
100
AcDbLine
10
41860.760000000002
20
110008.350000000010
30
0.0
11
42129.820000000000
21
109586.880000000000
31
0.0
0
LINE
5
73d
100
AcDbEntity
8
1-0
6
CONTINUOUS
62
3
100
AcDbLine
10
42129.820000000000
20
109586.880000000000
30
0.0
11
42392.550000000003
21
109161.440000000000
31
0.0
0
LINE
5
73e
100
AcDbEntity
8
1-0
6
CONTINUOUS
62
3
100
AcDbLine
10
42392.550000000003
20
109161.440000000000
30
0.0
11
42650.480000000003
21
108732.980000000000
31
0.0
0
LINE
5
73f
100
AcDbEntity
8
1-0
6
CONTINUOUS
62
3
100
AcDbLine
10
42650.480000000003
20
108732.980000000000
30
0.0
11
42905.099999999999
21
108302.429999999990
31
0.0
0
LINE
5
740
100
AcDbEntity
8
1-0
6
CONTINUOUS
62
3
100
AcDbLine
10
42905.099999999999
20
108302.429999999990
30
0.0
11
43157.949999999997
21
107870.780000000000
31
0.0
0
LINE
5
741
100
AcDbEntity
8
1-0
6
CONTINUOUS
62
3
100
AcDbLine
10
43157.949999999997
20
107870.780000000000
30
0.0
11
43410.580000000002
21
107438.970000000000
31
0.0
0
LINE
5
742
100
AcDbEntity
8
1-0
6
CONTINUOUS
62
3
100
AcDbLine
10
43410.580000000002
20
107438.970000000000
30
0.0
11
43664.389999999999
21
107007.920000000000
31
0.0
0
LINE
5
743
100
AcDbEntity
8
1-0
6
CONTINUOUS
62
3
100
AcDbLine
10
43664.389999999999
20
107007.920000000000
30
0.0
11
43920.099999999999
21
106578.070000000010
31
0.0
0
LINE
5
744
100
AcDbEntity
8
1-0
6
CONTINUOUS
62
3
100
AcDbLine
10
43920.099999999999
20
106578.070000000010
30
0.0
11
44177.660000000003
21
106149.420000000000
31
0.0
0
LINE
5
745
100
AcDbEntity
8
1-0
6
CONTINUOUS
62
3
100
AcDbLine
10
44177.660000000003
20
106149.420000000000
30
0.0
11
44437.050000000003
21
105721.940000000000
31
0.0
0
LINE
5
746
100
AcDbEntity
8
1-0
6
CONTINUOUS
62
3
100
AcDbLine
10
44437.050000000003
20
105721.940000000000
30
0.0
11
44698.279999999999
21
105295.580000000000
31
0.0
0
LINE
5
747
100
AcDbEntity
8
1-0
6
CONTINUOUS
62
3
100
AcDbLine
10
44698.279999999999
20
105295.580000000000
30
0.0
11
44961.239999999998
21
104870.360000000000
31
0.0
0
LINE
5
748
100
AcDbEntity
8
1-0
6
CONTINUOUS
62
3
100
AcDbLine
10
44961.239999999998
20
104870.360000000000
30
0.0
11
45225.970000000001
21
104446.210000000010
31
0.0
0
LINE
5
749
100
AcDbEntity
8
1-0
6
CONTINUOUS
62
3
100
AcDbLine
10
45225.970000000001
20
104446.210000000010
30
0.0
11
45492.360000000001
21
104023.130000000000
31
0.0
0
LINE
5
74a
100
AcDbEntity
8
1-0
6
CONTINUOUS
62
3
100
AcDbLine
10
45492.360000000001
20
104023.130000000000
30
0.0
11
45760.470000000001
21
103601.070000000010
31
0.0
0
LINE
5
74b
100
AcDbEntity
8
1-0
6
CONTINUOUS
62
3
100
AcDbLine
10
45760.470000000001
20
103601.070000000010
30
0.0
11
46030.220000000001
21
103180.060000000000
31
0.0
0
LINE
5
74c
100
AcDbEntity
8
1-0
6
CONTINUOUS
62
3
100
AcDbLine
10
46030.220000000001
20
103180.060000000000
30
0.0
11
46301.570000000000
21
102760.050000000000
31
0.0
0
LINE
5
74d
100
AcDbEntity
8
1-0
6
CONTINUOUS
62
3
100
AcDbLine
10
46301.570000000000
20
102760.050000000000
30
0.0
11
46574.500000000000
21
102340.980000000000
31
0.0
0
LINE
5
74e
100
AcDbEntity
8
1-0
6
CONTINUOUS
62
3
100
AcDbLine
10
46574.500000000000
20
102340.980000000000
30
0.0
11
46848.970000000001
21
101922.870000000000
31
0.0
0
LINE
5
74f
100
AcDbEntity
8
1-0
6
CONTINUOUS
62
3
100
AcDbLine
10
46848.970000000001
20
101922.870000000000
30
0.0
11
47124.940000000002
21
101505.690000000000
31
0.0
0
LINE
5
750
100
AcDbEntity
8
1-0
6
CONTINUOUS
62
3
100
AcDbLine
10
47124.940000000002
20
101505.690000000000
30
0.0
11
47402.459999999999
21
101089.440000000000
31
0.0
0
LINE
5
751
100
AcDbEntity
8
1-0
6
CONTINUOUS
62
3
100
AcDbLine
10
47402.459999999999
20
101089.440000000000
30
0.0
11
47681.750000000000
21
100674.330000000000
31
0.0
0
LINE
5
752
100
AcDbEntity
8
1-0
6
CONTINUOUS
62
3
100
AcDbLine
10
47681.750000000000
20
100674.330000000000
30
0.0
11
47963.099999999999
21
100260.590000000000
31
0.0
0
LINE
5
753
100
AcDbEntity
8
1-0
6
CONTINUOUS
62
3
100
AcDbLine
10
47963.099999999999
20
100260.590000000000
30
0.0
11
48246.779999999999
21
99848.470000000001
31
0.0
0
LINE
5
754
100
AcDbEntity
8
1-0
6
CONTINUOUS
62
3
100
AcDbLine
10
48246.779999999999
20
99848.470000000001
30
0.0
11
48533.070000000000
21
99438.250000000000
31
0.0
0
LINE
5
755
100
AcDbEntity
8
1-0
6
CONTINUOUS
62
3
100
AcDbLine
10
48533.070000000000
20
99438.250000000000
30
0.0
11
48822.269999999997
21
99030.080000000002
31
0.0
0
LINE
5
756
100
AcDbEntity
8
1-0
6
CONTINUOUS
62
3
100
AcDbLine
10
48822.269999999997
20
99030.080000000002
30
0.0
11
49114.660000000003
21
98624.279999999999
31
0.0
0
LINE
5
757
100
AcDbEntity
8
1-0
6
CONTINUOUS
62
3
100
AcDbLine
10
49114.660000000003
20
98624.279999999999
30
0.0
11
49410.510000000002
21
98221.039999999994
31
0.0
0
LINE
5
758
100
AcDbEntity
8
1-0
6
CONTINUOUS
62
3
100
AcDbLine
10
49410.510000000002
20
98221.039999999994
30
0.0
11
49710.129999999997
21
97820.630000000005
31
0.0
0
LINE
5
759
100
AcDbEntity
8
1-0
6
CONTINUOUS
62
3
100
AcDbLine
10
49710.129999999997
20
97820.630000000005
30
0.0
11
50013.790000000001
21
97423.270000000004
31
0.0
0
LINE
5
75a
100
AcDbEntity
8
1-0
6
CONTINUOUS
62
3
100
AcDbLine
10
50013.790000000001
20
97423.270000000004
30
0.0
11
50321.769999999997
21
97029.240000000005
31
0.0
0
LINE
5
75b
100
AcDbEntity
8
1-0
6
CONTINUOUS
62
3
100
AcDbLine
10
50321.769999999997
20
97029.240000000005
30
0.0
11
50634.400000000001
21
96638.720000000001
31
0.0
0
LINE
5
75c
100
AcDbEntity
8
1-0
6
CONTINUOUS
62
3
100
AcDbLine
10
50634.400000000001
20
96638.720000000001
30
0.0
11
50951.870000000003
21
96251.970000000001
31
0.0
0
LINE
5
75d
100
AcDbEntity
8
1-0
6
CONTINUOUS
62
3
100
AcDbLine
10
50951.870000000003
20
96251.970000000001
30
0.0
11
51273.980000000003
21
95868.850000000006
31
0.0
0
LINE
5
75e
100
AcDbEntity
8
1-0
6
CONTINUOUS
62
3
100
AcDbLine
10
51273.980000000003
20
95868.850000000006
30
0.0
11
51599.940000000002
21
95488.690000000002
31
0.0
0
LINE
5
75f
100
AcDbEntity
8
1-0
6
CONTINUOUS
62
3
100
AcDbLine
10
51599.940000000002
20
95488.690000000002
30
0.0
11
51928.919999999998
21
95110.889999999999
31
0.0
0
LINE
5
760
100
AcDbEntity
8
1-0
6
CONTINUOUS
62
3
100
AcDbLine
10
51928.919999999998
20
95110.889999999999
30
0.0
11
52260.050000000003
21
94734.800000000003
31
0.0
0
LINE
5
761
100
AcDbEntity
8
1-0
6
CONTINUOUS
62
3
100
AcDbLine
10
52260.050000000003
20
94734.800000000003
30
0.0
11
52592.550000000003
21
94359.800000000003
31
0.0
0
LINE
5
762
100
AcDbEntity
8
1-0
6
CONTINUOUS
62
3
100
AcDbLine
10
52592.550000000003
20
94359.800000000003
30
0.0
11
52925.570000000000
21
93985.240000000005
31
0.0
0
LINE
5
763
100
AcDbEntity
8
1-0
6
CONTINUOUS
62
3
100
AcDbLine
10
52925.570000000000
20
93985.240000000005
30
0.0
11
53258.300000000003
21
93610.470000000001
31
0.0
0
LINE
5
764
100
AcDbEntity
8
1-0
6
CONTINUOUS
62
3
100
AcDbLine
10
53258.300000000003
20
93610.470000000001
30
0.0
11
53589.849999999999
21
93234.889999999999
31
0.0
0
LINE
5
765
100
AcDbEntity
8
1-0
6
CONTINUOUS
62
3
100
AcDbLine
10
53589.849999999999
20
93234.889999999999
30
0.0
11
53919.449999999997
21
92857.850000000006
31
0.0
0
LINE
5
766
100
AcDbEntity
8
1-0
6
CONTINUOUS
62
3
100
AcDbLine
10
53919.449999999997
20
92857.850000000006
30
0.0
11
54246.230000000003
21
92478.690000000002
31
0.0
0
LINE
5
767
100
AcDbEntity
8
1-0
6
CONTINUOUS
62
3
100
AcDbLine
10
54246.230000000003
20
92478.690000000002
30
0.0
11
54569.400000000001
21
92096.809999999998
31
0.0
0
LINE
5
768
100
AcDbEntity
8
1-0
6
CONTINUOUS
62
3
100
AcDbLine
10
54569.400000000001
20
92096.809999999998
30
0.0
11
54888.110000000001
21
91711.550000000003
31
0.0
0
LINE
5
769
100
AcDbEntity
8
1-0
6
CONTINUOUS
62
3
100
AcDbLine
10
54888.110000000001
20
91711.550000000003
30
0.0
11
55201.500000000000
21
91322.279999999999
31
0.0
0
LINE
5
76a
100
AcDbEntity
8
1-0
6
CONTINUOUS
62
3
100
AcDbLine
10
55201.500000000000
20
91322.279999999999
30
0.0
11
55508.779999999999
21
90928.380000000005
31
0.0
0
LINE
5
76b
100
AcDbEntity
8
1-0
6
CONTINUOUS
62
3
100
AcDbLine
10
55508.779999999999
20
90928.380000000005
30
0.0
11
55809.110000000001
21
90529.169999999998
31
0.0
0
LINE
5
76c
100
AcDbEntity
8
1-0
6
CONTINUOUS
62
3
100
AcDbLine
10
55809.110000000001
20
90529.169999999998
30
0.0
11
56101.650000000001
21
90124.070000000007
31
0.0
0
LINE
5
76d
100
AcDbEntity
8
1-0
6
CONTINUOUS
62
3
100
AcDbLine
10
56101.650000000001
20
90124.070000000007
30
0.0
11
56385.570000000000
21
89712.419999999998
31
0.0
0
LINE
5
76e
100
AcDbEntity
8
1-0
6
CONTINUOUS
62
3
100
AcDbLine
10
56385.570000000000
20
89712.419999999998
30
0.0
11
56660.050000000003
21
89293.559999999998
31
0.0
0
LINE
5
76f
100
AcDbEntity
8
1-0
6
CONTINUOUS
62
3
100
AcDbLine
10
56660.050000000003
20
89293.559999999998
30
0.0
11
56924.129999999997
21
88866.970000000001
31
0.0
0
LINE
5
770
100
AcDbEntity
8
1-0
6
CONTINUOUS
62
3
100
AcDbLine
10
56924.129999999997
20
88866.970000000001
30
0.0
11
57176.220000000001
21
88432.500000000000
31
0.0
0
LINE
5
771
100
AcDbEntity
8
1-0
6
CONTINUOUS
62
3
100
AcDbLine
10
57176.220000000001
20
88432.500000000000
30
0.0
11
57414.400000000001
21
87990.210000000006
31
0.0
0
LINE
5
772
100
AcDbEntity
8
1-0
6
CONTINUOUS
62
3
100
AcDbLine
10
57414.400000000001
20
87990.210000000006
30
0.0
11
57636.750000000000
21
87540.160000000003
31
0.0
0
LINE
5
773
100
AcDbEntity
8
1-0
6
CONTINUOUS
62
3
100
AcDbLine
10
57636.750000000000
20
87540.160000000003
30
0.0
11
57841.430000000000
21
87082.360000000001
31
0.0
0
LINE
5
774
100
AcDbEntity
8
1-0
6
CONTINUOUS
62
3
100
AcDbLine
10
57841.430000000000
20
87082.360000000001
30
0.0
11
58026.540000000001
21
86616.919999999998
31
0.0
0
LINE
5
775
100
AcDbEntity
8
1-0
6
CONTINUOUS
62
3
100
AcDbLine
10
58026.540000000001
20
86616.919999999998
30
0.0
11
58190.169999999998
21
86143.860000000001
31
0.0
0
LINE
5
776
100
AcDbEntity
8
1-0
6
CONTINUOUS
62
3
100
AcDbLine
10
58190.169999999998
20
86143.860000000001
30
0.0
11
58330.550000000003
21
85663.270000000004
31
0.0
0
LINE
5
777
100
AcDbEntity
8
1-0
6
CONTINUOUS
62
3
100
AcDbLine
10
58330.550000000003
20
85663.270000000004
30
0.0
11
58447.269999999997
21
85175.850000000006
31
0.0
0
LINE
5
778
100
AcDbEntity
8
1-0
6
CONTINUOUS
62
3
100
AcDbLine
10
58447.269999999997
20
85175.850000000006
30
0.0
11
58541.190000000002
21
84682.789999999994
31
0.0
0
LINE
5
779
100
AcDbEntity
8
1-0
6
CONTINUOUS
62
3
100
AcDbLine
10
58541.190000000002
20
84682.789999999994
30
0.0
11
58613.169999999998
21
84185.289999999994
31
0.0
0
LINE
5
77a
100
AcDbEntity
8
1-0
6
CONTINUOUS
62
3
100
AcDbLine
10
58613.169999999998
20
84185.289999999994
30
0.0
11
58664.019999999997
21
83684.550000000003
31
0.0
0
LINE
5
77b
100
AcDbEntity
8
1-0
6
CONTINUOUS
62
3
100
AcDbLine
10
58664.019999999997
20
83684.550000000003
30
0.0
11
58694.639999999999
21
83181.779999999999
31
0.0
0
LINE
5
77c
100
AcDbEntity
8
1-0
6
CONTINUOUS
62
3
100
AcDbLine
10
58694.639999999999
20
83181.779999999999
30
0.0
11
58705.900000000001
21
82678.130000000005
31
0.0
0
LINE
5
77d
100
AcDbEntity
8
1-0
6
CONTINUOUS
62
3
100
AcDbLine
10
58705.900000000001
20
82678.130000000005
30
0.0
11
58698.580000000002
21
82174.889999999999
31
0.0
0
LINE
5
77e
100
AcDbEntity
8
1-0
6
CONTINUOUS
62
3
100
AcDbLine
10
58698.580000000002
20
82174.889999999999
30
0.0
11
58673.599999999999
21
81673.179999999993
31
0.0
0
LINE
5
77f
100
AcDbEntity
8
1-0
6
CONTINUOUS
62
3
100
AcDbLine
10
58673.599999999999
20
81673.179999999993
30
0.0
11
58631.910000000003
21
81174.050000000003
31
0.0
0
LINE
5
780
100
AcDbEntity
8
1-0
6
CONTINUOUS
62
3
100
AcDbLine
10
58631.910000000003
20
81174.050000000003
30
0.0
11
58575.180000000000
21
80677.490000000005
31
0.0
0
LINE
5
781
100
AcDbEntity
8
1-0
6
CONTINUOUS
62
3
100
AcDbLine
10
58575.180000000000
20
80677.490000000005
30
0.0
11
58505.389999999999
21
80183.050000000003
31
0.0
0
LINE
5
782
100
AcDbEntity
8
1-0
6
CONTINUOUS
62
3
100
AcDbLine
10
58505.389999999999
20
80183.050000000003
30
0.0
11
58424.410000000003
21
79690.429999999993
31
0.0
0
LINE
5
783
100
AcDbEntity
8
1-0
6
CONTINUOUS
62
3
100
AcDbLine
10
58424.410000000003
20
79690.429999999993
30
0.0
11
58334.160000000003
21
79199.199999999997
31
0.0
0
LINE
5
784
100
AcDbEntity
8
1-0
6
CONTINUOUS
62
3
100
AcDbLine
10
58334.160000000003
20
79199.199999999997
30
0.0
11
58236.550000000003
21
78709.100000000006
31
0.0
0
LINE
5
785
100
AcDbEntity
8
1-0
6
CONTINUOUS
62
3
100
AcDbLine
10
58236.550000000003
20
78709.100000000006
30
0.0
11
58133.489999999998
21
78219.649999999994
31
0.0
0
LINE
5
786
100
AcDbEntity
8
1-0
6
CONTINUOUS
62
3
100
AcDbLine
10
58133.489999999998
20
78219.649999999994
30
0.0
11
58026.910000000003
21
77730.559999999998
31
0.0
0
LINE
5
787
100
AcDbEntity
8
1-0
6
CONTINUOUS
62
3
100
AcDbLine
10
58026.910000000003
20
77730.559999999998
30
0.0
11
57918.699999999997
21
77241.389999999999
31
0.0
0
LINE
5
788
100
AcDbEntity
8
1-0
6
CONTINUOUS
62
3
100
AcDbLine
10
57918.699999999997
20
77241.389999999999
30
0.0
11
57810.800000000003
21
76751.809999999998
31
0.0
0
LINE
5
789
100
AcDbEntity
8
1-0
6
CONTINUOUS
62
3
100
AcDbLine
10
57810.800000000003
20
76751.809999999998
30
0.0
11
57705.110000000001
21
76261.500000000000
31
0.0
0
LINE
5
78a
100
AcDbEntity
8
1-0
6
CONTINUOUS
62
3
100
AcDbLine
10
57705.110000000001
20
76261.500000000000
30
0.0
11
57603.550000000003
21
75770.009999999995
31
0.0
0
LINE
5
78b
100
AcDbEntity
8
1-0
6
CONTINUOUS
62
3
100
AcDbLine
10
57603.550000000003
20
75770.009999999995
30
0.0
11
57507.849999999999
21
75277.050000000003
31
0.0
0
LINE
5
78c
100
AcDbEntity
8
1-0
6
CONTINUOUS
62
3
100
AcDbLine
10
57507.849999999999
20
75277.050000000003
30
0.0
11
57418.300000000003
21
74782.649999999994
31
0.0
0
LINE
5
78d
100
AcDbEntity
8
1-0
6
CONTINUOUS
62
3
100
AcDbLine
10
57418.300000000003
20
74782.649999999994
30
0.0
11
57334.440000000002
21
74286.990000000005
31
0.0
0
LINE
5
78e
100
AcDbEntity
8
1-0
6
CONTINUOUS
62
3
100
AcDbLine
10
57334.440000000002
20
74286.990000000005
30
0.0
11
57255.820000000000
21
73790.270000000004
31
0.0
0
LINE
5
78f
100
AcDbEntity
8
1-0
6
CONTINUOUS
62
3
100
AcDbLine
10
57255.820000000000
20
73790.270000000004
30
0.0
11
57181.940000000002
21
73292.679999999993
31
0.0
0
LINE
5
790
100
AcDbEntity
8
1-0
6
CONTINUOUS
62
3
100
AcDbLine
10
57181.940000000002
20
73292.679999999993
30
0.0
11
57112.389999999999
21
72794.449999999997
31
0.0
0
LINE
5
791
100
AcDbEntity
8
1-0
6
CONTINUOUS
62
3
100
AcDbLine
10
57112.389999999999
20
72794.449999999997
30
0.0
11
57046.660000000003
21
72295.789999999994
31
0.0
0
LINE
5
792
100
AcDbEntity
8
1-0
6
CONTINUOUS
62
3
100
AcDbLine
10
57046.660000000003
20
72295.789999999994
30
0.0
11
56984.309999999998
21
71796.820000000007
31
0.0
0
LINE
5
793
100
AcDbEntity
8
1-0
6
CONTINUOUS
62
3
100
AcDbLine
10
56984.309999999998
20
71796.820000000007
30
0.0
11
56924.860000000001
21
71297.839999999997
31
0.0
0
LINE
5
794
100
AcDbEntity
8
1-0
6
CONTINUOUS
62
3
100
AcDbLine
10
56924.860000000001
20
71297.839999999997
30
0.0
11
56867.849999999999
21
70798.979999999996
31
0.0
0
LINE
5
795
100
AcDbEntity
8
1-0
6
CONTINUOUS
62
3
100
AcDbLine
10
56867.849999999999
20
70798.979999999996
30
0.0
11
56812.830000000002
21
70300.440000000002
31
0.0
0
LINE
5
796
100
AcDbEntity
8
1-0
6
CONTINUOUS
62
3
100
AcDbLine
10
56812.830000000002
20
70300.440000000002
30
0.0
11
56759.309999999998
21
69802.460000000006
31
0.0
0
LINE
5
797
100
AcDbEntity
8
1-0
6
CONTINUOUS
62
3
100
AcDbLine
10
56759.309999999998
20
69802.460000000006
30
0.0
11
56706.849999999999
21
69305.210000000006
31
0.0
0
LINE
5
798
100
AcDbEntity
8
1-0
6
CONTINUOUS
62
3
100
AcDbLine
10
56706.849999999999
20
69305.210000000006
30
0.0
11
56654.989999999998
21
68808.850000000006
31
0.0
0
LINE
5
799
100
AcDbEntity
8
1-0
6
CONTINUOUS
62
3
100
AcDbLine
10
56654.989999999998
20
68808.850000000006
30
0.0
11
56603.260000000002
21
68313.679999999993
31
0.0
0
LINE
5
79a
100
AcDbEntity
8
1-0
6
CONTINUOUS
62
3
100
AcDbLine
10
56603.260000000002
20
68313.679999999993
30
0.0
11
56551.180000000000
21
67819.820000000007
31
0.0
0
LINE
5
79b
100
AcDbEntity
8
1-0
6
CONTINUOUS
62
3
100
AcDbLine
10
56551.180000000000
20
67819.820000000007
30
0.0
11
56498.290000000001
21
67327.500000000000
31
0.0
0
LINE
5
79c
100
AcDbEntity
8
1-0
6
CONTINUOUS
62
3
100
AcDbLine
10
56498.290000000001
20
67327.500000000000
30
0.0
11
56444.160000000003
21
66836.899999999994
31
0.0
0
LINE
5
79d
100
AcDbEntity
8
1-0
6
CONTINUOUS
62
3
100
AcDbLine
10
56444.160000000003
20
66836.899999999994
30
0.0
11
56388.279999999999
21
66348.220000000001
31
0.0
0
LINE
5
79e
100
AcDbEntity
8
1-0
6
CONTINUOUS
62
3
100
AcDbLine
10
56388.279999999999
20
66348.220000000001
30
0.0
11
56330.470000000001
21
65861.539999999994
31
0.0
0
LINE
5
79f
100
AcDbEntity
8
1-0
6
CONTINUOUS
62
3
100
AcDbLine
10
56330.470000000001
20
65861.539999999994
30
0.0
11
56271.330000000002
21
65376.389999999999
31
0.0
0
LINE
5
7a0
100
AcDbEntity
8
1-0
6
CONTINUOUS
62
3
100
AcDbLine
10
56271.330000000002
20
65376.389999999999
30
0.0
11
56211.730000000003
21
64892.260000000002
31
0.0
0
LINE
5
7a1
100
AcDbEntity
8
1-0
6
CONTINUOUS
62
3
100
AcDbLine
10
56211.730000000003
20
64892.260000000002
30
0.0
11
56152.459999999999
21
64408.559999999998
31
0.0
0
LINE
5
7a2
100
AcDbEntity
8
1-0
6
CONTINUOUS
62
3
100
AcDbLine
10
56152.459999999999
20
64408.559999999998
30
0.0
11
56094.360000000001
21
63924.750000000000
31
0.0
0
LINE
5
7a3
100
AcDbEntity
8
1-0
6
CONTINUOUS
62
3
100
AcDbLine
10
56094.360000000001
20
63924.750000000000
30
0.0
11
56038.290000000001
21
63440.330000000002
31
0.0
0
LINE
5
7a4
100
AcDbEntity
8
1-0
6
CONTINUOUS
62
3
100
AcDbLine
10
56038.290000000001
20
63440.330000000002
30
0.0
11
55985.040000000001
21
62954.660000000003
31
0.0
0
LINE
5
7a5
100
AcDbEntity
8
1-0
6
CONTINUOUS
62
3
100
AcDbLine
10
55985.040000000001
20
62954.660000000003
30
0.0
11
55935.459999999999
21
62467.279999999999
31
0.0
0
LINE
5
7a6
100
AcDbEntity
8
1-0
6
CONTINUOUS
62
3
100
AcDbLine
10
55935.459999999999
20
62467.279999999999
30
0.0
11
55890.370000000003
21
61977.589999999997
31
0.0
0
LINE
5
7a7
100
AcDbEntity
8
1-0
6
CONTINUOUS
62
3
100
AcDbLine
10
55890.370000000003
20
61977.589999999997
30
0.0
11
55850.610000000001
21
61485.040000000001
31
0.0
0
LINE
5
7a8
100
AcDbEntity
8
1-0
6
CONTINUOUS
62
3
100
AcDbLine
10
55850.610000000001
20
61485.040000000001
30
0.0
11
55816.989999999998
21
60989.089999999997
31
0.0
0
LINE
5
7a9
100
AcDbEntity
8
1-0
6
CONTINUOUS
62
3
100
AcDbLine
10
55816.989999999998
20
60989.089999999997
30
0.0
11
55790.360000000001
21
60489.230000000003
31
0.0
0
LINE
5
7aa
100
AcDbEntity
8
1-0
6
CONTINUOUS
62
3
100
AcDbLine
10
55790.360000000001
20
60489.230000000003
30
0.0
11
55771.540000000001
21
59984.809999999998
31
0.0
0
LINE
5
7ab
100
AcDbEntity
8
1-0
6
CONTINUOUS
62
3
100
AcDbLine
10
55771.540000000001
20
59984.809999999998
30
0.0
11
55761.360000000001
21
59475.379999999997
31
0.0
0
LINE
5
7ac
100
AcDbEntity
8
1-0
6
CONTINUOUS
62
3
100
AcDbLine
10
55761.360000000001
20
59475.379999999997
30
0.0
11
55760.650000000001
21
58960.360000000001
31
0.0
0
LINE
5
7ad
100
AcDbEntity
8
1-0
6
CONTINUOUS
62
3
100
AcDbLine
10
55760.650000000001
20
58960.360000000001
30
0.0
11
55770.230000000003
21
58439.169999999998
31
0.0
0
LINE
5
7ae
100
AcDbEntity
8
1-0
6
CONTINUOUS
62
3
100
AcDbLine
10
55770.230000000003
20
58439.169999999998
30
0.0
11
55790.930000000000
21
57911.309999999998
31
0.0
0
LINE
5
7af
100
AcDbEntity
8
1-0
6
CONTINUOUS
62
3
100
AcDbLine
10
55790.930000000000
20
57911.309999999998
30
0.0
11
55823.589999999997
21
57376.190000000002
31
0.0
0
LINE
5
7b0
100
AcDbEntity
8
1-0
6
CONTINUOUS
62
3
100
AcDbLine
10
55823.589999999997
20
57376.190000000002
30
0.0
11
55868.519999999997
21
56833.550000000003
31
0.0
0
LINE
5
7b1
100
AcDbEntity
8
1-0
6
CONTINUOUS
62
3
100
AcDbLine
10
55868.519999999997
20
56833.550000000003
30
0.0
11
55920.940000000002
21
56285.760000000002
31
0.0
0
LINE
5
7b2
100
AcDbEntity
8
1-0
6
CONTINUOUS
62
3
100
AcDbLine
10
55920.940000000002
20
56285.760000000002
30
0.0
11
55973.110000000001
21
55736.839999999997
31
0.0
0
LINE
5
7b3
100
AcDbEntity
8
1-0
6
CONTINUOUS
62
3
100
AcDbLine
10
55973.110000000001
20
55736.839999999997
30
0.0
11
56017.250000000000
21
55190.660000000003
31
0.0
0
LINE
5
7b4
100
AcDbEntity
8
1-0
6
CONTINUOUS
62
3
100
AcDbLine
10
56017.250000000000
20
55190.660000000003
30
0.0
11
56045.599999999999
21
54651.260000000002
31
0.0
0
LINE
5
7b5
100
AcDbEntity
8
1-0
6
CONTINUOUS
62
3
100
AcDbLine
10
56045.599999999999
20
54651.260000000002
30
0.0
11
56050.389999999999
21
54122.550000000003
31
0.0
0
LINE
5
7b6
100
AcDbEntity
8
1-0
6
CONTINUOUS
62
3
100
AcDbLine
10
56050.389999999999
20
54122.550000000003
30
0.0
11
56023.860000000001
21
53608.540000000001
31
0.0
0
LINE
5
7b7
100
AcDbEntity
8
1-0
6
CONTINUOUS
62
3
100
AcDbLine
10
56023.860000000001
20
53608.540000000001
30
0.0
11
55958.220000000001
21
53113.169999999998
31
0.0
0
LINE
5
7b8
100
AcDbEntity
8
1-0
6
CONTINUOUS
62
3
100
AcDbLine
10
55958.220000000001
20
53113.169999999998
30
0.0
11
55845.739999999998
21
52640.410000000003
31
0.0
0
LINE
5
7b9
100
AcDbEntity
8
1-0
6
CONTINUOUS
62
3
100
AcDbLine
10
55845.739999999998
20
52640.410000000003
30
0.0
11
55678.629999999997
21
52194.199999999997
31
0.0
0
LINE
5
7ba
100
AcDbEntity
8
1-0
6
CONTINUOUS
62
3
100
AcDbLine
10
55678.629999999997
20
52194.199999999997
30
0.0
11
55449.120000000003
21
51778.559999999998
31
0.0
0
LINE
5
7bb
100
AcDbEntity
8
1-0
6
CONTINUOUS
62
3
100
AcDbLine
10
55449.120000000003
20
51778.559999999998
30
0.0
11
55149.440000000002
21
51397.389999999999
31
0.0
0
LINE
5
7bc
100
AcDbEntity
8
1-0
6
CONTINUOUS
62
3
100
AcDbLine
10
55149.440000000002
20
51397.389999999999
30
0.0
11
54804.709999999999
21
51036.040000000001
31
0.0
0
LINE
5
7bd
100
AcDbEntity
8
1-0
6
CONTINUOUS
62
3
100
AcDbLine
10
54804.709999999999
20
51036.040000000001
30
0.0
11
54485.680000000000
21
50654.500000000000
31
0.0
0
LINE
5
7be
100
AcDbEntity
8
1-0
6
CONTINUOUS
62
3
100
AcDbLine
10
54485.680000000000
20
50654.500000000000
30
0.0
11
54189.019999999997
21
50255.430000000000
31
0.0
0
LINE
5
7bf
100
AcDbEntity
8
1-0
6
CONTINUOUS
62
3
100
AcDbLine
10
54189.019999999997
20
50255.430000000000
30
0.0
11
53907.070000000000
21
49843.959999999999
31
0.0
0
LINE
5
7c0
100
AcDbEntity
8
1-0
6
CONTINUOUS
62
3
100
AcDbLine
10
53907.070000000000
20
49843.959999999999
30
0.0
11
53632.180000000000
21
49425.250000000000
31
0.0
0
LINE
5
7c1
100
AcDbEntity
8
1-0
6
CONTINUOUS
62
3
100
AcDbLine
10
53632.180000000000
20
49425.250000000000
30
0.0
11
53356.709999999999
21
49004.419999999998
31
0.0
0
LINE
5
7c2
100
AcDbEntity
8
1-0
6
CONTINUOUS
62
3
100
AcDbLine
10
53356.709999999999
20
49004.419999999998
30
0.0
11
53072.989999999998
21
48586.660000000003
31
0.0
0
LINE
5
7c3
100
AcDbEntity
8
1-0
6
CONTINUOUS
62
3
100
AcDbLine
10
53072.989999999998
20
48586.660000000003
30
0.0
11
52773.550000000003
21
48177.089999999997
31
0.0
0
LINE
5
7c4
100
AcDbEntity
8
1-0
6
CONTINUOUS
62
3
100
AcDbLine
10
52773.550000000003
20
48177.089999999997
30
0.0
11
52454.209999999999
21
47781.760000000002
31
0.0
0
LINE
5
7c5
100
AcDbEntity
8
1-0
6
CONTINUOUS
62
3
100
AcDbLine
10
52454.209999999999
20
47781.760000000002
30
0.0
11
52113.650000000001
21
47407.309999999998
31
0.0
0
LINE
5
7c6
100
AcDbEntity
8
1-0
6
CONTINUOUS
62
3
100
AcDbLine
10
52113.650000000001
20
47407.309999999998
30
0.0
11
51750.610000000001
21
47060.510000000002
31
0.0
0
LINE
5
7c7
100
AcDbEntity
8
1-0
6
CONTINUOUS
62
3
100
AcDbLine
10
51750.610000000001
20
47060.510000000002
30
0.0
11
51363.900000000001
21
46748.070000000000
31
0.0
0
LINE
5
7c8
100
AcDbEntity
8
1-0
6
CONTINUOUS
62
3
100
AcDbLine
10
51363.900000000001
20
46748.070000000000
30
0.0
11
50952.320000000000
21
46476.529999999999
31
0.0
0
LINE
5
7c9
100
AcDbEntity
8
1-0
6
CONTINUOUS
62
3
100
AcDbLine
10
50952.320000000000
20
46476.529999999999
30
0.0
11
50517.050000000003
21
46246.419999999998
31
0.0
0
LINE
5
7ca
100
AcDbEntity
8
1-0
6
CONTINUOUS
62
3
100
AcDbLine
10
50517.050000000003
20
46246.419999999998
30
0.0
11
50062.320000000000
21
46050.169999999998
31
0.0
0
LINE
5
7cb
100
AcDbEntity
8
1-0
6
CONTINUOUS
62
3
100
AcDbLine
10
50062.320000000000
20
46050.169999999998
30
0.0
11
49592.580000000002
21
45879.720000000001
31
0.0
0
LINE
5
7cc
100
AcDbEntity
8
1-0
6
CONTINUOUS
62
3
100
AcDbLine
10
49592.580000000002
20
45879.720000000001
30
0.0
11
49112.269999999997
21
45727.010000000002
31
0.0
0
LINE
5
7cd
100
AcDbEntity
8
1-0
6
CONTINUOUS
62
3
100
AcDbLine
10
49112.269999999997
20
45727.010000000002
30
0.0
11
48625.820000000000
21
45584.010000000002
31
0.0
0
LINE
5
7ce
100
AcDbEntity
8
1-0
6
CONTINUOUS
62
3
100
AcDbLine
10
48625.820000000000
20
45584.010000000002
30
0.0
11
48137.690000000002
21
45442.559999999998
31
0.0
0
LINE
5
7cf
100
AcDbEntity
8
1-0
6
CONTINUOUS
62
3
100
AcDbLine
10
48137.690000000002
20
45442.559999999998
30
0.0
11
47652.320000000000
21
45294.669999999998
31
0.0
0
LINE
5
7d0
100
AcDbEntity
8
1-0
6
CONTINUOUS
62
3
100
AcDbLine
10
47652.320000000000
20
45294.669999999998
30
0.0
11
47173.760000000002
21
45133.050000000003
31
0.0
0
LINE
5
7d1
100
AcDbEntity
8
1-0
6
CONTINUOUS
62
3
100
AcDbLine
10
47173.760000000002
20
45133.050000000003
30
0.0
11
46701.779999999999
21
44959.309999999998
31
0.0
0
LINE
5
7d2
100
AcDbEntity
8
1-0
6
CONTINUOUS
62
3
100
AcDbLine
10
46701.779999999999
20
44959.309999999998
30
0.0
11
46233.599999999999
21
44780.290000000001
31
0.0
0
LINE
5
7d3
100
AcDbEntity
8
1-0
6
CONTINUOUS
62
3
100
AcDbLine
10
46233.599999999999
20
44780.290000000001
30
0.0
11
45766.419999999998
21
44602.930000000000
31
0.0
0
LINE
5
7d4
100
AcDbEntity
8
1-0
6
CONTINUOUS
62
3
100
AcDbLine
10
45766.419999999998
20
44602.930000000000
30
0.0
11
45297.419999999998
21
44434.190000000002
31
0.0
0
LINE
5
7d5
100
AcDbEntity
8
1-0
6
CONTINUOUS
62
3
100
AcDbLine
10
45297.419999999998
20
44434.190000000002
30
0.0
11
44823.790000000001
21
44281.000000000000
31
0.0
0
LINE
5
7d6
100
AcDbEntity
8
1-0
6
CONTINUOUS
62
3
100
AcDbLine
10
44823.790000000001
20
44281.000000000000
30
0.0
11
44342.709999999999
21
44150.290000000001
31
0.0
0
LINE
5
7d7
100
AcDbEntity
8
1-0
6
CONTINUOUS
62
3
100
AcDbLine
10
44342.709999999999
20
44150.290000000001
30
0.0
11
43852.230000000003
21
44048.029999999999
31
0.0
0
LINE
5
7d8
100
AcDbEntity
8
1-0
6
CONTINUOUS
62
3
100
AcDbLine
10
43852.230000000003
20
44048.029999999999
30
0.0
11
43354.180000000000
21
43976.040000000001
31
0.0
0
LINE
5
7d9
100
AcDbEntity
8
1-0
6
CONTINUOUS
62
3
100
AcDbLine
10
43354.180000000000
20
43976.040000000001
30
0.0
11
42851.360000000001
21
43935.019999999997
31
0.0
0
LINE
5
7da
100
AcDbEntity
8
1-0
6
CONTINUOUS
62
3
100
AcDbLine
10
42851.360000000001
20
43935.019999999997
30
0.0
11
42346.580000000002
21
43925.680000000000
31
0.0
0
LINE
5
7db
100
AcDbEntity
8
1-0
6
CONTINUOUS
62
3
100
AcDbLine
10
42346.580000000002
20
43925.680000000000
30
0.0
11
41842.660000000003
21
43948.720000000001
31
0.0
0
LINE
5
7dc
100
AcDbEntity
8
1-0
6
CONTINUOUS
62
3
100
AcDbLine
10
41842.660000000003
20
43948.720000000001
30
0.0
11
41342.410000000003
21
44004.849999999999
31
0.0
0
LINE
5
7dd
100
AcDbEntity
8
1-0
6
CONTINUOUS
62
3
100
AcDbLine
10
41342.410000000003
20
44004.849999999999
30
0.0
11
40848.519999999997
21
44094.379999999997
31
0.0
0
LINE
5
7de
100
AcDbEntity
8
1-0
6
CONTINUOUS
62
3
100
AcDbLine
10
40848.519999999997
20
44094.379999999997
30
0.0
11
40360.480000000003
21
44208.000000000000
31
0.0
0
LINE
5
7df
100
AcDbEntity
8
1-0
6
CONTINUOUS
62
3
100
AcDbLine
10
40360.480000000003
20
44208.000000000000
30
0.0
11
39874.529999999999
21
44326.559999999998
31
0.0
0
LINE
5
7e0
100
AcDbEntity
8
1-0
6
CONTINUOUS
62
3
100
AcDbLine
10
39874.529999999999
20
44326.559999999998
30
0.0
11
39386.800000000003
21
44430.529999999999
31
0.0
0
LINE
5
7e1
100
AcDbEntity
8
1-0
6
CONTINUOUS
62
3
100
AcDbLine
10
39386.800000000003
20
44430.529999999999
30
0.0
11
38893.849999999999
21
44503.129999999997
31
0.0
0
LINE
5
7e2
100
AcDbEntity
8
1-0
6
CONTINUOUS
62
3
100
AcDbLine
10
38893.849999999999
20
44503.129999999997
30
0.0
11
38396.370000000003
21
44551.449999999997
31
0.0
0
LINE
5
7e3
100
AcDbEntity
8
1-0
6
CONTINUOUS
62
3
100
AcDbLine
10
38396.370000000003
20
44551.449999999997
30
0.0
11
37897.070000000000
21
44594.599999999999
31
0.0
0
LINE
5
7e4
100
AcDbEntity
8
1-0
6
CONTINUOUS
62
3
100
AcDbLine
10
37897.070000000000
20
44594.599999999999
30
0.0
11
37398.629999999997
21
44650.959999999999
31
0.0
0
LINE
5
7e5
100
AcDbEntity
8
1-0
6
CONTINUOUS
62
3
100
AcDbLine
10
37398.629999999997
20
44650.959999999999
30
0.0
11
36902.889999999999
21
44728.019999999997
31
0.0
0
LINE
5
7e6
100
AcDbEntity
8
1-0
6
CONTINUOUS
62
3
100
AcDbLine
10
36902.889999999999
20
44728.019999999997
30
0.0
11
36411.099999999999
21
44825.980000000003
31
0.0
0
LINE
5
7e7
100
AcDbEntity
8
1-0
6
CONTINUOUS
62
3
100
AcDbLine
10
36411.099999999999
20
44825.980000000003
30
0.0
11
35924.519999999997
21
44945.029999999999
31
0.0
0
LINE
5
7e8
100
AcDbEntity
8
1-0
6
CONTINUOUS
62
3
100
AcDbLine
10
35924.519999999997
20
44945.029999999999
30
0.0
11
35444.400000000001
21
45085.260000000002
31
0.0
0
LINE
5
7e9
100
AcDbEntity
8
1-0
6
CONTINUOUS
62
3
100
AcDbLine
10
35444.400000000001
20
45085.260000000002
30
0.0
11
34971.959999999999
21
45246.720000000001
31
0.0
0
LINE
5
7ea
100
AcDbEntity
8
1-0
6
CONTINUOUS
62
3
100
AcDbLine
10
34971.959999999999
20
45246.720000000001
30
0.0
11
34507.180000000000
21
45428.000000000000
31
0.0
0
LINE
5
7eb
100
AcDbEntity
8
1-0
6
CONTINUOUS
62
3
100
AcDbLine
10
34507.180000000000
20
45428.000000000000
30
0.0
11
34048.970000000001
21
45626.150000000001
31
0.0
0
LINE
5
7ec
100
AcDbEntity
8
1-0
6
CONTINUOUS
62
3
100
AcDbLine
10
34048.970000000001
20
45626.150000000001
30
0.0
11
33596.150000000001
21
45838.129999999997
31
0.0
0
LINE
5
7ed
100
AcDbEntity
8
1-0
6
CONTINUOUS
62
3
100
AcDbLine
10
33596.150000000001
20
45838.129999999997
30
0.0
11
33147.570000000000
21
46061.029999999999
31
0.0
0
LINE
5
7ee
100
AcDbEntity
8
1-0
6
CONTINUOUS
62
3
100
AcDbLine
10
33147.570000000000
20
46061.029999999999
30
0.0
11
32702.060000000001
21
46291.769999999997
31
0.0
0
LINE
5
7ef
100
AcDbEntity
8
1-0
6
CONTINUOUS
62
3
100
AcDbLine
10
32702.060000000001
20
46291.769999999997
30
0.0
11
32258.459999999999
21
46527.459999999999
31
0.0
0
LINE
5
7f0
100
AcDbEntity
8
1-0
6
CONTINUOUS
62
3
100
AcDbLine
10
32258.459999999999
20
46527.459999999999
30
0.0
11
31974.360000000001
21
46679.830000000002
31
0.0
0
LINE
5
7f1
100
AcDbEntity
8
1-0
6
CONTINUOUS
62
3
100
AcDbLine
10
-672.000000000000
20
85921.490000000005
30
0.0
11
-470.270000000000
21
85463.649999999994
31
0.0
0
LINE
5
7f2
100
AcDbEntity
8
1-0
6
CONTINUOUS
62
3
100
AcDbLine
10
-470.270000000000
20
85463.649999999994
30
0.0
11
-268.310000000000
21
85005.929999999993
31
0.0
0
LINE
5
7f3
100
AcDbEntity
8
1-0
6
CONTINUOUS
62
3
100
AcDbLine
10
-268.310000000000
20
85005.929999999993
30
0.0
11
-65.800000000000
21
84548.479999999996
31
0.0
0
LINE
5
7f4
100
AcDbEntity
8
1-0
6
CONTINUOUS
62
3
100
AcDbLine
10
-65.800000000000
20
84548.479999999996
30
0.0
11
137.490000000000
21
84091.399999999994
31
0.0
0
LINE
5
7f5
100
AcDbEntity
8
1-0
6
CONTINUOUS
62
3
100
AcDbLine
10
137.490000000000
20
84091.399999999994
30
0.0
11
341.840000000000
21
83634.830000000002
31
0.0
0
LINE
5
7f6
100
AcDbEntity
8
1-0
6
CONTINUOUS
62
3
100
AcDbLine
10
341.840000000000
20
83634.830000000002
30
0.0
11
547.490000000000
21
83178.929999999993
31
0.0
0
LINE
5
7f7
100
AcDbEntity
8
1-0
6
CONTINUOUS
62
3
100
AcDbLine
10
547.490000000000
20
83178.929999999993
30
0.0
11
754.730000000000
21
82723.779999999999
31
0.0
0
LINE
5
7f8
100
AcDbEntity
8
1-0
6
CONTINUOUS
62
3
100
AcDbLine
10
754.730000000000
20
82723.779999999999
30
0.0
11
963.820000000000
21
82269.539999999994
31
0.0
0
LINE
5
7f9
100
AcDbEntity
8
1-0
6
CONTINUOUS
62
3
100
AcDbLine
10
963.820000000000
20
82269.539999999994
30
0.0
11
1175.000000000000
21
81816.339999999997
31
0.0
0
LINE
5
7fa
100
AcDbEntity
8
1-0
6
CONTINUOUS
62
3
100
AcDbLine
10
1175.000000000000
20
81816.339999999997
30
0.0
11
1388.550000000000
21
81364.279999999999
31
0.0
0
LINE
5
7fb
100
AcDbEntity
8
1-0
6
CONTINUOUS
62
3
100
AcDbLine
10
1388.550000000000
20
81364.279999999999
30
0.0
11
1604.730000000000
21
80913.520000000004
31
0.0
0
LINE
5
7fc
100
AcDbEntity
8
1-0
6
CONTINUOUS
62
3
100
AcDbLine
10
1604.730000000000
20
80913.520000000004
30
0.0
11
1823.820000000000
21
80464.190000000002
31
0.0
0
LINE
5
7fd
100
AcDbEntity
8
1-0
6
CONTINUOUS
62
3
100
AcDbLine
10
1823.820000000000
20
80464.190000000002
30
0.0
11
2046.060000000000
21
80016.380000000005
31
0.0
0
LINE
5
7fe
100
AcDbEntity
8
1-0
6
CONTINUOUS
62
3
100
AcDbLine
10
2046.060000000000
20
80016.380000000005
30
0.0
11
2271.710000000000
21
79570.270000000004
31
0.0
0
LINE
5
7ff
100
AcDbEntity
8
1-0
6
CONTINUOUS
62
3
100
AcDbLine
10
2271.710000000000
20
79570.270000000004
30
0.0
11
2501.050000000000
21
79125.940000000002
31
0.0
0
LINE
5
800
100
AcDbEntity
8
1-0
6
CONTINUOUS
62
3
100
AcDbLine
10
2501.050000000000
20
79125.940000000002
30
0.0
11
2734.240000000000
21
78683.520000000004
31
0.0
0
LINE
5
801
100
AcDbEntity
8
1-0
6
CONTINUOUS
62
3
100
AcDbLine
10
2734.240000000000
20
78683.520000000004
30
0.0
11
2971.260000000000
21
78243.070000000007
31
0.0
0
LINE
5
802
100
AcDbEntity
8
1-0
6
CONTINUOUS
62
3
100
AcDbLine
10
2971.260000000000
20
78243.070000000007
30
0.0
11
3212.150000000000
21
77804.619999999995
31
0.0
0
LINE
5
803
100
AcDbEntity
8
1-0
6
CONTINUOUS
62
3
100
AcDbLine
10
3212.150000000000
20
77804.619999999995
30
0.0
11
3456.880000000000
21
77368.250000000000
31
0.0
0
LINE
5
804
100
AcDbEntity
8
1-0
6
CONTINUOUS
62
3
100
AcDbLine
10
3456.880000000000
20
77368.250000000000
30
0.0
11
3705.430000000000
21
76933.949999999997
31
0.0
0
LINE
5
805
100
AcDbEntity
8
1-0
6
CONTINUOUS
62
3
100
AcDbLine
10
3705.430000000000
20
76933.949999999997
30
0.0
11
3957.830000000000
21
76501.860000000001
31
0.0
0
LINE
5
806
100
AcDbEntity
8
1-0
6
CONTINUOUS
62
3
100
AcDbLine
10
3957.830000000000
20
76501.860000000001
30
0.0
11
4214.050000000000
21
76071.949999999997
31
0.0
0
LINE
5
807
100
AcDbEntity
8
1-0
6
CONTINUOUS
62
3
100
AcDbLine
10
4214.050000000000
20
76071.949999999997
30
0.0
11
4474.110000000000
21
75644.339999999997
31
0.0
0
LINE
5
808
100
AcDbEntity
8
1-0
6
CONTINUOUS
62
3
100
AcDbLine
10
4474.110000000000
20
75644.339999999997
30
0.0
11
4738.000000000000
21
75219.050000000003
31
0.0
0
LINE
5
809
100
AcDbEntity
8
1-0
6
CONTINUOUS
62
3
100
AcDbLine
10
4738.000000000000
20
75219.050000000003
30
0.0
11
5005.710000000000
21
74796.110000000001
31
0.0
0
LINE
5
80a
100
AcDbEntity
8
1-0
6
CONTINUOUS
62
3
100
AcDbLine
10
5005.710000000000
20
74796.110000000001
30
0.0
11
5277.230000000000
21
74375.600000000006
31
0.0
0
LINE
5
80b
100
AcDbEntity
8
1-0
6
CONTINUOUS
62
3
100
AcDbLine
10
5277.230000000000
20
74375.600000000006
30
0.0
11
5552.570000000000
21
73957.600000000006
31
0.0
0
LINE
5
80c
100
AcDbEntity
8
1-0
6
CONTINUOUS
62
3
100
AcDbLine
10
5552.570000000000
20
73957.600000000006
30
0.0
11
5831.720000000000
21
73542.110000000001
31
0.0
0
LINE
5
80d
100
AcDbEntity
8
1-0
6
CONTINUOUS
62
3
100
AcDbLine
10
5831.720000000000
20
73542.110000000001
30
0.0
11
6114.680000000000
21
73129.179999999993
31
0.0
0
LINE
5
80e
100
AcDbEntity
8
1-0
6
CONTINUOUS
62
3
100
AcDbLine
10
6114.680000000000
20
73129.179999999993
30
0.0
11
6401.450000000000
21
72718.899999999994
31
0.0
0
LINE
5
80f
100
AcDbEntity
8
1-0
6
CONTINUOUS
62
3
100
AcDbLine
10
6401.450000000000
20
72718.899999999994
30
0.0
11
6692.020000000000
21
72311.300000000003
31
0.0
0
LINE
5
810
100
AcDbEntity
8
1-0
6
CONTINUOUS
62
3
100
AcDbLine
10
6692.020000000000
20
72311.300000000003
30
0.0
11
6986.060000000000
21
71906.210000000006
31
0.0
0
LINE
5
811
100
AcDbEntity
8
1-0
6
CONTINUOUS
62
3
100
AcDbLine
10
6986.060000000000
20
71906.210000000006
30
0.0
11
7282.690000000000
21
71503.009999999995
31
0.0
0
LINE
5
812
100
AcDbEntity
8
1-0
6
CONTINUOUS
62
3
100
AcDbLine
10
7282.690000000000
20
71503.009999999995
30
0.0
11
7580.960000000000
21
71101.070000000007
31
0.0
0
LINE
5
813
100
AcDbEntity
8
1-0
6
CONTINUOUS
62
3
100
AcDbLine
10
7580.960000000000
20
71101.070000000007
30
0.0
11
7879.920000000000
21
70699.699999999997
31
0.0
0
LINE
5
814
100
AcDbEntity
8
1-0
6
CONTINUOUS
62
3
100
AcDbLine
10
7879.920000000000
20
70699.699999999997
30
0.0
11
8178.630000000000
21
70298.330000000002
31
0.0
0
LINE
5
815
100
AcDbEntity
8
1-0
6
CONTINUOUS
62
3
100
AcDbLine
10
8178.630000000000
20
70298.330000000002
30
0.0
11
8476.129999999999
21
69896.259999999995
31
0.0
0
LINE
5
816
100
AcDbEntity
8
1-0
6
CONTINUOUS
62
3
100
AcDbLine
10
8476.129999999999
20
69896.259999999995
30
0.0
11
8771.490000000000
21
69492.850000000006
31
0.0
0
LINE
5
817
100
AcDbEntity
8
1-0
6
CONTINUOUS
62
3
100
AcDbLine
10
8771.490000000000
20
69492.850000000006
30
0.0
11
9063.740000000000
21
69087.460000000006
31
0.0
0
LINE
5
818
100
AcDbEntity
8
1-0
6
CONTINUOUS
62
3
100
AcDbLine
10
9063.740000000000
20
69087.460000000006
30
0.0
11
9351.950000000001
21
68679.429999999993
31
0.0
0
LINE
5
819
100
AcDbEntity
8
1-0
6
CONTINUOUS
62
3
100
AcDbLine
10
9351.950000000001
20
68679.429999999993
30
0.0
11
9635.180000000000
21
68268.149999999994
31
0.0
0
LINE
5
81a
100
AcDbEntity
8
1-0
6
CONTINUOUS
62
3
100
AcDbLine
10
9635.180000000000
20
68268.149999999994
30
0.0
11
9912.459999999999
21
67852.929999999993
31
0.0
0
LINE
5
81b
100
AcDbEntity
8
1-0
6
CONTINUOUS
62
3
100
AcDbLine
10
9912.459999999999
20
67852.929999999993
30
0.0
11
10183.170000000000
21
67433.380000000005
31
0.0
0
LINE
5
81c
100
AcDbEntity
8
1-0
6
CONTINUOUS
62
3
100
AcDbLine
10
10183.170000000000
20
67433.380000000005
30
0.0
11
10447.950000000001
21
67009.880000000005
31
0.0
0
LINE
5
81d
100
AcDbEntity
8
1-0
6
CONTINUOUS
62
3
100
AcDbLine
10
10447.950000000001
20
67009.880000000005
30
0.0
11
10707.740000000000
21
66583.089999999997
31
0.0
0
LINE
5
81e
100
AcDbEntity
8
1-0
6
CONTINUOUS
62
3
100
AcDbLine
10
10707.740000000000
20
66583.089999999997
30
0.0
11
10963.520000000000
21
66153.589999999997
31
0.0
0
LINE
5
81f
100
AcDbEntity
8
1-0
6
CONTINUOUS
62
3
100
AcDbLine
10
10963.520000000000
20
66153.589999999997
30
0.0
11
11216.209999999999
21
65722.009999999995
31
0.0
0
LINE
5
820
100
AcDbEntity
8
1-0
6
CONTINUOUS
62
3
100
AcDbLine
10
11216.209999999999
20
65722.009999999995
30
0.0
11
11466.790000000001
21
65289.029999999999
31
0.0
0
LINE
5
821
100
AcDbEntity
8
1-0
6
CONTINUOUS
62
3
100
AcDbLine
10
11466.790000000001
20
65289.029999999999
30
0.0
11
11716.219999999999
21
64855.220000000001
31
0.0
0
LINE
5
822
100
AcDbEntity
8
1-0
6
CONTINUOUS
62
3
100
AcDbLine
10
11716.219999999999
20
64855.220000000001
30
0.0
11
11965.420000000000
21
64421.230000000003
31
0.0
0
LINE
5
823
100
AcDbEntity
8
1-0
6
CONTINUOUS
62
3
100
AcDbLine
10
11965.420000000000
20
64421.230000000003
30
0.0
11
12215.360000000001
21
63987.660000000003
31
0.0
0
LINE
5
824
100
AcDbEntity
8
1-0
6
CONTINUOUS
62
3
100
AcDbLine
10
12215.360000000001
20
63987.660000000003
30
0.0
11
12467.000000000000
21
63555.169999999998
31
0.0
0
LINE
5
825
100
AcDbEntity
8
1-0
6
CONTINUOUS
62
3
100
AcDbLine
10
12467.000000000000
20
63555.169999999998
30
0.0
11
12721.290000000001
21
63124.349999999999
31
0.0
0
LINE
5
826
100
AcDbEntity
8
1-0
6
CONTINUOUS
62
3
100
AcDbLine
10
12721.290000000001
20
63124.349999999999
30
0.0
11
12979.190000000001
21
62695.889999999999
31
0.0
0
LINE
5
827
100
AcDbEntity
8
1-0
6
CONTINUOUS
62
3
100
AcDbLine
10
12979.190000000001
20
62695.889999999999
30
0.0
11
13241.600000000000
21
62270.320000000000
31
0.0
0
LINE
5
828
100
AcDbEntity
8
1-0
6
CONTINUOUS
62
3
100
AcDbLine
10
13241.600000000000
20
62270.320000000000
30
0.0
11
13508.719999999999
21
61847.769999999997
31
0.0
0
LINE
5
829
100
AcDbEntity
8
1-0
6
CONTINUOUS
62
3
100
AcDbLine
10
13508.719999999999
20
61847.769999999997
30
0.0
11
13780.200000000001
21
61428.059999999998
31
0.0
0
LINE
5
82a
100
AcDbEntity
8
1-0
6
CONTINUOUS
62
3
100
AcDbLine
10
13780.200000000001
20
61428.059999999998
30
0.0
11
14055.639999999999
21
61010.919999999998
31
0.0
0
LINE
5
82b
100
AcDbEntity
8
1-0
6
CONTINUOUS
62
3
100
AcDbLine
10
14055.639999999999
20
61010.919999999998
30
0.0
11
14334.680000000000
21
60596.089999999997
31
0.0
0
LINE
5
82c
100
AcDbEntity
8
1-0
6
CONTINUOUS
62
3
100
AcDbLine
10
14334.680000000000
20
60596.089999999997
30
0.0
11
14616.930000000000
21
60183.370000000003
31
0.0
0
LINE
5
82d
100
AcDbEntity
8
1-0
6
CONTINUOUS
62
3
100
AcDbLine
10
14616.930000000000
20
60183.370000000003
30
0.0
11
14902.010000000000
21
59772.449999999997
31
0.0
0
LINE
5
82e
100
AcDbEntity
8
1-0
6
CONTINUOUS
62
3
100
AcDbLine
10
14902.010000000000
20
59772.449999999997
30
0.0
11
15189.549999999999
21
59363.150000000001
31
0.0
0
LINE
5
82f
100
AcDbEntity
8
1-0
6
CONTINUOUS
62
3
100
AcDbLine
10
15189.549999999999
20
59363.150000000001
30
0.0
11
15479.160000000000
21
58955.190000000002
31
0.0
0
LINE
5
830
100
AcDbEntity
8
1-0
6
CONTINUOUS
62
3
100
AcDbLine
10
15479.160000000000
20
58955.190000000002
30
0.0
11
15770.469999999999
21
58548.330000000002
31
0.0
0
LINE
5
831
100
AcDbEntity
8
1-0
6
CONTINUOUS
62
3
100
AcDbLine
10
15770.469999999999
20
58548.330000000002
30
0.0
11
16063.080000000000
21
58142.360000000001
31
0.0
0
LINE
5
832
100
AcDbEntity
8
1-0
6
CONTINUOUS
62
3
100
AcDbLine
10
16063.080000000000
20
58142.360000000001
30
0.0
11
16356.629999999999
21
57736.959999999999
31
0.0
0
LINE
5
833
100
AcDbEntity
8
1-0
6
CONTINUOUS
62
3
100
AcDbLine
10
16356.629999999999
20
57736.959999999999
30
0.0
11
16650.730000000000
21
57331.959999999999
31
0.0
0
LINE
5
834
100
AcDbEntity
8
1-0
6
CONTINUOUS
62
3
100
AcDbLine
10
16650.730000000000
20
57331.959999999999
30
0.0
11
16945.009999999998
21
56927.089999999997
31
0.0
0
LINE
5
835
100
AcDbEntity
8
1-0
6
CONTINUOUS
62
3
100
AcDbLine
10
16945.009999999998
20
56927.089999999997
30
0.0
11
17239.090000000000
21
56522.089999999997
31
0.0
0
LINE
5
836
100
AcDbEntity
8
1-0
6
CONTINUOUS
62
3
100
AcDbLine
10
17239.090000000000
20
56522.089999999997
30
0.0
11
17532.580000000002
21
56116.720000000001
31
0.0
0
LINE
5
837
100
AcDbEntity
8
1-0
6
CONTINUOUS
62
3
100
AcDbLine
10
17532.580000000002
20
56116.720000000001
30
0.0
11
17825.090000000000
21
55710.779999999999
31
0.0
0
LINE
5
838
100
AcDbEntity
8
1-0
6
CONTINUOUS
62
3
100
AcDbLine
10
17825.090000000000
20
55710.779999999999
30
0.0
11
18116.279999999999
21
55303.949999999997
31
0.0
0
LINE
5
839
100
AcDbEntity
8
1-0
6
CONTINUOUS
62
3
100
AcDbLine
10
18116.279999999999
20
55303.949999999997
30
0.0
11
18405.730000000000
21
54896.050000000003
31
0.0
0
LINE
5
83a
100
AcDbEntity
8
1-0
6
CONTINUOUS
62
3
100
AcDbLine
10
18405.730000000000
20
54896.050000000003
30
0.0
11
18693.080000000002
21
54486.809999999998
31
0.0
0
LINE
5
83b
100
AcDbEntity
8
1-0
6
CONTINUOUS
62
3
100
AcDbLine
10
18693.080000000002
20
54486.809999999998
30
0.0
11
18977.939999999999
21
54075.980000000003
31
0.0
0
LINE
5
83c
100
AcDbEntity
8
1-0
6
CONTINUOUS
62
3
100
AcDbLine
10
18977.939999999999
20
54075.980000000003
30
0.0
11
19259.950000000001
21
53663.320000000000
31
0.0
0
LINE
5
83d
100
AcDbEntity
8
1-0
6
CONTINUOUS
62
3
100
AcDbLine
10
19259.950000000001
20
53663.320000000000
30
0.0
11
19538.700000000001
21
53248.620000000003
31
0.0
0
LINE
5
83e
100
AcDbEntity
8
1-0
6
CONTINUOUS
62
3
100
AcDbLine
10
19538.700000000001
20
53248.620000000003
30
0.0
11
19813.840000000000
21
52831.570000000000
31
0.0
0
LINE
5
83f
100
AcDbEntity
8
1-0
6
CONTINUOUS
62
3
100
AcDbLine
10
19813.840000000000
20
52831.570000000000
30
0.0
11
20084.970000000001
21
52411.980000000003
31
0.0
0
LINE
5
840
100
AcDbEntity
8
1-0
6
CONTINUOUS
62
3
100
AcDbLine
10
20084.970000000001
20
52411.980000000003
30
0.0
11
20351.740000000002
21
51989.620000000003
31
0.0
0
LINE
5
841
100
AcDbEntity
8
1-0
6
CONTINUOUS
62
3
100
AcDbLine
10
20351.740000000002
20
51989.620000000003
30
0.0
11
20614.150000000001
21
51564.449999999997
31
0.0
0
LINE
5
842
100
AcDbEntity
8
1-0
6
CONTINUOUS
62
3
100
AcDbLine
10
20614.150000000001
20
51564.449999999997
30
0.0
11
20872.480000000000
21
51136.680000000000
31
0.0
0
LINE
5
843
100
AcDbEntity
8
1-0
6
CONTINUOUS
62
3
100
AcDbLine
10
20872.480000000000
20
51136.680000000000
30
0.0
11
21127.049999999999
21
50706.570000000000
31
0.0
0
LINE
5
844
100
AcDbEntity
8
1-0
6
CONTINUOUS
62
3
100
AcDbLine
10
21127.049999999999
20
50706.570000000000
30
0.0
11
21378.139999999999
21
50274.250000000000
31
0.0
0
LINE
5
845
100
AcDbEntity
8
1-0
6
CONTINUOUS
62
3
100
AcDbLine
10
21378.139999999999
20
50274.250000000000
30
0.0
11
21626.070000000000
21
49839.989999999998
31
0.0
0
LINE
5
846
100
AcDbEntity
8
1-0
6
CONTINUOUS
62
3
100
AcDbLine
10
21626.070000000000
20
49839.989999999998
30
0.0
11
21871.139999999999
21
49403.980000000003
31
0.0
0
LINE
5
847
100
AcDbEntity
8
1-0
6
CONTINUOUS
62
3
100
AcDbLine
10
21871.139999999999
20
49403.980000000003
30
0.0
11
22113.630000000001
21
48966.419999999998
31
0.0
0
LINE
5
848
100
AcDbEntity
8
1-0
6
CONTINUOUS
62
3
100
AcDbLine
10
22113.630000000001
20
48966.419999999998
30
0.0
11
22353.860000000001
21
48527.489999999998
31
0.0
0
LINE
5
849
100
AcDbEntity
8
1-0
6
CONTINUOUS
62
3
100
AcDbLine
10
22353.860000000001
20
48527.489999999998
30
0.0
11
22592.139999999999
21
48087.430000000000
31
0.0
0
LINE
5
84a
100
AcDbEntity
8
1-0
6
CONTINUOUS
62
3
100
AcDbLine
10
22592.139999999999
20
48087.430000000000
30
0.0
11
22828.740000000002
21
47646.449999999997
31
0.0
0
LINE
5
84b
100
AcDbEntity
8
1-0
6
CONTINUOUS
62
3
100
AcDbLine
10
22828.740000000002
20
47646.449999999997
30
0.0
11
23063.990000000002
21
47204.699999999997
31
0.0
0
LINE
5
84c
100
AcDbEntity
8
1-0
6
CONTINUOUS
62
3
100
AcDbLine
10
23063.990000000002
20
47204.699999999997
30
0.0
11
23298.189999999999
21
46762.480000000003
31
0.0
0
LINE
5
84d
100
AcDbEntity
8
1-0
6
CONTINUOUS
62
3
100
AcDbLine
10
23298.189999999999
20
46762.480000000003
30
0.0
11
23531.610000000001
21
46319.910000000003
31
0.0
0
LINE
5
84e
100
AcDbEntity
8
1-0
6
CONTINUOUS
62
3
100
AcDbLine
10
23531.610000000001
20
46319.910000000003
30
0.0
11
23764.590000000000
21
45877.220000000001
31
0.0
0
LINE
5
84f
100
AcDbEntity
8
1-0
6
CONTINUOUS
62
3
100
AcDbLine
10
23764.590000000000
20
45877.220000000001
30
0.0
11
23997.250000000000
21
45434.500000000000
31
0.0
0
LINE
5
850
100
AcDbEntity
8
1-0
6
CONTINUOUS
62
3
100
AcDbLine
10
23997.250000000000
20
45434.500000000000
30
0.0
11
24229.680000000000
21
44991.790000000001
31
0.0
0
LINE
5
851
100
AcDbEntity
8
1-0
6
CONTINUOUS
62
3
100
AcDbLine
10
24229.680000000000
20
44991.790000000001
30
0.0
11
24461.930000000000
21
44549.059999999998
31
0.0
0
LINE
5
852
100
AcDbEntity
8
1-0
6
CONTINUOUS
62
3
100
AcDbLine
10
24461.930000000000
20
44549.059999999998
30
0.0
11
24481.939999999999
21
44510.889999999999
31
0.0
0
LINE
5
853
100
AcDbEntity
8
1-0
6
CONTINUOUS
62
3
100
AcDbLine
10
68223.139999999999
20
34847.500000000000
30
0.0
11
68445.529999999999
21
35296.529999999999
31
0.0
0
LINE
5
854
100
AcDbEntity
8
1-0
6
CONTINUOUS
62
3
100
AcDbLine
10
68445.529999999999
20
35296.529999999999
30
0.0
11
68667.589999999997
21
35745.709999999999
31
0.0
0
LINE
5
855
100
AcDbEntity
8
1-0
6
CONTINUOUS
62
3
100
AcDbLine
10
68667.589999999997
20
35745.709999999999
30
0.0
11
68888.919999999998
21
36195.180000000000
31
0.0
0
LINE
5
856
100
AcDbEntity
8
1-0
6
CONTINUOUS
62
3
100
AcDbLine
10
68888.919999999998
20
36195.180000000000
30
0.0
11
69109.199999999997
21
36645.040000000001
31
0.0
0
LINE
5
857
100
AcDbEntity
8
1-0
6
CONTINUOUS
62
3
100
AcDbLine
10
69109.199999999997
20
36645.040000000001
30
0.0
11
69328.059999999998
21
37095.449999999997
31
0.0
0
LINE
5
858
100
AcDbEntity
8
1-0
6
CONTINUOUS
62
3
100
AcDbLine
10
69328.059999999998
20
37095.449999999997
30
0.0
11
69545.130000000005
21
37546.529999999999
31
0.0
0
LINE
5
859
100
AcDbEntity
8
1-0
6
CONTINUOUS
62
3
100
AcDbLine
10
69545.130000000005
20
37546.529999999999
30
0.0
11
69760.080000000002
21
37998.440000000002
31
0.0
0
LINE
5
85a
100
AcDbEntity
8
1-0
6
CONTINUOUS
62
3
100
AcDbLine
10
69760.080000000002
20
37998.440000000002
30
0.0
11
69972.539999999994
21
38451.290000000001
31
0.0
0
LINE
5
85b
100
AcDbEntity
8
1-0
6
CONTINUOUS
62
3
100
AcDbLine
10
69972.539999999994
20
38451.290000000001
30
0.0
11
70182.169999999998
21
38905.269999999997
31
0.0
0
LINE
5
85c
100
AcDbEntity
8
1-0
6
CONTINUOUS
62
3
100
AcDbLine
10
70182.169999999998
20
38905.269999999997
30
0.0
11
70388.600000000006
21
39360.440000000002
31
0.0
0
LINE
5
85d
100
AcDbEntity
8
1-0
6
CONTINUOUS
62
3
100
AcDbLine
10
70388.600000000006
20
39360.440000000002
30
0.0
11
70591.479999999996
21
39816.980000000003
31
0.0
0
LINE
5
85e
100
AcDbEntity
8
1-0
6
CONTINUOUS
62
3
100
AcDbLine
10
70591.479999999996
20
39816.980000000003
30
0.0
11
70790.460000000006
21
40275.050000000003
31
0.0
0
LINE
5
85f
100
AcDbEntity
8
1-0
6
CONTINUOUS
62
3
100
AcDbLine
10
70790.460000000006
20
40275.050000000003
30
0.0
11
70985.160000000003
21
40734.730000000003
31
0.0
0
LINE
5
860
100
AcDbEntity
8
1-0
6
CONTINUOUS
62
3
100
AcDbLine
10
70985.160000000003
20
40734.730000000003
30
0.0
11
71175.270000000004
21
41196.190000000002
31
0.0
0
LINE
5
861
100
AcDbEntity
8
1-0
6
CONTINUOUS
62
3
100
AcDbLine
10
71175.270000000004
20
41196.190000000002
30
0.0
11
71360.389999999999
21
41659.570000000000
31
0.0
0
LINE
5
862
100
AcDbEntity
8
1-0
6
CONTINUOUS
62
3
100
AcDbLine
10
71360.389999999999
20
41659.570000000000
30
0.0
11
71540.350000000006
21
42124.930000000000
31
0.0
0
LINE
5
863
100
AcDbEntity
8
1-0
6
CONTINUOUS
62
3
100
AcDbLine
10
71540.350000000006
20
42124.930000000000
30
0.0
11
71715.330000000002
21
42592.220000000001
31
0.0
0
LINE
5
864
100
AcDbEntity
8
1-0
6
CONTINUOUS
62
3
100
AcDbLine
10
71715.330000000002
20
42592.220000000001
30
0.0
11
71885.610000000001
21
43061.300000000003
31
0.0
0
LINE
5
865
100
AcDbEntity
8
1-0
6
CONTINUOUS
62
3
100
AcDbLine
10
71885.610000000001
20
43061.300000000003
30
0.0
11
72051.490000000005
21
43532.070000000000
31
0.0
0
LINE
5
866
100
AcDbEntity
8
1-0
6
CONTINUOUS
62
3
100
AcDbLine
10
72051.490000000005
20
43532.070000000000
30
0.0
11
72213.220000000001
21
44004.419999999998
31
0.0
0
LINE
5
867
100
AcDbEntity
8
1-0
6
CONTINUOUS
62
3
100
AcDbLine
10
72213.220000000001
20
44004.419999999998
30
0.0
11
72371.119999999995
21
44478.260000000002
31
0.0
0
LINE
5
868
100
AcDbEntity
8
1-0
6
CONTINUOUS
62
3
100
AcDbLine
10
72371.119999999995
20
44478.260000000002
30
0.0
11
72525.429999999993
21
44953.449999999997
31
0.0
0
LINE
5
869
100
AcDbEntity
8
1-0
6
CONTINUOUS
62
3
100
AcDbLine
10
72525.429999999993
20
44953.449999999997
30
0.0
11
72676.449999999997
21
45429.889999999999
31
0.0
0
LINE
5
86a
100
AcDbEntity
8
1-0
6
CONTINUOUS
62
3
100
AcDbLine
10
72676.449999999997
20
45429.889999999999
30
0.0
11
72824.460000000006
21
45907.489999999998
31
0.0
0
LINE
5
86b
100
AcDbEntity
8
1-0
6
CONTINUOUS
62
3
100
AcDbLine
10
72824.460000000006
20
45907.489999999998
30
0.0
11
72969.720000000001
21
46386.160000000003
31
0.0
0
LINE
5
86c
100
AcDbEntity
8
1-0
6
CONTINUOUS
62
3
100
AcDbLine
10
72969.720000000001
20
46386.160000000003
30
0.0
11
73112.539999999994
21
46865.720000000001
31
0.0
0
LINE
5
86d
100
AcDbEntity
8
1-0
6
CONTINUOUS
62
3
100
AcDbLine
10
73112.539999999994
20
46865.720000000001
30
0.0
11
73253.179999999993
21
47346.080000000002
31
0.0
0
LINE
5
86e
100
AcDbEntity
8
1-0
6
CONTINUOUS
62
3
100
AcDbLine
10
73253.179999999993
20
47346.080000000002
30
0.0
11
73391.910000000003
21
47827.199999999997
31
0.0
0
LINE
5
86f
100
AcDbEntity
8
1-0
6
CONTINUOUS
62
3
100
AcDbLine
10
73391.910000000003
20
47827.199999999997
30
0.0
11
73529.039999999994
21
48308.919999999998
31
0.0
0
LINE
5
870
100
AcDbEntity
8
1-0
6
CONTINUOUS
62
3
100
AcDbLine
10
73529.039999999994
20
48308.919999999998
30
0.0
11
73664.830000000002
21
48791.089999999997
31
0.0
0
LINE
5
871
100
AcDbEntity
8
1-0
6
CONTINUOUS
62
3
100
AcDbLine
10
73664.830000000002
20
48791.089999999997
30
0.0
11
73799.559999999998
21
49273.699999999997
31
0.0
0
LINE
5
872
100
AcDbEntity
8
1-0
6
CONTINUOUS
62
3
100
AcDbLine
10
73799.559999999998
20
49273.699999999997
30
0.0
11
73933.520000000004
21
49756.550000000003
31
0.0
0
LINE
5
873
100
AcDbEntity
8
1-0
6
CONTINUOUS
62
3
100
AcDbLine
10
73933.520000000004
20
49756.550000000003
30
0.0
11
74066.979999999996
21
50239.570000000000
31
0.0
0
LINE
5
874
100
AcDbEntity
8
1-0
6
CONTINUOUS
62
3
100
AcDbLine
10
74066.979999999996
20
50239.570000000000
30
0.0
11
74200.220000000001
21
50722.669999999998
31
0.0
0
LINE
5
875
100
AcDbEntity
8
1-0
6
CONTINUOUS
62
3
100
AcDbLine
10
74200.220000000001
20
50722.669999999998
30
0.0
11
74333.520000000004
21
51205.720000000001
31
0.0
0
LINE
5
876
100
AcDbEntity
8
1-0
6
CONTINUOUS
62
3
100
AcDbLine
10
74333.520000000004
20
51205.720000000001
30
0.0
11
74467.149999999994
21
51688.589999999997
31
0.0
0
LINE
5
877
100
AcDbEntity
8
1-0
6
CONTINUOUS
62
3
100
AcDbLine
10
74467.149999999994
20
51688.589999999997
30
0.0
11
74601.419999999998
21
52171.180000000000
31
0.0
0
LINE
5
878
100
AcDbEntity
8
1-0
6
CONTINUOUS
62
3
100
AcDbLine
10
74601.419999999998
20
52171.180000000000
30
0.0
11
74736.570000000007
21
52653.440000000002
31
0.0
0
LINE
5
879
100
AcDbEntity
8
1-0
6
CONTINUOUS
62
3
100
AcDbLine
10
74736.570000000007
20
52653.440000000002
30
0.0
11
74872.690000000002
21
53135.250000000000
31
0.0
0
LINE
5
87a
100
AcDbEntity
8
1-0
6
CONTINUOUS
62
3
100
AcDbLine
10
74872.690000000002
20
53135.250000000000
30
0.0
11
75009.610000000001
21
53616.699999999997
31
0.0
0
LINE
5
87b
100
AcDbEntity
8
1-0
6
CONTINUOUS
62
3
100
AcDbLine
10
75009.610000000001
20
53616.699999999997
30
0.0
11
75147.130000000005
21
54097.870000000003
31
0.0
0
LINE
5
87c
100
AcDbEntity
8
1-0
6
CONTINUOUS
62
3
100
AcDbLine
10
75147.130000000005
20
54097.870000000003
30
0.0
11
75285.119999999995
21
54578.820000000000
31
0.0
0
LINE
5
87d
100
AcDbEntity
8
1-0
6
CONTINUOUS
62
3
100
AcDbLine
10
75285.119999999995
20
54578.820000000000
30
0.0
11
75423.369999999995
21
55059.510000000002
31
0.0
0
LINE
5
87e
100
AcDbEntity
8
1-0
6
CONTINUOUS
62
3
100
AcDbLine
10
75423.369999999995
20
55059.510000000002
30
0.0
11
75561.740000000005
21
55540.150000000001
31
0.0
0
LINE
5
87f
100
AcDbEntity
8
1-0
6
CONTINUOUS
62
3
100
AcDbLine
10
75561.740000000005
20
55540.150000000001
30
0.0
11
75700.029999999999
21
56020.660000000003
31
0.0
0
LINE
5
880
100
AcDbEntity
8
1-0
6
CONTINUOUS
62
3
100
AcDbLine
10
75700.029999999999
20
56020.660000000003
30
0.0
11
75838.100000000006
21
56501.160000000003
31
0.0
0
LINE
5
881
100
AcDbEntity
8
1-0
6
CONTINUOUS
62
3
100
AcDbLine
10
75838.100000000006
20
56501.160000000003
30
0.0
11
75975.729999999996
21
56981.639999999999
31
0.0
0
LINE
5
882
100
AcDbEntity
8
1-0
6
CONTINUOUS
62
3
100
AcDbLine
10
75975.729999999996
20
56981.639999999999
30
0.0
11
76112.770000000004
21
57462.250000000000
31
0.0
0
LINE
5
883
100
AcDbEntity
8
1-0
6
CONTINUOUS
62
3
100
AcDbLine
10
76112.770000000004
20
57462.250000000000
30
0.0
11
76249.050000000003
21
57942.980000000003
31
0.0
0
LINE
5
884
100
AcDbEntity
8
1-0
6
CONTINUOUS
62
3
100
AcDbLine
10
76249.050000000003
20
57942.980000000003
30
0.0
11
76384.389999999999
21
58423.919999999998
31
0.0
0
LINE
5
885
100
AcDbEntity
8
1-0
6
CONTINUOUS
62
3
100
AcDbLine
10
76384.389999999999
20
58423.919999999998
30
0.0
11
76518.619999999995
21
58905.080000000002
31
0.0
0
LINE
5
886
100
AcDbEntity
8
1-0
6
CONTINUOUS
62
3
100
AcDbLine
10
76518.619999999995
20
58905.080000000002
30
0.0
11
76651.570000000007
21
59386.550000000003
31
0.0
0
LINE
5
887
100
AcDbEntity
8
1-0
6
CONTINUOUS
62
3
100
AcDbLine
10
76651.570000000007
20
59386.550000000003
30
0.0
11
76783.050000000003
21
59868.379999999997
31
0.0
0
LINE
5
888
100
AcDbEntity
8
1-0
6
CONTINUOUS
62
3
100
AcDbLine
10
76783.050000000003
20
59868.379999999997
30
0.0
11
76912.960000000006
21
60350.599999999999
31
0.0
0
LINE
5
889
100
AcDbEntity
8
1-0
6
CONTINUOUS
62
3
100
AcDbLine
10
76912.960000000006
20
60350.599999999999
30
0.0
11
77041.309999999998
21
60833.250000000000
31
0.0
0
LINE
5
88a
100
AcDbEntity
8
1-0
6
CONTINUOUS
62
3
100
AcDbLine
10
77041.309999999998
20
60833.250000000000
30
0.0
11
77168.160000000003
21
61316.230000000003
31
0.0
0
LINE
5
88b
100
AcDbEntity
8
1-0
6
CONTINUOUS
62
3
100
AcDbLine
10
77168.160000000003
20
61316.230000000003
30
0.0
11
77293.520000000004
21
61799.660000000003
31
0.0
0
LINE
5
88c
100
AcDbEntity
8
1-0
6
CONTINUOUS
62
3
100
AcDbLine
10
77293.520000000004
20
61799.660000000003
30
0.0
11
77417.490000000005
21
62283.480000000003
31
0.0
0
LINE
5
88d
100
AcDbEntity
8
1-0
6
CONTINUOUS
62
3
100
AcDbLine
10
77417.490000000005
20
62283.480000000003
30
0.0
11
77540.089999999997
21
62767.650000000001
31
0.0
0
LINE
5
88e
100
AcDbEntity
8
1-0
6
CONTINUOUS
62
3
100
AcDbLine
10
77540.089999999997
20
62767.650000000001
30
0.0
11
77661.369999999995
21
63252.260000000002
31
0.0
0
LINE
5
88f
100
AcDbEntity
8
1-0
6
CONTINUOUS
62
3
100
AcDbLine
10
77661.369999999995
20
63252.260000000002
30
0.0
11
77781.369999999995
21
63737.160000000003
31
0.0
0
LINE
5
890
100
AcDbEntity
8
1-0
6
CONTINUOUS
62
3
100
AcDbLine
10
77781.369999999995
20
63737.160000000003
30
0.0
11
77900.169999999998
21
64222.500000000000
31
0.0
0
LINE
5
891
100
AcDbEntity
8
1-0
6
CONTINUOUS
62
3
100
AcDbLine
10
77900.169999999998
20
64222.500000000000
30
0.0
11
78017.770000000004
21
64708.180000000000
31
0.0
0
LINE
5
892
100
AcDbEntity
8
1-0
6
CONTINUOUS
62
3
100
AcDbLine
10
78017.770000000004
20
64708.180000000000
30
0.0
11
78134.250000000000
21
65194.250000000000
31
0.0
0
LINE
5
893
100
AcDbEntity
8
1-0
6
CONTINUOUS
62
3
100
AcDbLine
10
78134.250000000000
20
65194.250000000000
30
0.0
11
78249.679999999993
21
65680.639999999999
31
0.0
0
LINE
5
894
100
AcDbEntity
8
1-0
6
CONTINUOUS
62
3
100
AcDbLine
10
78249.679999999993
20
65680.639999999999
30
0.0
11
78364.050000000003
21
66167.440000000002
31
0.0
0
LINE
5
895
100
AcDbEntity
8
1-0
6
CONTINUOUS
62
3
100
AcDbLine
10
78364.050000000003
20
66167.440000000002
30
0.0
11
78477.440000000002
21
66654.559999999998
31
0.0
0
LINE
5
896
100
AcDbEntity
8
1-0
6
CONTINUOUS
62
3
100
AcDbLine
10
78477.440000000002
20
66654.559999999998
30
0.0
11
78589.899999999994
21
67142.009999999995
31
0.0
0
LINE
5
897
100
AcDbEntity
8
1-0
6
CONTINUOUS
62
3
100
AcDbLine
10
78589.899999999994
20
67142.009999999995
30
0.0
11
78701.490000000005
21
67629.830000000002
31
0.0
0
LINE
5
898
100
AcDbEntity
8
1-0
6
CONTINUOUS
62
3
100
AcDbLine
10
78701.490000000005
20
67629.830000000002
30
0.0
11
78812.220000000001
21
68117.979999999996
31
0.0
0
LINE
5
899
100
AcDbEntity
8
1-0
6
CONTINUOUS
62
3
100
AcDbLine
10
78812.220000000001
20
68117.979999999996
30
0.0
11
78922.169999999998
21
68606.479999999996
31
0.0
0
LINE
5
89a
100
AcDbEntity
8
1-0
6
CONTINUOUS
62
3
100
AcDbLine
10
78922.169999999998
20
68606.479999999996
30
0.0
11
79031.360000000001
21
69095.300000000003
31
0.0
0
LINE
5
89b
100
AcDbEntity
8
1-0
6
CONTINUOUS
62
3
100
AcDbLine
10
79031.360000000001
20
69095.300000000003
30
0.0
11
79139.889999999999
21
69584.460000000006
31
0.0
0
LINE
5
89c
100
AcDbEntity
8
1-0
6
CONTINUOUS
62
3
100
AcDbLine
10
79139.889999999999
20
69584.460000000006
30
0.0
11
79247.740000000005
21
70073.940000000002
31
0.0
0
LINE
5
89d
100
AcDbEntity
8
1-0
6
CONTINUOUS
62
3
100
AcDbLine
10
79247.740000000005
20
70073.940000000002
30
0.0
11
79355.020000000004
21
70563.710000000006
31
0.0
0
LINE
5
89e
100
AcDbEntity
8
1-0
6
CONTINUOUS
62
3
100
AcDbLine
10
79355.020000000004
20
70563.710000000006
30
0.0
11
79461.570000000007
21
71053.839999999997
31
0.0
0
LINE
5
89f
100
AcDbEntity
8
1-0
6
CONTINUOUS
62
3
100
AcDbLine
10
79461.570000000007
20
71053.839999999997
30
0.0
11
79566.800000000003
21
71544.309999999998
31
0.0
0
LINE
5
8a0
100
AcDbEntity
8
1-0
6
CONTINUOUS
62
3
100
AcDbLine
10
79566.800000000003
20
71544.309999999998
30
0.0
11
79669.990000000005
21
72035.179999999993
31
0.0
0
LINE
5
8a1
100
AcDbEntity
8
1-0
6
CONTINUOUS
62
3
100
AcDbLine
10
79669.990000000005
20
72035.179999999993
30
0.0
11
79770.479999999996
21
72526.460000000006
31
0.0
0
LINE
5
8a2
100
AcDbEntity
8
1-0
6
CONTINUOUS
62
3
100
AcDbLine
10
79770.479999999996
20
72526.460000000006
30
0.0
11
79867.559999999998
21
73018.179999999993
31
0.0
0
LINE
5
8a3
100
AcDbEntity
8
1-0
6
CONTINUOUS
62
3
100
AcDbLine
10
79867.559999999998
20
73018.179999999993
30
0.0
11
79960.559999999998
21
73510.360000000001
31
0.0
0
LINE
5
8a4
100
AcDbEntity
8
1-0
6
CONTINUOUS
62
3
100
AcDbLine
10
79960.559999999998
20
73510.360000000001
30
0.0
11
80048.759999999995
21
74003.070000000007
31
0.0
0
LINE
5
8a5
100
AcDbEntity
8
1-0
6
CONTINUOUS
62
3
100
AcDbLine
10
80048.759999999995
20
74003.070000000007
30
0.0
11
80131.500000000000
21
74496.320000000007
31
0.0
0
LINE
5
8a6
100
AcDbEntity
8
1-0
6
CONTINUOUS
62
3
100
AcDbLine
10
80131.500000000000
20
74496.320000000007
30
0.0
11
80208.059999999998
21
74990.169999999998
31
0.0
0
LINE
5
8a7
100
AcDbEntity
8
1-0
6
CONTINUOUS
62
3
100
AcDbLine
10
80208.059999999998
20
74990.169999999998
30
0.0
11
80277.770000000004
21
75484.589999999997
31
0.0
0
LINE
5
8a8
100
AcDbEntity
8
1-0
6
CONTINUOUS
62
3
100
AcDbLine
10
80277.770000000004
20
75484.589999999997
30
0.0
11
80339.910000000003
21
75979.699999999997
31
0.0
0
LINE
5
8a9
100
AcDbEntity
8
1-0
6
CONTINUOUS
62
3
100
AcDbLine
10
80339.910000000003
20
75979.699999999997
30
0.0
11
80393.820000000007
21
76475.460000000006
31
0.0
0
LINE
5
8aa
100
AcDbEntity
8
1-0
6
CONTINUOUS
62
3
100
AcDbLine
10
80393.820000000007
20
76475.460000000006
30
0.0
11
80438.789999999994
21
76971.869999999995
31
0.0
0
LINE
5
8ab
100
AcDbEntity
8
1-0
6
CONTINUOUS
62
3
100
AcDbLine
10
80438.789999999994
20
76971.869999999995
30
0.0
11
80474.479999999996
21
77469.029999999999
31
0.0
0
LINE
5
8ac
100
AcDbEntity
8
1-0
6
CONTINUOUS
62
3
100
AcDbLine
10
80474.479999999996
20
77469.029999999999
30
0.0
11
80501.229999999996
21
77966.889999999999
31
0.0
0
LINE
5
8ad
100
AcDbEntity
8
1-0
6
CONTINUOUS
62
3
100
AcDbLine
10
80501.229999999996
20
77966.889999999999
30
0.0
11
80519.470000000001
21
78465.270000000004
31
0.0
0
LINE
5
8ae
100
AcDbEntity
8
1-0
6
CONTINUOUS
62
3
100
AcDbLine
10
80519.470000000001
20
78465.270000000004
30
0.0
11
80529.690000000002
21
78964.220000000001
31
0.0
0
LINE
5
8af
100
AcDbEntity
8
1-0
6
CONTINUOUS
62
3
100
AcDbLine
10
80529.690000000002
20
78964.220000000001
30
0.0
11
80532.279999999999
21
79463.610000000001
31
0.0
0
LINE
5
8b0
100
AcDbEntity
8
1-0
6
CONTINUOUS
62
3
100
AcDbLine
10
80532.279999999999
20
79463.610000000001
30
0.0
11
80527.729999999996
21
79963.429999999993
31
0.0
0
LINE
5
8b1
100
AcDbEntity
8
1-0
6
CONTINUOUS
62
3
100
AcDbLine
10
80527.729999999996
20
79963.429999999993
30
0.0
11
80516.449999999997
21
80463.610000000001
31
0.0
0
LINE
5
8b2
100
AcDbEntity
8
1-0
6
CONTINUOUS
62
3
100
AcDbLine
10
80516.449999999997
20
80463.610000000001
30
0.0
11
80498.910000000003
21
80964.059999999998
31
0.0
0
LINE
5
8b3
100
AcDbEntity
8
1-0
6
CONTINUOUS
62
3
100
AcDbLine
10
80498.910000000003
20
80964.059999999998
30
0.0
11
80475.539999999994
21
81464.710000000006
31
0.0
0
LINE
5
8b4
100
AcDbEntity
8
1-0
6
CONTINUOUS
62
3
100
AcDbLine
10
80475.539999999994
20
81464.710000000006
30
0.0
11
80446.789999999994
21
81965.559999999998
31
0.0
0
LINE
5
8b5
100
AcDbEntity
8
1-0
6
CONTINUOUS
62
3
100
AcDbLine
10
80446.789999999994
20
81965.559999999998
30
0.0
11
80413.100000000006
21
82466.520000000004
31
0.0
0
LINE
5
8b6
100
AcDbEntity
8
1-0
6
CONTINUOUS
62
3
100
AcDbLine
10
80413.100000000006
20
82466.520000000004
30
0.0
11
80374.919999999998
21
82967.490000000005
31
0.0
0
LINE
5
8b7
100
AcDbEntity
8
1-0
6
CONTINUOUS
62
3
100
AcDbLine
10
80374.919999999998
20
82967.490000000005
30
0.0
11
80332.679999999993
21
83468.479999999996
31
0.0
0
LINE
5
8b8
100
AcDbEntity
8
1-0
6
CONTINUOUS
62
3
100
AcDbLine
10
80332.679999999993
20
83468.479999999996
30
0.0
11
80286.850000000006
21
83969.369999999995
31
0.0
0
LINE
5
8b9
100
AcDbEntity
8
1-0
6
CONTINUOUS
62
3
100
AcDbLine
10
80286.850000000006
20
83969.369999999995
30
0.0
11
80237.860000000001
21
84470.110000000001
31
0.0
0
LINE
5
8ba
100
AcDbEntity
8
1-0
6
CONTINUOUS
62
3
100
AcDbLine
10
80237.860000000001
20
84470.110000000001
30
0.0
11
80185.970000000001
21
84970.610000000001
31
0.0
0
LINE
5
8bb
100
AcDbEntity
8
1-0
6
CONTINUOUS
62
3
100
AcDbLine
10
80185.970000000001
20
84970.610000000001
30
0.0
11
80130.500000000000
21
85470.619999999995
31
0.0
0
LINE
5
8bc
100
AcDbEntity
8
1-0
6
CONTINUOUS
62
3
100
AcDbLine
10
80130.500000000000
20
85470.619999999995
30
0.0
11
80070.619999999995
21
85969.889999999999
31
0.0
0
LINE
5
8bd
100
AcDbEntity
8
1-0
6
CONTINUOUS
62
3
100
AcDbLine
10
80070.619999999995
20
85969.889999999999
30
0.0
11
80005.460000000006
21
86468.000000000000
31
0.0
0
LINE
5
8be
100
AcDbEntity
8
1-0
6
CONTINUOUS
62
3
100
AcDbLine
10
80005.460000000006
20
86468.000000000000
30
0.0
11
79934.100000000006
21
86964.770000000004
31
0.0
0
LINE
5
8bf
100
AcDbEntity
8
1-0
6
CONTINUOUS
62
3
100
AcDbLine
10
79934.100000000006
20
86964.770000000004
30
0.0
11
79855.720000000001
21
87459.839999999997
31
0.0
0
LINE
5
8c0
100
AcDbEntity
8
1-0
6
CONTINUOUS
62
3
100
AcDbLine
10
79855.720000000001
20
87459.839999999997
30
0.0
11
79769.410000000003
21
87952.940000000002
31
0.0
0
LINE
5
8c1
100
AcDbEntity
8
1-0
6
CONTINUOUS
62
3
100
AcDbLine
10
79769.410000000003
20
87952.940000000002
30
0.0
11
79674.330000000002
21
88443.740000000005
31
0.0
0
LINE
5
8c2
100
AcDbEntity
8
1-0
6
CONTINUOUS
62
3
100
AcDbLine
10
79674.330000000002
20
88443.740000000005
30
0.0
11
79569.570000000007
21
88932.039999999994
31
0.0
0
LINE
5
8c3
100
AcDbEntity
8
1-0
6
CONTINUOUS
62
3
100
AcDbLine
10
79569.570000000007
20
88932.039999999994
30
0.0
11
79454.270000000004
21
89417.419999999998
31
0.0
0
LINE
5
8c4
100
AcDbEntity
8
1-0
6
CONTINUOUS
62
3
100
AcDbLine
10
79454.270000000004
20
89417.419999999998
30
0.0
11
79327.580000000002
21
89899.660000000003
31
0.0
0
LINE
5
8c5
100
AcDbEntity
8
1-0
6
CONTINUOUS
62
3
100
AcDbLine
10
79327.580000000002
20
89899.660000000003
30
0.0
11
79188.600000000006
21
90378.389999999999
31
0.0
0
LINE
5
8c6
100
AcDbEntity
8
1-0
6
CONTINUOUS
62
3
100
AcDbLine
10
79188.600000000006
20
90378.389999999999
30
0.0
11
79036.649999999994
21
90853.479999999996
31
0.0
0
LINE
5
8c7
100
AcDbEntity
8
1-0
6
CONTINUOUS
62
3
100
AcDbLine
10
79036.649999999994
20
90853.479999999996
30
0.0
11
78872.350000000006
21
91324.850000000006
31
0.0
0
LINE
5
8c8
100
AcDbEntity
8
1-0
6
CONTINUOUS
62
3
100
AcDbLine
10
78872.350000000006
20
91324.850000000006
30
0.0
11
78696.679999999993
21
91792.690000000002
31
0.0
0
LINE
5
8c9
100
AcDbEntity
8
1-0
6
CONTINUOUS
62
3
100
AcDbLine
10
78696.679999999993
20
91792.690000000002
30
0.0
11
78510.690000000002
21
92257.139999999999
31
0.0
0
LINE
5
8ca
100
AcDbEntity
8
1-0
6
CONTINUOUS
62
3
100
AcDbLine
10
78510.690000000002
20
92257.139999999999
30
0.0
11
78315.419999999998
21
92718.330000000002
31
0.0
0
LINE
5
8cb
100
AcDbEntity
8
1-0
6
CONTINUOUS
62
3
100
AcDbLine
10
78315.419999999998
20
92718.330000000002
30
0.0
11
78111.860000000001
21
93176.460000000006
31
0.0
0
LINE
5
8cc
100
AcDbEntity
8
1-0
6
CONTINUOUS
62
3
100
AcDbLine
10
78111.860000000001
20
93176.460000000006
30
0.0
11
77901.119999999995
21
93631.550000000003
31
0.0
0
LINE
5
8cd
100
AcDbEntity
8
1-0
6
CONTINUOUS
62
3
100
AcDbLine
10
77901.119999999995
20
93631.550000000003
30
0.0
11
77684.169999999998
21
94083.850000000006
31
0.0
0
LINE
5
8ce
100
AcDbEntity
8
1-0
6
CONTINUOUS
62
3
100
AcDbLine
10
77684.169999999998
20
94083.850000000006
30
0.0
11
77462.050000000003
21
94533.460000000006
31
0.0
0
LINE
5
8cf
100
AcDbEntity
8
1-0
6
CONTINUOUS
62
3
100
AcDbLine
10
77462.050000000003
20
94533.460000000006
30
0.0
11
77235.649999999994
21
94980.520000000004
31
0.0
0
LINE
5
8d0
100
AcDbEntity
8
1-0
6
CONTINUOUS
62
3
100
AcDbLine
10
77235.649999999994
20
94980.520000000004
30
0.0
11
77005.220000000001
21
95425.220000000001
31
0.0
0
LINE
5
8d1
100
AcDbEntity
8
1-0
6
CONTINUOUS
62
3
100
AcDbLine
10
77005.220000000001
20
95425.220000000001
30
0.0
11
76771.050000000003
21
95867.580000000002
31
0.0
0
LINE
5
8d2
100
AcDbEntity
8
1-0
6
CONTINUOUS
62
3
100
AcDbLine
10
76771.050000000003
20
95867.580000000002
30
0.0
11
76533.320000000007
21
96307.809999999998
31
0.0
0
LINE
5
8d3
100
AcDbEntity
8
1-0
6
CONTINUOUS
62
3
100
AcDbLine
10
76533.320000000007
20
96307.809999999998
30
0.0
11
76292.250000000000
21
96746.020000000004
31
0.0
0
LINE
5
8d4
100
AcDbEntity
8
1-0
6
CONTINUOUS
62
3
100
AcDbLine
10
76292.250000000000
20
96746.020000000004
30
0.0
11
76048.070000000007
21
97182.360000000001
31
0.0
0
LINE
5
8d5
100
AcDbEntity
8
1-0
6
CONTINUOUS
62
3
100
AcDbLine
10
76048.070000000007
20
97182.360000000001
30
0.0
11
75800.960000000006
21
97616.940000000002
31
0.0
0
LINE
5
8d6
100
AcDbEntity
8
1-0
6
CONTINUOUS
62
3
100
AcDbLine
10
75800.960000000006
20
97616.940000000002
30
0.0
11
75551.169999999998
21
98049.899999999994
31
0.0
0
LINE
5
8d7
100
AcDbEntity
8
1-0
6
CONTINUOUS
62
3
100
AcDbLine
10
75551.169999999998
20
98049.899999999994
30
0.0
11
75298.889999999999
21
98481.399999999994
31
0.0
0
LINE
5
8d8
100
AcDbEntity
8
1-0
6
CONTINUOUS
62
3
100
AcDbLine
10
75298.889999999999
20
98481.399999999994
30
0.0
11
75044.339999999997
21
98911.529999999999
31
0.0
0
LINE
5
8d9
100
AcDbEntity
8
1-0
6
CONTINUOUS
62
3
100
AcDbLine
10
75044.339999999997
20
98911.529999999999
30
0.0
11
74787.740000000005
21
99340.460000000006
31
0.0
0
LINE
5
8da
100
AcDbEntity
8
1-0
6
CONTINUOUS
62
3
100
AcDbLine
10
74787.740000000005
20
99340.460000000006
30
0.0
11
74529.330000000002
21
99768.279999999999
31
0.0
0
LINE
5
8db
100
AcDbEntity
8
1-0
6
CONTINUOUS
62
3
100
AcDbLine
10
74529.330000000002
20
99768.279999999999
30
0.0
11
74269.289999999994
21
100195.140000000000
31
0.0
0
LINE
5
8dc
100
AcDbEntity
8
1-0
6
CONTINUOUS
62
3
100
AcDbLine
10
74269.289999999994
20
100195.140000000000
30
0.0
11
74007.850000000006
21
100621.210000000010
31
0.0
0
LINE
5
8dd
100
AcDbEntity
8
1-0
6
CONTINUOUS
62
3
100
AcDbLine
10
74007.850000000006
20
100621.210000000010
30
0.0
11
73745.210000000006
21
101046.570000000010
31
0.0
0
LINE
5
8de
100
AcDbEntity
8
1-0
6
CONTINUOUS
62
3
100
AcDbLine
10
73745.210000000006
20
101046.570000000010
30
0.0
11
73481.600000000006
21
101471.360000000000
31
0.0
0
LINE
5
8df
100
AcDbEntity
8
1-0
6
CONTINUOUS
62
3
100
AcDbLine
10
73481.600000000006
20
101471.360000000000
30
0.0
11
73217.250000000000
21
101895.730000000000
31
0.0
0
LINE
5
8e0
100
AcDbEntity
8
1-0
6
CONTINUOUS
62
3
100
AcDbLine
10
73217.250000000000
20
101895.730000000000
30
0.0
11
72952.360000000001
21
102319.810000000000
31
0.0
0
LINE
5
8e1
100
AcDbEntity
8
1-0
6
CONTINUOUS
62
3
100
AcDbLine
10
72952.360000000001
20
102319.810000000000
30
0.0
11
72687.130000000005
21
102743.770000000000
31
0.0
0
LINE
5
8e2
100
AcDbEntity
8
1-0
6
CONTINUOUS
62
3
100
AcDbLine
10
72687.130000000005
20
102743.770000000000
30
0.0
11
72421.789999999994
21
103167.649999999990
31
0.0
0
LINE
5
8e3
100
AcDbEntity
8
1-0
6
CONTINUOUS
62
3
100
AcDbLine
10
72421.789999999994
20
103167.649999999990
30
0.0
11
72156.559999999998
21
103591.640000000000
31
0.0
0
LINE
5
8e4
100
AcDbEntity
8
1-0
6
CONTINUOUS
62
3
100
AcDbLine
10
72156.559999999998
20
103591.640000000000
30
0.0
11
71891.639999999999
21
104015.870000000000
31
0.0
0
LINE
5
8e5
100
AcDbEntity
8
1-0
6
CONTINUOUS
62
3
100
AcDbLine
10
71891.639999999999
20
104015.870000000000
30
0.0
11
71627.259999999995
21
104440.500000000000
31
0.0
0
LINE
5
8e6
100
AcDbEntity
8
1-0
6
CONTINUOUS
62
3
100
AcDbLine
10
71627.259999999995
20
104440.500000000000
30
0.0
11
71363.630000000005
21
104865.600000000010
31
0.0
0
LINE
5
8e7
100
AcDbEntity
8
1-0
6
CONTINUOUS
62
3
100
AcDbLine
10
71363.630000000005
20
104865.600000000010
30
0.0
11
71100.990000000005
21
105291.310000000000
31
0.0
0
LINE
5
8e8
100
AcDbEntity
8
1-0
6
CONTINUOUS
62
3
100
AcDbLine
10
71100.990000000005
20
105291.310000000000
30
0.0
11
70839.500000000000
21
105717.820000000010
31
0.0
0
LINE
5
8e9
100
AcDbEntity
8
1-0
6
CONTINUOUS
62
3
100
AcDbLine
10
70839.500000000000
20
105717.820000000010
30
0.0
11
70579.399999999994
21
106145.250000000000
31
0.0
0
LINE
5
8ea
100
AcDbEntity
8
1-0
6
CONTINUOUS
62
3
100
AcDbLine
10
70579.399999999994
20
106145.250000000000
30
0.0
11
70320.919999999998
21
106573.700000000000
31
0.0
0
LINE
5
8eb
100
AcDbEntity
8
1-0
6
CONTINUOUS
62
3
100
AcDbLine
10
70320.919999999998
20
106573.700000000000
30
0.0
11
70064.279999999999
21
107003.280000000000
31
0.0
0
LINE
5
8ec
100
AcDbEntity
8
1-0
6
CONTINUOUS
62
3
100
AcDbLine
10
70064.279999999999
20
107003.280000000000
30
0.0
11
69809.669999999998
21
107434.179999999990
31
0.0
0
LINE
5
8ed
100
AcDbEntity
8
1-0
6
CONTINUOUS
62
3
100
AcDbLine
10
69809.669999999998
20
107434.179999999990
30
0.0
11
69557.320000000007
21
107866.509999999990
31
0.0
0
LINE
5
8ee
100
AcDbEntity
8
1-0
6
CONTINUOUS
62
3
100
AcDbLine
10
69557.320000000007
20
107866.509999999990
30
0.0
11
69307.190000000002
21
108300.220000000000
31
0.0
0
LINE
5
8ef
100
AcDbEntity
8
1-0
6
CONTINUOUS
62
3
100
AcDbLine
10
69307.190000000002
20
108300.220000000000
30
0.0
11
69058.669999999998
21
108734.960000000010
31
0.0
0
LINE
5
8f0
100
AcDbEntity
8
1-0
6
CONTINUOUS
62
3
100
AcDbLine
10
69058.669999999998
20
108734.960000000010
30
0.0
11
68811.199999999997
21
109170.259999999990
31
0.0
0
LINE
5
8f1
100
AcDbEntity
8
1-0
6
CONTINUOUS
62
3
100
AcDbLine
10
68811.199999999997
20
109170.259999999990
30
0.0
11
68564.100000000006
21
109605.759999999990
31
0.0
0
LINE
5
8f2
100
AcDbEntity
8
1-0
6
CONTINUOUS
62
3
100
AcDbLine
10
68564.100000000006
20
109605.759999999990
30
0.0
11
68316.800000000003
21
110041.009999999990
31
0.0
0
LINE
5
8f3
100
AcDbEntity
8
1-0
6
CONTINUOUS
62
3
100
AcDbLine
10
68316.800000000003
20
110041.009999999990
30
0.0
11
68068.619999999995
21
110475.630000000000
31
0.0
0
LINE
5
8f4
100
AcDbEntity
8
1-0
6
CONTINUOUS
62
3
100
AcDbLine
10
68068.619999999995
20
110475.630000000000
30
0.0
11
67818.949999999997
21
110909.200000000000
31
0.0
0
LINE
5
8f5
100
AcDbEntity
8
1-0
6
CONTINUOUS
62
3
100
AcDbLine
10
67818.949999999997
20
110909.200000000000
30
0.0
11
67567.210000000006
21
111341.259999999990
31
0.0
0
LINE
5
8f6
100
AcDbEntity
8
1-0
6
CONTINUOUS
62
3
100
AcDbLine
10
67567.210000000006
20
111341.259999999990
30
0.0
11
67312.699999999997
21
111771.450000000000
31
0.0
0
LINE
5
8f7
100
AcDbEntity
8
1-0
6
CONTINUOUS
62
3
100
AcDbLine
10
67312.699999999997
20
111771.450000000000
30
0.0
11
67054.880000000005
21
112199.310000000000
31
0.0
0
LINE
5
8f8
100
AcDbEntity
8
1-0
6
CONTINUOUS
62
3
100
AcDbLine
10
67054.880000000005
20
112199.310000000000
30
0.0
11
66793.070000000007
21
112624.460000000010
31
0.0
0
LINE
5
8f9
100
AcDbEntity
8
1-0
6
CONTINUOUS
62
3
100
AcDbLine
10
66793.070000000007
20
112624.460000000010
30
0.0
11
66526.649999999994
21
113046.450000000000
31
0.0
0
LINE
5
8fa
100
AcDbEntity
8
1-0
6
CONTINUOUS
62
3
100
AcDbLine
10
66526.649999999994
20
113046.450000000000
30
0.0
11
66255.050000000003
21
113464.890000000000
31
0.0
0
LINE
5
8fb
100
AcDbEntity
8
1-0
6
CONTINUOUS
62
3
100
AcDbLine
10
66255.050000000003
20
113464.890000000000
30
0.0
11
65977.720000000001
21
113879.460000000010
31
0.0
0
LINE
5
8fc
100
AcDbEntity
8
1-0
6
CONTINUOUS
62
3
100
AcDbLine
10
65977.720000000001
20
113879.460000000010
30
0.0
11
65694.809999999998
21
114290.210000000010
31
0.0
0
LINE
5
8fd
100
AcDbEntity
8
1-0
6
CONTINUOUS
62
3
100
AcDbLine
10
65694.809999999998
20
114290.210000000010
30
0.0
11
65406.540000000001
21
114697.280000000000
31
0.0
0
LINE
5
8fe
100
AcDbEntity
8
1-0
6
CONTINUOUS
62
3
100
AcDbLine
10
65406.540000000001
20
114697.280000000000
30
0.0
11
65113.139999999999
21
115100.810000000000
31
0.0
0
LINE
5
8ff
100
AcDbEntity
8
1-0
6
CONTINUOUS
62
3
100
AcDbLine
10
65113.139999999999
20
115100.810000000000
30
0.0
11
64814.790000000001
21
115500.899999999990
31
0.0
0
LINE
5
900
100
AcDbEntity
8
1-0
6
CONTINUOUS
62
3
100
AcDbLine
10
64814.790000000001
20
115500.899999999990
30
0.0
11
64511.760000000002
21
115897.700000000000
31
0.0
0
LINE
5
901
100
AcDbEntity
8
1-0
6
CONTINUOUS
62
3
100
AcDbLine
10
64511.760000000002
20
115897.700000000000
30
0.0
11
64204.260000000002
21
116291.380000000000
31
0.0
0
LINE
5
902
100
AcDbEntity
8
1-0
6
CONTINUOUS
62
3
100
AcDbLine
10
64204.260000000002
20
116291.380000000000
30
0.0
11
63892.500000000000
21
116682.030000000000
31
0.0
0
LINE
5
903
100
AcDbEntity
8
1-0
6
CONTINUOUS
62
3
100
AcDbLine
10
63892.500000000000
20
116682.030000000000
30
0.0
11
63576.730000000003
21
117069.720000000000
31
0.0
0
LINE
5
904
100
AcDbEntity
8
1-0
6
CONTINUOUS
62
3
100
AcDbLine
10
63576.730000000003
20
117069.720000000000
30
0.0
11
63257.150000000001
21
117454.720000000000
31
0.0
0
LINE
5
905
100
AcDbEntity
8
1-0
6
CONTINUOUS
62
3
100
AcDbLine
10
63257.150000000001
20
117454.720000000000
30
0.0
11
62933.970000000001
21
117837.070000000010
31
0.0
0
LINE
5
906
100
AcDbEntity
8
1-0
6
CONTINUOUS
62
3
100
AcDbLine
10
62933.970000000001
20
117837.070000000010
30
0.0
11
62607.430000000000
21
118216.940000000000
31
0.0
0
LINE
5
907
100
AcDbEntity
8
1-0
6
CONTINUOUS
62
3
100
AcDbLine
10
62607.430000000000
20
118216.940000000000
30
0.0
11
62277.769999999997
21
118594.420000000000
31
0.0
0
LINE
5
908
100
AcDbEntity
8
1-0
6
CONTINUOUS
62
3
100
AcDbLine
10
62277.769999999997
20
118594.420000000000
30
0.0
11
61945.199999999997
21
118969.700000000000
31
0.0
0
LINE
5
909
100
AcDbEntity
8
1-0
6
CONTINUOUS
62
3
100
AcDbLine
10
61945.199999999997
20
118969.700000000000
30
0.0
11
61609.889999999999
21
119342.860000000000
31
0.0
0
LINE
5
90a
100
AcDbEntity
8
1-0
6
CONTINUOUS
62
3
100
AcDbLine
10
61609.889999999999
20
119342.860000000000
30
0.0
11
61272.150000000001
21
119714.060000000000
31
0.0
0
LINE
5
90b
100
AcDbEntity
8
1-0
6
CONTINUOUS
62
3
100
AcDbLine
10
61272.150000000001
20
119714.060000000000
30
0.0
11
60932.180000000000
21
120083.410000000000
31
0.0
0
LINE
5
90c
100
AcDbEntity
8
1-0
6
CONTINUOUS
62
3
100
AcDbLine
10
60932.180000000000
20
120083.410000000000
30
0.0
11
60590.129999999997
21
120451.080000000000
31
0.0
0
LINE
5
90d
100
AcDbEntity
8
1-0
6
CONTINUOUS
62
3
100
AcDbLine
10
60590.129999999997
20
120451.080000000000
30
0.0
11
60246.339999999997
21
120817.149999999990
31
0.0
0
LINE
5
90e
100
AcDbEntity
8
1-0
6
CONTINUOUS
62
3
100
AcDbLine
10
60246.339999999997
20
120817.149999999990
30
0.0
11
59900.949999999997
21
121181.780000000000
31
0.0
0
LINE
5
90f
100
AcDbEntity
8
1-0
6
CONTINUOUS
62
3
100
AcDbLine
10
59900.949999999997
20
121181.780000000000
30
0.0
11
59554.190000000002
21
121545.140000000000
31
0.0
0
LINE
5
910
100
AcDbEntity
8
1-0
6
CONTINUOUS
62
3
100
AcDbLine
10
59554.190000000002
20
121545.140000000000
30
0.0
11
59206.320000000000
21
121907.300000000000
31
0.0
0
LINE
5
911
100
AcDbEntity
8
1-0
6
CONTINUOUS
62
3
100
AcDbLine
10
59206.320000000000
20
121907.300000000000
30
0.0
11
58857.489999999998
21
122268.450000000000
31
0.0
0
LINE
5
912
100
AcDbEntity
8
1-0
6
CONTINUOUS
62
3
100
AcDbLine
10
58857.489999999998
20
122268.450000000000
30
0.0
11
58508.019999999997
21
122628.649999999990
31
0.0
0
LINE
5
913
100
AcDbEntity
8
1-0
6
CONTINUOUS
62
3
100
AcDbLine
10
58508.019999999997
20
122628.649999999990
30
0.0
11
58158.089999999997
21
122988.070000000010
31
0.0
0
LINE
5
914
100
AcDbEntity
8
1-0
6
CONTINUOUS
62
3
100
AcDbLine
10
58158.089999999997
20
122988.070000000010
30
0.0
11
57807.900000000001
21
123346.860000000000
31
0.0
0
LINE
5
915
100
AcDbEntity
8
1-0
6
CONTINUOUS
62
3
100
AcDbLine
10
57807.900000000001
20
123346.860000000000
30
0.0
11
57457.730000000003
21
123705.250000000000
31
0.0
0
LINE
5
916
100
AcDbEntity
8
1-0
6
CONTINUOUS
62
3
100
AcDbLine
10
57457.730000000003
20
123705.250000000000
30
0.0
11
57107.900000000001
21
124063.550000000000
31
0.0
0
LINE
5
917
100
AcDbEntity
8
1-0
6
CONTINUOUS
62
3
100
AcDbLine
10
57107.900000000001
20
124063.550000000000
30
0.0
11
56758.730000000003
21
124422.120000000000
31
0.0
0
LINE
5
918
100
AcDbEntity
8
1-0
6
CONTINUOUS
62
3
100
AcDbLine
10
56758.730000000003
20
124422.120000000000
30
0.0
11
56410.550000000003
21
124781.289999999990
31
0.0
0
LINE
5
919
100
AcDbEntity
8
1-0
6
CONTINUOUS
62
3
100
AcDbLine
10
56410.550000000003
20
124781.289999999990
30
0.0
11
56063.639999999999
21
125141.399999999990
31
0.0
0
LINE
5
91a
100
AcDbEntity
8
1-0
6
CONTINUOUS
62
3
100
AcDbLine
10
56063.639999999999
20
125141.399999999990
30
0.0
11
55718.309999999998
21
125502.820000000010
31
0.0
0
LINE
5
91b
100
AcDbEntity
8
1-0
6
CONTINUOUS
62
3
100
AcDbLine
10
55718.309999999998
20
125502.820000000010
30
0.0
11
55374.919999999998
21
125865.870000000000
31
0.0
0
LINE
5
91c
100
AcDbEntity
8
1-0
6
CONTINUOUS
62
3
100
AcDbLine
10
55374.919999999998
20
125865.870000000000
30
0.0
11
55033.739999999998
21
126230.910000000000
31
0.0
0
LINE
5
91d
100
AcDbEntity
8
1-0
6
CONTINUOUS
62
3
100
AcDbLine
10
55033.739999999998
20
126230.910000000000
30
0.0
11
54695.129999999997
21
126598.240000000010
31
0.0
0
LINE
5
91e
100
AcDbEntity
8
1-0
6
CONTINUOUS
62
3
100
AcDbLine
10
54695.129999999997
20
126598.240000000010
30
0.0
11
54359.360000000001
21
126968.240000000010
31
0.0
0
LINE
5
91f
100
AcDbEntity
8
1-0
6
CONTINUOUS
62
3
100
AcDbLine
10
54359.360000000001
20
126968.240000000010
30
0.0
11
54026.739999999998
21
127341.280000000000
31
0.0
0
LINE
5
920
100
AcDbEntity
8
1-0
6
CONTINUOUS
62
3
100
AcDbLine
10
54026.739999999998
20
127341.280000000000
30
0.0
11
53697.680000000000
21
127717.620000000000
31
0.0
0
LINE
5
921
100
AcDbEntity
8
1-0
6
CONTINUOUS
62
3
100
AcDbLine
10
53697.680000000000
20
127717.620000000000
30
0.0
11
53372.379999999997
21
128097.679999999990
31
0.0
0
LINE
5
922
100
AcDbEntity
8
1-0
6
CONTINUOUS
62
3
100
AcDbLine
10
53372.379999999997
20
128097.679999999990
30
0.0
11
53051.209999999999
21
128481.730000000000
31
0.0
0
LINE
5
923
100
AcDbEntity
8
1-0
6
CONTINUOUS
62
3
100
AcDbLine
10
53051.209999999999
20
128481.730000000000
30
0.0
11
52734.620000000003
21
128870.190000000000
31
0.0
0
LINE
5
924
100
AcDbEntity
8
1-0
6
CONTINUOUS
62
3
100
AcDbLine
10
52734.620000000003
20
128870.190000000000
30
0.0
11
52423.449999999997
21
129263.330000000000
31
0.0
0
LINE
5
925
100
AcDbEntity
8
1-0
6
CONTINUOUS
62
3
100
AcDbLine
10
52423.449999999997
20
129263.330000000000
30
0.0
11
52118.570000000000
21
129661.490000000010
31
0.0
0
LINE
5
926
100
AcDbEntity
8
1-0
6
CONTINUOUS
62
3
100
AcDbLine
10
52118.570000000000
20
129661.490000000010
30
0.0
11
51820.910000000003
21
130065.009999999990
31
0.0
0
LINE
5
927
100
AcDbEntity
8
1-0
6
CONTINUOUS
62
3
100
AcDbLine
10
51820.910000000003
20
130065.009999999990
30
0.0
11
51531.330000000002
21
130474.240000000010
31
0.0
0
LINE
5
928
100
AcDbEntity
8
1-0
6
CONTINUOUS
62
3
100
AcDbLine
10
51531.330000000002
20
130474.240000000010
30
0.0
11
51250.760000000002
21
130889.460000000010
31
0.0
0
LINE
5
929
100
AcDbEntity
8
1-0
6
CONTINUOUS
62
3
100
AcDbLine
10
51250.760000000002
20
130889.460000000010
30
0.0
11
50980.120000000003
21
131311.010000000010
31
0.0
0
LINE
5
92a
100
AcDbEntity
8
1-0
6
CONTINUOUS
62
3
100
AcDbLine
10
50980.120000000003
20
131311.010000000010
30
0.0
11
50720.230000000003
21
131739.230000000010
31
0.0
0
LINE
5
92b
100
AcDbEntity
8
1-0
6
CONTINUOUS
62
3
100
AcDbLine
10
50720.230000000003
20
131739.230000000010
30
0.0
11
50472.070000000000
21
132174.429999999990
31
0.0
0
LINE
5
92c
100
AcDbEntity
8
1-0
6
CONTINUOUS
62
3
100
AcDbLine
10
50472.070000000000
20
132174.429999999990
30
0.0
11
50236.470000000001
21
132616.980000000010
31
0.0
0
LINE
5
92d
100
AcDbEntity
8
1-0
6
CONTINUOUS
62
3
100
AcDbLine
10
50236.470000000001
20
132616.980000000010
30
0.0
11
50014.370000000003
21
133067.190000000000
31
0.0
0
LINE
5
92e
100
AcDbEntity
8
1-0
6
CONTINUOUS
62
3
100
AcDbLine
10
50014.370000000003
20
133067.190000000000
30
0.0
11
49807.129999999997
21
133525.130000000000
31
0.0
0
LINE
5
92f
100
AcDbEntity
8
1-0
6
CONTINUOUS
62
3
100
AcDbLine
10
49807.129999999997
20
133525.130000000000
30
0.0
11
49617.309999999998
21
133990.450000000010
31
0.0
0
LINE
5
930
100
AcDbEntity
8
1-0
6
CONTINUOUS
62
3
100
AcDbLine
10
49617.309999999998
20
133990.450000000010
30
0.0
11
49447.769999999997
21
134462.640000000010
31
0.0
0
LINE
5
931
100
AcDbEntity
8
1-0
6
CONTINUOUS
62
3
100
AcDbLine
10
49447.769999999997
20
134462.640000000010
30
0.0
11
49301.269999999997
21
134941.160000000000
31
0.0
0
LINE
5
932
100
AcDbEntity
8
1-0
6
CONTINUOUS
62
3
100
AcDbLine
10
49301.269999999997
20
134941.160000000000
30
0.0
11
49180.610000000001
21
135425.530000000000
31
0.0
0
LINE
5
933
100
AcDbEntity
8
1-0
6
CONTINUOUS
62
3
100
AcDbLine
10
49180.610000000001
20
135425.530000000000
30
0.0
11
49087.980000000003
21
135915.230000000010
31
0.0
0
LINE
5
934
100
AcDbEntity
8
1-0
6
CONTINUOUS
62
3
100
AcDbLine
10
49087.980000000003
20
135915.230000000010
30
0.0
11
49020.529999999999
21
136409.420000000010
31
0.0
0
LINE
5
935
100
AcDbEntity
8
1-0
6
CONTINUOUS
62
3
100
AcDbLine
10
49020.529999999999
20
136409.420000000010
30
0.0
11
48972.800000000003
21
136907.090000000000
31
0.0
0
LINE
5
936
100
AcDbEntity
8
1-0
6
CONTINUOUS
62
3
100
AcDbLine
10
48972.800000000003
20
136907.090000000000
30
0.0
11
48939.250000000000
21
137407.340000000000
31
0.0
0
LINE
5
937
100
AcDbEntity
8
1-0
6
CONTINUOUS
62
3
100
AcDbLine
10
48939.250000000000
20
137407.340000000000
30
0.0
11
48914.500000000000
21
137909.109999999990
31
0.0
0
LINE
5
938
100
AcDbEntity
8
1-0
6
CONTINUOUS
62
3
100
AcDbLine
10
48914.500000000000
20
137909.109999999990
30
0.0
11
48901.580000000002
21
138210.730000000010
31
0.0
0
LINE
5
939
100
AcDbEntity
8
1-0
6
CONTINUOUS
62
3
100
AcDbLine
10
29644.709999999999
20
48097.860000000001
30
0.0
11
29319.709999999999
21
48477.410000000003
31
0.0
0
LINE
5
93a
100
AcDbEntity
8
1-0
6
CONTINUOUS
62
3
100
AcDbLine
10
29319.709999999999
20
48477.410000000003
30
0.0
11
28994.480000000000
21
48856.800000000003
31
0.0
0
LINE
5
93b
100
AcDbEntity
8
1-0
6
CONTINUOUS
62
3
100
AcDbLine
10
28994.480000000000
20
48856.800000000003
30
0.0
11
28668.799999999999
21
49235.830000000002
31
0.0
0
LINE
5
93c
100
AcDbEntity
8
1-0
6
CONTINUOUS
62
3
100
AcDbLine
10
28668.799999999999
20
49235.830000000002
30
0.0
11
28342.450000000001
21
49614.309999999998
31
0.0
0
LINE
5
93d
100
AcDbEntity
8
1-0
6
CONTINUOUS
62
3
100
AcDbLine
10
28342.450000000001
20
49614.309999999998
30
0.0
11
28015.189999999999
21
49992.089999999997
31
0.0
0
LINE
5
93e
100
AcDbEntity
8
1-0
6
CONTINUOUS
62
3
100
AcDbLine
10
28015.189999999999
20
49992.089999999997
30
0.0
11
27686.799999999999
21
50368.980000000003
31
0.0
0
LINE
5
93f
100
AcDbEntity
8
1-0
6
CONTINUOUS
62
3
100
AcDbLine
10
27686.799999999999
20
50368.980000000003
30
0.0
11
27357.040000000001
21
50744.809999999998
31
0.0
0
LINE
5
940
100
AcDbEntity
8
1-0
6
CONTINUOUS
62
3
100
AcDbLine
10
27357.040000000001
20
50744.809999999998
30
0.0
11
27025.709999999999
21
51119.379999999997
31
0.0
0
LINE
5
941
100
AcDbEntity
8
1-0
6
CONTINUOUS
62
3
100
AcDbLine
10
27025.709999999999
20
51119.379999999997
30
0.0
11
26692.570000000000
21
51492.510000000002
31
0.0
0
LINE
5
942
100
AcDbEntity
8
1-0
6
CONTINUOUS
62
3
100
AcDbLine
10
26692.570000000000
20
51492.510000000002
30
0.0
11
26357.380000000001
21
51864.070000000000
31
0.0
0
LINE
5
943
100
AcDbEntity
8
1-0
6
CONTINUOUS
62
3
100
AcDbLine
10
26357.380000000001
20
51864.070000000000
30
0.0
11
26019.930000000000
21
52233.820000000000
31
0.0
0
LINE
5
944
100
AcDbEntity
8
1-0
6
CONTINUOUS
62
3
100
AcDbLine
10
26019.930000000000
20
52233.820000000000
30
0.0
11
25680.009999999998
21
52601.620000000003
31
0.0
0
LINE
5
945
100
AcDbEntity
8
1-0
6
CONTINUOUS
62
3
100
AcDbLine
10
25680.009999999998
20
52601.620000000003
30
0.0
11
25337.650000000001
21
52967.519999999997
31
0.0
0
LINE
5
946
100
AcDbEntity
8
1-0
6
CONTINUOUS
62
3
100
AcDbLine
10
25337.650000000001
20
52967.519999999997
30
0.0
11
24993.400000000001
21
53331.900000000001
31
0.0
0
LINE
5
947
100
AcDbEntity
8
1-0
6
CONTINUOUS
62
3
100
AcDbLine
10
24993.400000000001
20
53331.900000000001
30
0.0
11
24647.810000000001
21
53695.209999999999
31
0.0
0
LINE
5
948
100
AcDbEntity
8
1-0
6
CONTINUOUS
62
3
100
AcDbLine
10
24647.810000000001
20
53695.209999999999
30
0.0
11
24301.439999999999
21
54057.879999999997
31
0.0
0
LINE
5
949
100
AcDbEntity
8
1-0
6
CONTINUOUS
62
3
100
AcDbLine
10
24301.439999999999
20
54057.879999999997
30
0.0
11
23954.860000000001
21
54420.339999999997
31
0.0
0
LINE
5
94a
100
AcDbEntity
8
1-0
6
CONTINUOUS
62
3
100
AcDbLine
10
23954.860000000001
20
54420.339999999997
30
0.0
11
23608.630000000001
21
54783.010000000002
31
0.0
0
LINE
5
94b
100
AcDbEntity
8
1-0
6
CONTINUOUS
62
3
100
AcDbLine
10
23608.630000000001
20
54783.010000000002
30
0.0
11
23263.320000000000
21
55146.349999999999
31
0.0
0
LINE
5
94c
100
AcDbEntity
8
1-0
6
CONTINUOUS
62
3
100
AcDbLine
10
23263.320000000000
20
55146.349999999999
30
0.0
11
22919.490000000002
21
55510.790000000001
31
0.0
0
LINE
5
94d
100
AcDbEntity
8
1-0
6
CONTINUOUS
62
3
100
AcDbLine
10
22919.490000000002
20
55510.790000000001
30
0.0
11
22577.689999999999
21
55876.760000000002
31
0.0
0
LINE
5
94e
100
AcDbEntity
8
1-0
6
CONTINUOUS
62
3
100
AcDbLine
10
22577.689999999999
20
55876.760000000002
30
0.0
11
22238.500000000000
21
56244.680000000000
31
0.0
0
LINE
5
94f
100
AcDbEntity
8
1-0
6
CONTINUOUS
62
3
100
AcDbLine
10
22238.500000000000
20
56244.680000000000
30
0.0
11
21902.490000000002
21
56614.980000000003
31
0.0
0
LINE
5
950
100
AcDbEntity
8
1-0
6
CONTINUOUS
62
3
100
AcDbLine
10
21902.490000000002
20
56614.980000000003
30
0.0
11
21570.200000000001
21
56988.120000000003
31
0.0
0
LINE
5
951
100
AcDbEntity
8
1-0
6
CONTINUOUS
62
3
100
AcDbLine
10
21570.200000000001
20
56988.120000000003
30
0.0
11
21242.209999999999
21
57364.550000000003
31
0.0
0
LINE
5
952
100
AcDbEntity
8
1-0
6
CONTINUOUS
62
3
100
AcDbLine
10
21242.209999999999
20
57364.550000000003
30
0.0
11
20919.080000000002
21
57744.650000000001
31
0.0
0
LINE
5
953
100
AcDbEntity
8
1-0
6
CONTINUOUS
62
3
100
AcDbLine
10
20919.080000000002
20
57744.650000000001
30
0.0
11
20601.369999999999
21
58128.870000000003
31
0.0
0
LINE
5
954
100
AcDbEntity
8
1-0
6
CONTINUOUS
62
3
100
AcDbLine
10
20601.369999999999
20
58128.870000000003
30
0.0
11
20289.650000000001
21
58517.690000000002
31
0.0
0
LINE
5
955
100
AcDbEntity
8
1-0
6
CONTINUOUS
62
3
100
AcDbLine
10
20289.650000000001
20
58517.690000000002
30
0.0
11
19984.470000000001
21
58911.459999999999
31
0.0
0
LINE
5
956
100
AcDbEntity
8
1-0
6
CONTINUOUS
62
3
100
AcDbLine
10
19984.470000000001
20
58911.459999999999
30
0.0
11
19686.279999999999
21
59310.599999999999
31
0.0
0
LINE
5
957
100
AcDbEntity
8
1-0
6
CONTINUOUS
62
3
100
AcDbLine
10
19686.279999999999
20
59310.599999999999
30
0.0
11
19394.689999999999
21
59714.769999999997
31
0.0
0
LINE
5
958
100
AcDbEntity
8
1-0
6
CONTINUOUS
62
3
100
AcDbLine
10
19394.689999999999
20
59714.769999999997
30
0.0
11
19109.020000000000
21
60123.500000000000
31
0.0
0
LINE
5
959
100
AcDbEntity
8
1-0
6
CONTINUOUS
62
3
100
AcDbLine
10
19109.020000000000
20
60123.500000000000
30
0.0
11
18828.610000000001
21
60536.250000000000
31
0.0
0
LINE
5
95a
100
AcDbEntity
8
1-0
6
CONTINUOUS
62
3
100
AcDbLine
10
18828.610000000001
20
60536.250000000000
30
0.0
11
18552.779999999999
21
60952.540000000001
31
0.0
0
LINE
5
95b
100
AcDbEntity
8
1-0
6
CONTINUOUS
62
3
100
AcDbLine
10
18552.779999999999
20
60952.540000000001
30
0.0
11
18280.869999999999
21
61371.849999999999
31
0.0
0
LINE
5
95c
100
AcDbEntity
8
1-0
6
CONTINUOUS
62
3
100
AcDbLine
10
18280.869999999999
20
61371.849999999999
30
0.0
11
18012.189999999999
21
61793.690000000002
31
0.0
0
LINE
5
95d
100
AcDbEntity
8
1-0
6
CONTINUOUS
62
3
100
AcDbLine
10
18012.189999999999
20
61793.690000000002
30
0.0
11
17746.090000000000
21
62217.550000000003
31
0.0
0
LINE
5
95e
100
AcDbEntity
8
1-0
6
CONTINUOUS
62
3
100
AcDbLine
10
17746.090000000000
20
62217.550000000003
30
0.0
11
17481.869999999999
21
62642.940000000002
31
0.0
0
LINE
5
95f
100
AcDbEntity
8
1-0
6
CONTINUOUS
62
3
100
AcDbLine
10
17481.869999999999
20
62642.940000000002
30
0.0
11
17218.880000000001
21
63069.330000000002
31
0.0
0
LINE
5
960
100
AcDbEntity
8
1-0
6
CONTINUOUS
62
3
100
AcDbLine
10
17218.880000000001
20
63069.330000000002
30
0.0
11
16956.439999999999
21
63496.209999999999
31
0.0
0
LINE
5
961
100
AcDbEntity
8
1-0
6
CONTINUOUS
62
3
100
AcDbLine
10
16956.439999999999
20
63496.209999999999
30
0.0
11
16693.880000000001
21
63923.120000000003
31
0.0
0
LINE
5
962
100
AcDbEntity
8
1-0
6
CONTINUOUS
62
3
100
AcDbLine
10
16693.880000000001
20
63923.120000000003
30
0.0
11
16430.529999999999
21
64349.480000000003
31
0.0
0
LINE
5
963
100
AcDbEntity
8
1-0
6
CONTINUOUS
62
3
100
AcDbLine
10
16430.529999999999
20
64349.480000000003
30
0.0
11
16165.700000000001
21
64774.860000000001
31
0.0
0
LINE
5
964
100
AcDbEntity
8
1-0
6
CONTINUOUS
62
3
100
AcDbLine
10
16165.700000000001
20
64774.860000000001
30
0.0
11
15898.740000000000
21
65198.720000000001
31
0.0
0
LINE
5
965
100
AcDbEntity
8
1-0
6
CONTINUOUS
62
3
100
AcDbLine
10
15898.740000000000
20
65198.720000000001
30
0.0
11
15628.959999999999
21
65620.570000000007
31
0.0
0
LINE
5
966
100
AcDbEntity
8
1-0
6
CONTINUOUS
62
3
100
AcDbLine
10
15628.959999999999
20
65620.570000000007
30
0.0
11
15355.709999999999
21
66039.880000000005
31
0.0
0
LINE
5
967
100
AcDbEntity
8
1-0
6
CONTINUOUS
62
3
100
AcDbLine
10
15355.709999999999
20
66039.880000000005
30
0.0
11
15078.309999999999
21
66456.139999999999
31
0.0
0
LINE
5
968
100
AcDbEntity
8
1-0
6
CONTINUOUS
62
3
100
AcDbLine
10
15078.309999999999
20
66456.139999999999
30
0.0
11
14796.120000000001
21
66868.949999999997
31
0.0
0
LINE
5
969
100
AcDbEntity
8
1-0
6
CONTINUOUS
62
3
100
AcDbLine
10
14796.120000000001
20
66868.949999999997
30
0.0
11
14509.240000000000
21
67278.279999999999
31
0.0
0
LINE
5
96a
100
AcDbEntity
8
1-0
6
CONTINUOUS
62
3
100
AcDbLine
10
14509.240000000000
20
67278.279999999999
30
0.0
11
14218.059999999999
21
67684.500000000000
31
0.0
0
LINE
5
96b
100
AcDbEntity
8
1-0
6
CONTINUOUS
62
3
100
AcDbLine
10
14218.059999999999
20
67684.500000000000
30
0.0
11
13923.049999999999
21
68087.880000000005
31
0.0
0
LINE
5
96c
100
AcDbEntity
8
1-0
6
CONTINUOUS
62
3
100
AcDbLine
10
13923.049999999999
20
68087.880000000005
30
0.0
11
13624.639999999999
21
68488.820000000007
31
0.0
0
LINE
5
96d
100
AcDbEntity
8
1-0
6
CONTINUOUS
62
3
100
AcDbLine
10
13624.639999999999
20
68488.820000000007
30
0.0
11
13323.290000000001
21
68887.630000000005
31
0.0
0
LINE
5
96e
100
AcDbEntity
8
1-0
6
CONTINUOUS
62
3
100
AcDbLine
10
13323.290000000001
20
68887.630000000005
30
0.0
11
13019.420000000000
21
69284.630000000005
31
0.0
0
LINE
5
96f
100
AcDbEntity
8
1-0
6
CONTINUOUS
62
3
100
AcDbLine
10
13019.420000000000
20
69284.630000000005
30
0.0
11
12713.500000000000
21
69680.139999999999
31
0.0
0
LINE
5
970
100
AcDbEntity
8
1-0
6
CONTINUOUS
62
3
100
AcDbLine
10
12713.500000000000
20
69680.139999999999
30
0.0
11
12405.950000000001
21
70074.520000000004
31
0.0
0
LINE
5
971
100
AcDbEntity
8
1-0
6
CONTINUOUS
62
3
100
AcDbLine
10
12405.950000000001
20
70074.520000000004
30
0.0
11
12097.240000000000
21
70468.070000000007
31
0.0
0
LINE
5
972
100
AcDbEntity
8
1-0
6
CONTINUOUS
62
3
100
AcDbLine
10
12097.240000000000
20
70468.070000000007
30
0.0
11
11787.799999999999
21
70861.139999999999
31
0.0
0
LINE
5
973
100
AcDbEntity
8
1-0
6
CONTINUOUS
62
3
100
AcDbLine
10
11787.799999999999
20
70861.139999999999
30
0.0
11
11478.059999999999
21
71254.050000000003
31
0.0
0
LINE
5
974
100
AcDbEntity
8
1-0
6
CONTINUOUS
62
3
100
AcDbLine
10
11478.059999999999
20
71254.050000000003
30
0.0
11
11168.480000000000
21
71647.149999999994
31
0.0
0
LINE
5
975
100
AcDbEntity
8
1-0
6
CONTINUOUS
62
3
100
AcDbLine
10
11168.480000000000
20
71647.149999999994
30
0.0
11
10859.510000000000
21
72040.729999999996
31
0.0
0
LINE
5
976
100
AcDbEntity
8
1-0
6
CONTINUOUS
62
3
100
AcDbLine
10
10859.510000000000
20
72040.729999999996
30
0.0
11
10551.580000000000
21
72435.169999999998
31
0.0
0
LINE
5
977
100
AcDbEntity
8
1-0
6
CONTINUOUS
62
3
100
AcDbLine
10
10551.580000000000
20
72435.169999999998
30
0.0
11
10245.129999999999
21
72830.770000000004
31
0.0
0
LINE
5
978
100
AcDbEntity
8
1-0
6
CONTINUOUS
62
3
100
AcDbLine
10
10245.129999999999
20
72830.770000000004
30
0.0
11
9940.590000000000
21
73227.839999999997
31
0.0
0
LINE
5
979
100
AcDbEntity
8
1-0
6
CONTINUOUS
62
3
100
AcDbLine
10
9940.590000000000
20
73227.839999999997
30
0.0
11
9638.129999999999
21
73626.490000000005
31
0.0
0
LINE
5
97a
100
AcDbEntity
8
1-0
6
CONTINUOUS
62
3
100
AcDbLine
10
9638.129999999999
20
73626.490000000005
30
0.0
11
9337.840000000000
21
74026.789999999994
31
0.0
0
LINE
5
97b
100
AcDbEntity
8
1-0
6
CONTINUOUS
62
3
100
AcDbLine
10
9337.840000000000
20
74026.789999999994
30
0.0
11
9039.770000000000
21
74428.669999999998
31
0.0
0
LINE
5
97c
100
AcDbEntity
8
1-0
6
CONTINUOUS
62
3
100
AcDbLine
10
9039.770000000000
20
74428.669999999998
30
0.0
11
8743.950000000001
21
74832.240000000005
31
0.0
0
LINE
5
97d
100
AcDbEntity
8
1-0
6
CONTINUOUS
62
3
100
AcDbLine
10
8743.950000000001
20
74832.240000000005
30
0.0
11
8450.490000000000
21
75237.449999999997
31
0.0
0
LINE
5
97e
100
AcDbEntity
8
1-0
6
CONTINUOUS
62
3
100
AcDbLine
10
8450.490000000000
20
75237.449999999997
30
0.0
11
8159.410000000000
21
75644.339999999997
31
0.0
0
LINE
5
97f
100
AcDbEntity
8
1-0
6
CONTINUOUS
62
3
100
AcDbLine
10
8159.410000000000
20
75644.339999999997
30
0.0
11
7870.800000000000
21
76052.910000000003
31
0.0
0
LINE
5
980
100
AcDbEntity
8
1-0
6
CONTINUOUS
62
3
100
AcDbLine
10
7870.800000000000
20
76052.910000000003
30
0.0
11
7584.690000000000
21
76463.220000000001
31
0.0
0
LINE
5
981
100
AcDbEntity
8
1-0
6
CONTINUOUS
62
3
100
AcDbLine
10
7584.690000000000
20
76463.220000000001
30
0.0
11
7301.180000000000
21
76875.240000000005
31
0.0
0
LINE
5
982
100
AcDbEntity
8
1-0
6
CONTINUOUS
62
3
100
AcDbLine
10
7301.180000000000
20
76875.240000000005
30
0.0
11
7020.300000000000
21
77288.990000000005
31
0.0
0
LINE
5
983
100
AcDbEntity
8
1-0
6
CONTINUOUS
62
3
100
AcDbLine
10
7020.300000000000
20
77288.990000000005
30
0.0
11
6742.140000000000
21
77704.520000000004
31
0.0
0
LINE
5
984
100
AcDbEntity
8
1-0
6
CONTINUOUS
62
3
100
AcDbLine
10
6742.140000000000
20
77704.520000000004
30
0.0
11
6466.740000000000
21
78121.820000000007
31
0.0
0
LINE
5
985
100
AcDbEntity
8
1-0
6
CONTINUOUS
62
3
100
AcDbLine
10
6466.740000000000
20
78121.820000000007
30
0.0
11
6194.150000000000
21
78540.919999999998
31
0.0
0
LINE
5
986
100
AcDbEntity
8
1-0
6
CONTINUOUS
62
3
100
AcDbLine
10
6194.150000000000
20
78540.919999999998
30
0.0
11
5924.470000000000
21
78961.809999999998
31
0.0
0
LINE
5
987
100
AcDbEntity
8
1-0
6
CONTINUOUS
62
3
100
AcDbLine
10
5924.470000000000
20
78961.809999999998
30
0.0
11
5657.710000000000
21
79384.539999999994
31
0.0
0
LINE
5
988
100
AcDbEntity
8
1-0
6
CONTINUOUS
62
3
100
AcDbLine
10
5657.710000000000
20
79384.539999999994
30
0.0
11
5393.900000000000
21
79809.080000000002
31
0.0
0
LINE
5
989
100
AcDbEntity
8
1-0
6
CONTINUOUS
62
3
100
AcDbLine
10
5393.900000000000
20
79809.080000000002
30
0.0
11
5132.840000000000
21
80235.309999999998
31
0.0
0
LINE
5
98a
100
AcDbEntity
8
1-0
6
CONTINUOUS
62
3
100
AcDbLine
10
5132.840000000000
20
80235.309999999998
30
0.0
11
4874.350000000000
21
80663.110000000001
31
0.0
0
LINE
5
98b
100
AcDbEntity
8
1-0
6
CONTINUOUS
62
3
100
AcDbLine
10
4874.350000000000
20
80663.110000000001
30
0.0
11
4618.240000000000
21
81092.380000000005
31
0.0
0
LINE
5
98c
100
AcDbEntity
8
1-0
6
CONTINUOUS
62
3
100
AcDbLine
10
4618.240000000000
20
81092.380000000005
30
0.0
11
4364.300000000000
21
81523.000000000000
31
0.0
0
LINE
5
98d
100
AcDbEntity
8
1-0
6
CONTINUOUS
62
3
100
AcDbLine
10
4364.300000000000
20
81523.000000000000
30
0.0
11
4112.380000000000
21
81954.850000000006
31
0.0
0
LINE
5
98e
100
AcDbEntity
8
1-0
6
CONTINUOUS
62
3
100
AcDbLine
10
4112.380000000000
20
81954.850000000006
30
0.0
11
3862.240000000000
21
82387.779999999999
31
0.0
0
LINE
5
98f
100
AcDbEntity
8
1-0
6
CONTINUOUS
62
3
100
AcDbLine
10
3862.240000000000
20
82387.779999999999
30
0.0
11
3613.730000000000
21
82821.729999999996
31
0.0
0
LINE
5
990
100
AcDbEntity
8
1-0
6
CONTINUOUS
62
3
100
AcDbLine
10
3613.730000000000
20
82821.729999999996
30
0.0
11
3366.630000000000
21
83256.520000000004
31
0.0
0
LINE
5
991
100
AcDbEntity
8
1-0
6
CONTINUOUS
62
3
100
AcDbLine
10
3366.630000000000
20
83256.520000000004
30
0.0
11
3120.790000000000
21
83692.100000000006
31
0.0
0
LINE
5
992
100
AcDbEntity
8
1-0
6
CONTINUOUS
62
3
100
AcDbLine
10
3120.790000000000
20
83692.100000000006
30
0.0
11
2875.970000000000
21
84128.309999999998
31
0.0
0
LINE
5
993
100
AcDbEntity
8
1-0
6
CONTINUOUS
62
3
100
AcDbLine
10
2875.970000000000
20
84128.309999999998
30
0.0
11
2631.990000000000
21
84565.039999999994
31
0.0
0
LINE
5
994
100
AcDbEntity
8
1-0
6
CONTINUOUS
62
3
100
AcDbLine
10
2631.990000000000
20
84565.039999999994
30
0.0
11
2388.690000000000
21
85002.169999999998
31
0.0
0
LINE
5
995
100
AcDbEntity
8
1-0
6
CONTINUOUS
62
3
100
AcDbLine
10
2388.690000000000
20
85002.169999999998
30
0.0
11
2145.860000000000
21
85439.600000000006
31
0.0
0
LINE
5
996
100
AcDbEntity
8
1-0
6
CONTINUOUS
62
3
100
AcDbLine
10
2145.860000000000
20
85439.600000000006
30
0.0
11
1903.300000000000
21
85877.190000000002
31
0.0
0
LINE
5
997
100
AcDbEntity
8
1-0
6
CONTINUOUS
62
3
100
AcDbLine
10
1903.300000000000
20
85877.190000000002
30
0.0
11
1790.310000000000
21
86081.139999999999
31
0.0
0
CIRCLE
5
998
100
AcDbEntity
8
1-0
6
CONTINUOUS
62
4
100
AcDbCircle
10
17162.209999999999
20
44722.430000000000
30
0.0
40
99.999999069885
0
CIRCLE
5
999
100
AcDbEntity
8
1-0
6
CONTINUOUS
62
4
100
AcDbCircle
10
66794.429999999993
20
30123.709999999999
30
0.0
40
299.999997209656
0
CIRCLE
5
99a
100
AcDbEntity
8
1-0
6
CONTINUOUS
62
4
100
AcDbCircle
10
61948.180000000000
20
55668.070000000000
30
0.0
40
299.999997209656
0
CIRCLE
5
99b
100
AcDbEntity
8
1-0
6
CONTINUOUS
62
4
100
AcDbCircle
10
8756.410000000000
20
50202.629999999997
30
0.0
40
99.999999069885
0
CIRCLE
5
99c
100
AcDbEntity
8
1-0
6
CONTINUOUS
62
4
100
AcDbCircle
10
61948.180000000000
20
55668.070000000000
30
0.0
40
99.999999069885
0
CIRCLE
5
99d
100
AcDbEntity
8
1-0
6
CONTINUOUS
62
4
100
AcDbCircle
10
66794.429999999993
20
30123.709999999999
30
0.0
40
99.999999069885
0
CIRCLE
5
99e
100
AcDbEntity
8
1-0
6
CONTINUOUS
62
4
100
AcDbCircle
10
1279.570000000000
20
56495.449999999997
30
0.0
40
99.999999069885
0
CIRCLE
5
99f
100
AcDbEntity
8
1-0
6
CONTINUOUS
62
4
100
AcDbCircle
10
26561.740000000002
20
40550.500000000000
30
0.0
40
99.999999069885
0
CIRCLE
5
9a0
100
AcDbEntity
8
1-0
6
CONTINUOUS
62
4
100
AcDbCircle
10
35834.050000000003
20
36349.750000000000
30
0.0
40
99.999999069885
0
CIRCLE
5
9a1
100
AcDbEntity
8
1-0
6
CONTINUOUS
62
4
100
AcDbCircle
10
45092.830000000002
20
32428.119999999999
30
0.0
40
99.999999069885
0
CIRCLE
5
9a2
100
AcDbEntity
8
1-0
6
CONTINUOUS
62
4
100
AcDbCircle
10
55125.080000000002
20
30390.090000000000
30
0.0
40
99.999999069885
0
CIRCLE
5
9a3
100
AcDbEntity
8
1-0
6
CONTINUOUS
62
4
100
AcDbCircle
10
64339.099999999999
20
29653.160000000000
30
0.0
40
99.999999069885
0
CIRCLE
5
9a4
100
AcDbEntity
8
1-0
6
CONTINUOUS
62
4
100
AcDbCircle
10
73262.429999999993
20
25113.730000000000
30
0.0
40
99.999999069885
0
CIRCLE
5
9a5
100
AcDbEntity
8
1-0
6
CONTINUOUS
62
4
100
AcDbCircle
10
82441.979999999996
20
20749.799999999999
30
0.0
40
99.999999069885
0
TEXT
5
9a6
100
AcDbEntity
8
1-0
62
2
100
AcDbText
10
74316.160
20
31725.050
30
0.0
40
390.000
1
（8.46）
41
1.050
50
270.000
100
AcDbText
0
TEXT
5
9a7
100
AcDbEntity
8
1-0
62
2
100
AcDbText
10
40384.460
20
51679.580
30
0.0
40
390.000
1
（7.30）
41
1.050
50
270.000
100
AcDbText
0
TEXT
5
9a8
100
AcDbEntity
8
1-0
62
2
100
AcDbText
10
31051.370
20
49438.340
30
0.0
40
390.000
1
8.02
41
1.050
50
270.000
100
AcDbText
0
TEXT
5
9a9
100
AcDbEntity
8
1-0
62
2
100
AcDbText
10
40907.090
20
51301.500
30
0.0
40
390.000
1
7.93
41
1.050
50
270.000
100
AcDbText
0
TEXT
5
9aa
100
AcDbEntity
8
1-0
62
6
100
AcDbText
10
55328.950
20
41734.900
30
0.0
40
585.000
1
大　沢　池
41
1.083
50
0.000
100
AcDbText
0
TEXT
5
9ab
100
AcDbEntity
8
1-0
62
2
100
AcDbText
10
75119.450
20
31068.870
30
0.0
40
390.000
1
8.46
41
1.050
50
270.000
100
AcDbText
0
TEXT
5
9ac
100
AcDbEntity
8
1-0
62
2
100
AcDbText
10
60028.970
20
55396.320
30
0.0
40
390.000
1
（7.53）
41
1.050
50
270.000
100
AcDbText
0
TEXT
5
9ad
100
AcDbEntity
8
1-0
62
2
100
AcDbText
10
60567.110
20
54949.770
30
0.0
40
390.000
1
8.07
41
1.050
50
270.000
100
AcDbText
0
TEXT
5
9ae
100
AcDbEntity
8
1-0
62
2
100
AcDbText
10
80234.070
20
58766.370
30
0.0
40
390.000
1
8.34
41
1.050
50
270.000
100
AcDbText
0
TEXT
5
9af
100
AcDbEntity
8
1-0
62
2
100
AcDbText
10
50736.830
20
53188.660
30
0.0
40
390.000
1
8.03
41
1.050
50
270.000
100
AcDbText
0
TEXT
5
9b0
100
AcDbEntity
8
1-0
62
2
100
AcDbText
10
79605.200
20
59125.730
30
0.0
40
390.000
1
（8.10）
41
1.050
50
270.000
100
AcDbText
0
TEXT
5
9b1
100
AcDbEntity
8
1-0
62
2
100
AcDbText
10
70373.400
20
56829.550
30
0.0
40
390.000
1
8.17
41
1.050
50
270.000
100
AcDbText
0
TEXT
5
9b2
100
AcDbEntity
8
1-0
62
2
100
AcDbText
10
30491.530
20
49811.570
30
0.0
40
390.000
1
（7.47）
41
1.050
50
270.000
100
AcDbText
0
TEXT
5
9b3
100
AcDbEntity
8
1-0
62
2
100
AcDbText
10
26377.470
20
40291.530
30
0.0
40
390.000
1
T-13
41
1.050
50
270.000
100
AcDbText
0
TEXT
5
9b4
100
AcDbEntity
8
1-0
62
2
100
AcDbText
10
73068.560
20
24865.710
30
0.0
40
390.000
1
T-8
41
1.050
50
270.000
100
AcDbText
0
TEXT
5
9b5
100
AcDbEntity
8
1-0
62
2
100
AcDbText
10
16979.010
20
44422.630
30
0.0
40
390.000
1
T-14
41
1.050
50
270.000
100
AcDbText
0
TEXT
5
9b6
100
AcDbEntity
8
1-0
62
2
100
AcDbText
10
54951.970
20
30077.750
30
0.0
40
390.000
1
T-10
41
1.050
50
270.000
100
AcDbText
0
TEXT
5
9b7
100
AcDbEntity
8
1-0
62
2
100
AcDbText
10
44912.720
20
32149.020
30
0.0
40
390.000
1
T-11
41
1.050
50
270.000
100
AcDbText
0
TEXT
5
9b8
100
AcDbEntity
8
1-0
62
2
100
AcDbText
10
35636.440
20
36074.400
30
0.0
40
390.000
1
T-12
41
1.050
50
270.000
100
AcDbText
0
TEXT
5
9b9
100
AcDbEntity
8
1-0
62
2
100
AcDbText
10
63156.150
20
56138.810
30
0.0
40
390.000
1
No.1
41
1.050
50
191.310
100
AcDbText
0
TEXT
5
9ba
100
AcDbEntity
8
1-0
62
2
100
AcDbText
10
63632.860
20
30051.020
30
0.0
40
390.000
1
T-9
41
1.050
50
270.000
100
AcDbText
0
TEXT
5
9bb
100
AcDbEntity
8
1-0
62
2
100
AcDbText
10
67300.160
20
29705.550
30
0.0
40
390.000
1
No.0
41
1.050
50
191.310
100
AcDbText
0
TEXT
5
9bc
100
AcDbEntity
8
1-0
62
2
100
AcDbText
10
8551.520
20
49889.740
30
0.0
40
390.000
1
T-15
41
1.050
50
270.000
100
AcDbText
0
TEXT
5
9bd
100
AcDbEntity
8
1-0
62
2
100
AcDbText
10
82250.580
20
20453.650
30
0.0
40
390.000
1
T-7
41
1.050
50
270.000
100
AcDbText
0
TEXT
5
9be
100
AcDbEntity
8
1-0
62
2
100
AcDbText
10
1095.010
20
56240.710
30
0.0
40
390.000
1
T-16
41
1.050
50
270.000
100
AcDbText
0
TEXT
5
9bf
100
AcDbEntity
8
1-0
62
3
100
AcDbText
10
3738.120
20
4142.510
30
0.0
40
292.500
1
調
41
1.000
50
0.000
100
AcDbText
0
TEXT
5
9c0
100
AcDbEntity
8
1-0
62
3
100
AcDbText
10
4908.120
20
4142.510
30
0.0
40
292.500
1
製
41
1.000
50
0.000
100
AcDbText
0
TEXT
5
9c1
100
AcDbEntity
8
1-0
62
3
100
AcDbText
10
3738.120
20
3580.010
30
0.0
40
292.500
1
作
41
1.000
50
0.000
100
AcDbText
0
TEXT
5
9c2
100
AcDbEntity
8
1-0
62
3
100
AcDbText
10
4128.120
20
3580.010
30
0.0
40
292.500
1
業
41
1.000
50
0.000
100
AcDbText
0
TEXT
5
9c3
100
AcDbEntity
8
1-0
62
3
100
AcDbText
10
4518.120
20
3580.010
30
0.0
40
292.500
1
機
41
1.000
50
0.000
100
AcDbText
0
TEXT
5
9c4
100
AcDbEntity
8
1-0
62
3
100
AcDbText
10
4908.120
20
3580.010
30
0.0
40
292.500
1
関
41
1.000
50
0.000
100
AcDbText
0
TEXT
5
9c5
100
AcDbEntity
8
1-0
62
3
100
AcDbText
10
6232.250
20
3558.100
30
0.0
40
292.500
1
ソウギョ・バスターズ
41
1.000
50
0.000
100
AcDbText
0
TEXT
5
9c6
100
AcDbEntity
8
1-0
62
3
100
AcDbText
10
3738.120
20
6382.090
30
0.0
40
292.500
1
事
41
1.000
50
0.000
100
AcDbText
0
TEXT
5
9c7
100
AcDbEntity
8
1-0
62
3
100
AcDbText
10
4323.120
20
6382.090
30
0.0
40
292.500
1
業
41
1.000
50
0.000
100
AcDbText
0
TEXT
5
9c8
100
AcDbEntity
8
1-0
62
3
100
AcDbText
10
4908.120
20
6382.090
30
0.0
40
292.500
1
名
41
1.000
50
0.000
100
AcDbText
0
TEXT
5
9c9
100
AcDbEntity
8
1-0
62
3
100
AcDbText
10
6133.520
20
5245.900
30
0.0
40
292.500
1
100
41
1.000
50
0.000
100
AcDbText
0
TEXT
5
9ca
100
AcDbEntity
8
1-0
62
3
100
AcDbText
10
5814.070
20
5245.900
30
0.0
40
292.500
1
1/
41
1.000
50
0.000
100
AcDbText
0
TEXT
5
9cb
100
AcDbEntity
8
1-0
62
3
100
AcDbText
10
7472.070
20
5245.900
30
0.0
40
292.500
1
図面番号
41
1.000
50
0.000
100
AcDbText
0
TEXT
5
9cc
100
AcDbEntity
8
1-0
62
3
100
AcDbText
10
5468.340
20
4683.100
30
0.0
40
292.500
1
平成13年8月17日～平成17年11月6日
41
1.000
50
0.000
100
AcDbText
0
TEXT
5
9cd
100
AcDbEntity
8
1-0
62
3
100
AcDbText
10
6648.900
20
4120.600
30
0.0
40
292.500
1
平成17年12月1日
41
1.000
50
0.000
100
AcDbText
0
TEXT
5
9ce
100
AcDbEntity
8
1-0
62
3
100
AcDbText
10
6510.020
20
5797.680
30
0.0
40
292.500
1
樋門現況平面図
41
1.000
50
0.000
100
AcDbText
0
TEXT
5
9cf
100
AcDbEntity
8
1-0
62
3
100
AcDbText
10
3738.120
20
5819.590
30
0.0
40
292.500
1
図
41
1.000
50
0.000
100
AcDbText
0
TEXT
5
9d0
100
AcDbEntity
8
1-0
62
3
100
AcDbText
10
4323.120
20
5819.590
30
0.0
40
292.500
1
面
41
1.000
50
0.000
100
AcDbText
0
TEXT
5
9d1
100
AcDbEntity
8
1-0
62
3
100
AcDbText
10
4908.120
20
5819.590
30
0.0
40
292.500
1
名
41
1.000
50
0.000
100
AcDbText
0
TEXT
5
9d2
100
AcDbEntity
8
1-0
62
3
100
AcDbText
10
3738.120
20
5262.300
30
0.0
40
292.500
1
縮
41
1.000
50
0.000
100
AcDbText
0
TEXT
5
9d3
100
AcDbEntity
8
1-0
62
3
100
AcDbText
10
4908.120
20
5262.300
30
0.0
40
292.500
1
尺
41
1.000
50
0.000
100
AcDbText
0
TEXT
5
9d4
100
AcDbEntity
8
1-0
62
3
100
AcDbText
10
5785.230
20
6345.530
30
0.0
40
292.500
1
大沢の池環境管理プロジェクト
41
1.000
50
0.000
100
AcDbText
0
TEXT
5
9d5
100
AcDbEntity
8
1-0
62
7
100
AcDbText
10
11934.440
20
14403.840
30
0.0
40
195.000
1
2
41
1.000
50
0.000
100
AcDbText
0
TEXT
5
9d6
100
AcDbEntity
8
1-0
62
6
100
AcDbText
10
8339.450
20
16754.750
30
0.0
40
585.000
1
縮尺 壱百分之壱
41
1.083
50
0.000
100
AcDbText
0
TEXT
5
9d7
100
AcDbEntity
8
1-0
62
7
100
AcDbText
10
12934.780
20
14410.250
30
0.0
40
195.000
1
3
41
1.000
50
0.000
100
AcDbText
0
TEXT
5
9d8
100
AcDbEntity
8
1-0
62
2
100
AcDbText
10
69846.260
20
57273.020
30
0.0
40
390.000
1
（7.81）
41
1.050
50
270.000
100
AcDbText
0
TEXT
5
9d9
100
AcDbEntity
8
1-0
62
2
100
AcDbText
10
50171.370
20
53565.640
30
0.0
40
390.000
1
（7.41）
41
1.050
50
270.000
100
AcDbText
0
TEXT
5
9da
100
AcDbEntity
8
1-0
62
7
100
AcDbText
10
8939.850
20
14423.070
30
0.0
40
195.000
1
1
41
1.000
50
0.000
100
AcDbText
0
TEXT
5
9db
100
AcDbEntity
8
1-0
62
7
100
AcDbText
10
9973.670
20
14431.780
30
0.0
40
195.000
1
0
41
1.000
50
0.000
100
AcDbText
0
TEXT
5
9dc
100
AcDbEntity
8
1-0
62
3
100
AcDbText
10
10371.780
20
14935.530
30
0.0
40
341.250
1
Scale　1/100
41
1.000
50
0.000
100
AcDbText
0
TEXT
5
9dd
100
AcDbEntity
8
1-0
62
3
100
AcDbText
10
3738.120
20
4705.010
30
0.0
40
292.500
1
測
41
1.000
50
0.000
100
AcDbText
0
TEXT
5
9de
100
AcDbEntity
8
1-0
62
3
100
AcDbText
10
4908.120
20
4705.010
30
0.0
40
292.500
1
量
41
1.000
50
0.000
100
AcDbText
0
TEXT
5
9df
100
AcDbEntity
8
1-0
62
6
100
AcDbText
10
6089.210
20
18806.880
30
0.0
40
585.000
1
大覚寺樋門現況平面図
41
1.083
50
0.000
100
AcDbText
0
TEXT
5
9e0
100
AcDbEntity
8
1-0
62
7
100
AcDbText
10
13934.110
20
14410.250
30
0.0
40
195.000
1
4 m
41
1.000
50
0.000
100
AcDbText
0
TEXT
5
9e1
100
AcDbEntity
8
1-0
62
7
100
AcDbText
10
10934.110
20
14410.250
30
0.0
40
195.000
1
1
41
1.000
50
0.000
100
AcDbText
0
POINT
5
9e2
100
AcDbEntity
8
1-0
62
7
100
AcDbPoint
10
66794.429999999993
20
30123.709999999999
30
0.0
0
POINT
5
9e3
100
AcDbEntity
8
1-0
62
7
100
AcDbPoint
10
61948.180000000000
20
55668.070000000000
30
0.0
0
POINT
5
9e4
100
AcDbEntity
8
1-0
62
7
100
AcDbPoint
10
1279.570000000000
20
56495.449999999997
30
0.0
0
POINT
5
9e5
100
AcDbEntity
8
1-0
62
7
100
AcDbPoint
10
26561.740000000002
20
40550.500000000000
30
0.0
0
POINT
5
9e6
100
AcDbEntity
8
1-0
62
7
100
AcDbPoint
10
70329.139999999999
20
57258.110000000001
30
0.0
0
POINT
5
9e7
100
AcDbEntity
8
1-0
62
7
100
AcDbPoint
10
75190.119999999995
20
31716.540000000001
30
0.0
0
POINT
5
9e8
100
AcDbEntity
8
1-0
62
7
100
AcDbPoint
10
60504.389999999999
20
55394.150000000001
30
0.0
0
POINT
5
9e9
100
AcDbEntity
8
1-0
62
7
100
AcDbPoint
10
80153.889999999999
20
59122.029999999999
30
0.0
0
POINT
5
9ea
100
AcDbEntity
8
1-0
62
7
100
AcDbPoint
10
64339.099999999999
20
29653.160000000000
30
0.0
0
POINT
5
9eb
100
AcDbEntity
8
1-0
62
7
100
AcDbPoint
10
82441.979999999996
20
20749.799999999999
30
0.0
0
POINT
5
9ec
100
AcDbEntity
8
1-0
62
7
100
AcDbPoint
10
73262.429999999993
20
25113.730000000000
30
0.0
0
POINT
5
9ed
100
AcDbEntity
8
1-0
62
7
100
AcDbPoint
10
17162.209999999999
20
44722.430000000000
30
0.0
0
POINT
5
9ee
100
AcDbEntity
8
1-0
62
7
100
AcDbPoint
10
45092.830000000002
20
32428.119999999999
30
0.0
0
POINT
5
9ef
100
AcDbEntity
8
1-0
62
7
100
AcDbPoint
10
55125.080000000002
20
30390.090000000000
30
0.0
0
POINT
5
9f0
100
AcDbEntity
8
1-0
62
7
100
AcDbPoint
10
40854.849999999999
20
51666.279999999999
30
0.0
0
POINT
5
9f1
100
AcDbEntity
8
1-0
62
7
100
AcDbPoint
10
8756.410000000000
20
50202.629999999997
30
0.0
0
POINT
5
9f2
100
AcDbEntity
8
1-0
62
7
100
AcDbPoint
10
35834.050000000003
20
36349.750000000000
30
0.0
0
POINT
5
9f3
100
AcDbEntity
8
1-0
62
7
100
AcDbPoint
10
50679.680000000000
20
53530.230000000003
30
0.0
0
POINT
5
9f4
100
AcDbEntity
8
1-0
62
7
100
AcDbPoint
10
31030.169999999998
20
49802.360000000001
30
0.0
0
ENDSEC
0
EOF
