0
SECTION
2
HEADER
9
$ACADVER
1
AC1009
9
$EXTMIN
10
0.000
20
0.000
30
0.0
9
$EXTMAX
10
84100.000
20
59400.000
30
0.0
9
$LTSCALE
40
100.000
9
$PDMODE
70
0
9
$PDSIZE
40
40.0
0
ENDSEC
0
SECTION
2
TABLES
0
TABLE
2
LTYPE
70
9
0
LTYPE
5
1f4
2
CONTINUOUS
70
64
3
SolidLine
72
65
73
0
40
0.0
0
LTYPE
5
1f5
2
DOT
70
64
3
--  --  --  --  --  --  --  --     
72
65
73
2
40
3.000
49
1.000
49
-2.000
0
LTYPE
5
1f6
2
DASHED
70
64
3
----    ----    ----    ----    
72
65
73
2
40
5.000
49
2.000
49
-3.000
0
LTYPE
5
1f7
2
DASHED2
70
64
3
------  ------  ------  ------ 
72
65
73
2
40
10.000
49
4.000
49
-6.000
0
LTYPE
5
1f8
2
CENTER
70
64
3
----- - ----- - ----- - ----- - 
72
65
73
4
40
10.000
49
6.000
49
-3.000
49
1.000
49
-3.000
0
LTYPE
5
1f9
2
CENTER2
70
64
3
----------  --  ----------  -- 
72
65
73
4
40
17.000
49
12.000
49
-5.000
49
2.000
49
-5.000
0
LTYPE
5
1fa
2
PHANTOM
70
64
3
--- - - --- - - --- - - --- - -
72
65
73
6
40
13.000
49
5.000
49
-3.000
49
1.000
49
-3.000
49
1.000
49
-3.000
0
LTYPE
5
1fb
2
PHANTOM2
70
64
3
--------  -  -  --------  -  -
72
65
73
6
40
20.000
49
6.000
49
-5.000
49
2.000
49
-5.000
49
2.000
49
-5.000
0
LTYPE
5
1fc
2
HIDDEN
70
64
3
-   -   -   -   -   -   -   -   
72
65
73
2
40
3.000
49
0.500
49
-2.500
0
ENDTAB
0
TABLE
2
STYLE
70
1
0
STYLE
5
1fd
100
AcDbSymbolTableRecord
100
AcDbTextStyleTableRecord
2
STANDARD
70
0
40
0.0
41
1.0
50
0.0
71
0
42
0.0
3
txt.shx
4
extfont.shx
0
STYLE
5
1fe
100
AcDbSymbolTableRecord
100
AcDbTextStyleTableRecord
2
TATEGAKI
70
4
40
0.0
41
1.0
50
0.0
71
0
42
0.0
3
txt.shx
4
extfont.shx
0
STYLE
5
1ff
100
AcDbSymbolTableRecord
100
AcDbTextStyleTableRecord
2
DIM
70
0
40
0.0
41
0.75
50
0.0
71
0
42
0.0
3
txt.shx
4
extfont.shx
0
STYLE
5
200
100
AcDbSymbolTableRecord
100
AcDbTextStyleTableRecord
2
_Gothic_
70
0
40
0.0
41
1.0
50
0.0
71
0
42
0.0
3
MS Gothic
4

0
STYLE
5
201
100
AcDbSymbolTableRecord
100
AcDbTextStyleTableRecord
2
_TateGothic_
70
4
40
0.0
41
1.0
50
0.0
71
0
42
0.0
3
@MS Gothic
4

0
ENDTAB
0
TABLE
2
LAYER
5
403
100
AcDbSymbolTable
70
10
0
LAYER
5
404
100
AcDbSymbolTableRecord
100
AcDbLayerTableRecord
2
1-0
70
0
62
7
6
CONTINUOUS
0
LAYER
5
405
100
AcDbSymbolTableRecord
100
AcDbLayerTableRecord
2
2-0
70
0
62
-7
6
CONTINUOUS
0
ENDTAB
0
ENDSEC
0
SECTION
2
ENTITIES
0
LINE
5
406
100
AcDbEntity
8
1-0
6
CONTINUOUS
62
4
100
AcDbLine
10
74129.679999999993
20
4689.710000000000
30
0.0
11
81410.919999999998
21
4689.710000000000
31
0.0
0
LINE
5
407
100
AcDbEntity
8
1-0
6
CONTINUOUS
62
4
100
AcDbLine
10
74129.679999999993
20
4127.210000000000
30
0.0
11
81410.919999999998
21
4127.210000000000
31
0.0
0
LINE
5
408
100
AcDbEntity
8
1-0
6
CONTINUOUS
62
4
100
AcDbLine
10
19627.349999999999
20
55523.290000000001
30
0.0
11
19232.389999999999
21
55286.389999999999
31
0.0
0
LINE
5
409
100
AcDbEntity
8
1-0
6
CONTINUOUS
62
4
100
AcDbLine
10
74129.679999999993
20
5241.800000000000
30
0.0
11
81410.919999999998
21
5241.800000000000
31
0.0
0
LINE
5
40a
100
AcDbEntity
8
1-0
6
CONTINUOUS
62
4
100
AcDbLine
10
74129.679999999993
20
3564.710000000000
30
0.0
11
81410.919999999998
21
3564.710000000000
31
0.0
0
LINE
5
40b
100
AcDbEntity
8
1-0
6
CONTINUOUS
62
4
100
AcDbLine
10
79525.500000000000
20
5241.800000000000
30
0.0
11
79525.500000000000
21
4689.710000000000
31
0.0
0
LINE
5
40c
100
AcDbEntity
8
1-0
6
CONTINUOUS
62
4
100
AcDbLine
10
74129.679999999993
20
6366.800000000000
30
0.0
11
74129.679999999993
21
3002.210000000000
31
0.0
0
LINE
5
40d
100
AcDbEntity
8
1-0
6
CONTINUOUS
62
4
100
AcDbLine
10
81410.919999999998
20
6366.800000000000
30
0.0
11
81410.919999999998
21
3002.210000000000
31
0.0
0
LINE
5
40e
100
AcDbEntity
8
1-0
6
CONTINUOUS
62
4
100
AcDbLine
10
19189.110000000001
20
45798.349999999999
30
0.0
11
19189.110000000001
21
45898.339999999997
31
0.0
0
LINE
5
40f
100
AcDbEntity
8
1-0
6
CONTINUOUS
62
4
100
AcDbLine
10
19627.349999999999
20
54509.739999999998
30
0.0
11
19392.779999999999
21
54900.930000000000
31
0.0
0
LINE
5
410
100
AcDbEntity
8
1-0
6
CONTINUOUS
62
3
100
AcDbLine
10
19627.349999999999
20
54509.739999999998
30
0.0
11
19232.389999999999
21
54746.639999999999
31
0.0
0
LINE
5
411
100
AcDbEntity
8
1-0
6
CONTINUOUS
62
3
100
AcDbLine
10
12310.969999999999
20
54837.320000000000
30
0.0
11
11773.370000000001
21
54837.320000000000
31
0.0
0
LINE
5
412
100
AcDbEntity
8
1-0
6
CONTINUOUS
62
3
100
AcDbLine
10
19120.570000000000
20
53672.519999999997
30
0.0
11
18993.869999999999
21
54889.820000000000
31
0.0
0
LINE
5
413
100
AcDbEntity
8
1-0
6
CONTINUOUS
62
3
100
AcDbLine
10
14102.969999999999
20
54926.919999999998
30
0.0
11
14461.370000000001
21
55016.519999999997
31
0.0
0
LINE
5
414
100
AcDbEntity
8
1-0
6
CONTINUOUS
62
4
100
AcDbLine
10
20912.570000000000
20
55016.519999999997
30
0.0
11
19247.270000000000
21
55143.209999999999
31
0.0
0
LINE
5
415
100
AcDbEntity
8
1-0
6
CONTINUOUS
62
3
100
AcDbLine
10
12310.969999999999
20
55195.709999999999
30
0.0
11
11773.370000000001
21
55195.709999999999
31
0.0
0
LINE
5
416
100
AcDbEntity
8
1-0
6
CONTINUOUS
62
4
100
AcDbLine
10
12848.570000000000
20
55016.519999999997
30
0.0
11
13744.570000000000
21
54926.900000000001
31
0.0
0
LINE
5
417
100
AcDbEntity
8
1-0
6
CONTINUOUS
62
4
100
AcDbLine
10
12848.570000000000
20
55016.519999999997
30
0.0
11
21808.570000000000
21
55016.519999999997
31
0.0
0
LINE
5
418
100
AcDbEntity
8
1-0
6
CONTINUOUS
62
3
100
AcDbLine
10
11773.370000000001
20
54837.320000000000
30
0.0
11
12310.969999999999
21
55195.709999999999
31
0.0
0
LINE
5
419
100
AcDbEntity
8
1-0
6
CONTINUOUS
62
4
100
AcDbLine
10
74129.679999999993
20
6366.800000000000
30
0.0
11
81410.919999999998
21
6366.800000000000
31
0.0
0
LINE
5
41a
100
AcDbEntity
8
1-0
6
CONTINUOUS
62
4
100
AcDbLine
10
15089.110000000001
20
45798.349999999999
30
0.0
11
15089.110000000001
21
45859.699999999997
31
0.0
0
LINE
5
41b
100
AcDbEntity
8
1-0
6
CONTINUOUS
62
4
100
AcDbLine
10
14889.110000000001
20
45798.349999999999
30
0.0
11
14889.110000000001
21
45856.470000000001
31
0.0
0
LINE
5
41c
100
AcDbEntity
8
1-0
6
CONTINUOUS
62
4
100
AcDbLine
10
15189.110000000001
20
45798.349999999999
30
0.0
11
15189.110000000001
21
45898.349999999999
31
0.0
0
LINE
5
41d
100
AcDbEntity
8
1-0
6
CONTINUOUS
62
4
100
AcDbLine
10
14189.110000000001
20
45798.349999999999
30
0.0
11
14189.110000000001
21
45898.349999999999
31
0.0
0
LINE
5
41e
100
AcDbEntity
8
1-0
6
CONTINUOUS
62
4
100
AcDbLine
10
14989.110000000001
20
45798.349999999999
30
0.0
11
14989.110000000001
21
45858.080000000002
31
0.0
0
LINE
5
41f
100
AcDbEntity
8
1-0
6
CONTINUOUS
62
4
100
AcDbLine
10
18689.110000000001
20
45798.349999999999
30
0.0
11
18689.110000000001
21
45879.059999999998
31
0.0
0
LINE
5
420
100
AcDbEntity
8
1-0
6
CONTINUOUS
62
4
100
AcDbLine
10
14589.110000000001
20
45798.349999999999
30
0.0
11
14589.110000000001
21
45856.470000000001
31
0.0
0
LINE
5
421
100
AcDbEntity
8
1-0
6
CONTINUOUS
62
4
100
AcDbLine
10
14189.110000000001
20
45858.349999999999
30
0.0
11
19189.110000000001
21
45858.349999999999
31
0.0
0
LINE
5
422
100
AcDbEntity
8
1-0
6
CONTINUOUS
62
4
100
AcDbLine
10
18189.110000000001
20
45798.349999999999
30
0.0
11
18189.110000000001
21
45898.349999999999
31
0.0
0
LINE
5
423
100
AcDbEntity
8
1-0
6
CONTINUOUS
62
4
100
AcDbLine
10
17189.110000000001
20
45798.349999999999
30
0.0
11
17189.110000000001
21
45898.349999999999
31
0.0
0
LINE
5
424
100
AcDbEntity
8
1-0
6
CONTINUOUS
62
3
100
AcDbLine
10
8818.120000000001
20
23067.619999999999
30
0.0
11
8386.370000000001
21
22865.779999999999
31
0.0
0
LINE
5
425
100
AcDbEntity
8
1-0
6
CONTINUOUS
62
3
100
AcDbLine
10
6748.030000000000
20
22612.470000000001
30
0.0
11
8818.120000000001
21
23067.619999999999
31
0.0
0
LINE
5
426
100
AcDbEntity
8
1-0
6
CONTINUOUS
62
3
100
AcDbLine
10
77937.399999999994
20
11733.520000000000
30
0.0
11
77471.690000000002
21
11632.209999999999
31
0.0
0
LINE
5
427
100
AcDbEntity
8
1-0
6
CONTINUOUS
62
3
100
AcDbLine
10
75817.910000000003
20
11747.660000000000
30
0.0
11
77937.399999999994
21
11733.520000000000
31
0.0
0
LINE
5
428
100
AcDbEntity
8
1-0
6
CONTINUOUS
62
4
100
AcDbLine
10
74129.679999999993
20
3002.210000000000
30
0.0
11
81410.919999999998
21
3002.210000000000
31
0.0
0
LINE
5
429
100
AcDbEntity
8
1-0
6
CONTINUOUS
62
4
100
AcDbLine
10
75681.740000000005
20
6366.800000000000
30
0.0
11
75681.740000000005
21
3002.210000000000
31
0.0
0
LINE
5
42a
100
AcDbEntity
8
1-0
6
CONTINUOUS
62
4
100
AcDbLine
10
16689.110000000001
20
45798.349999999999
30
0.0
11
16689.110000000001
21
45879.059999999998
31
0.0
0
LINE
5
42b
100
AcDbEntity
8
1-0
6
CONTINUOUS
62
4
100
AcDbLine
10
77640.080000000002
20
5241.800000000000
30
0.0
11
77640.080000000002
21
4689.710000000000
31
0.0
0
LINE
5
42c
100
AcDbEntity
8
1-0
6
CONTINUOUS
62
4
100
AcDbLine
10
74129.679999999993
20
5804.300000000000
30
0.0
11
81410.919999999998
21
5804.300000000000
31
0.0
0
LINE
5
42d
100
AcDbEntity
8
1-0
6
CONTINUOUS
62
3
100
AcDbLine
10
11824.379999999999
20
24089.680000000000
30
0.0
11
9538.370000000001
21
24216.669999999998
31
0.0
0
LINE
5
42e
100
AcDbEntity
8
1-0
6
CONTINUOUS
62
3
100
AcDbLine
10
38969.129999999997
20
15970.680000000000
30
0.0
11
42414.110000000001
21
14561.110000000001
31
0.0
0
LINE
5
42f
100
AcDbEntity
8
1-0
6
CONTINUOUS
62
3
100
AcDbLine
10
58122.989999999998
20
19159.689999999999
30
0.0
11
54699.550000000003
21
19362.560000000001
31
0.0
0
LINE
5
430
100
AcDbEntity
8
1-0
6
CONTINUOUS
62
3
100
AcDbLine
10
42548.779999999999
20
15046.240000000000
30
0.0
11
39180.379999999997
21
16424.490000000002
31
0.0
0
LINE
5
431
100
AcDbEntity
8
1-0
6
CONTINUOUS
62
4
100
AcDbLine
10
16189.110000000001
20
45798.349999999999
30
0.0
11
16189.110000000001
21
45898.349999999999
31
0.0
0
LINE
5
432
100
AcDbEntity
8
1-0
6
CONTINUOUS
62
4
100
AcDbLine
10
19120.570000000000
20
53672.519999999997
30
0.0
11
19247.270000000000
21
54889.820000000000
31
0.0
0
LINE
5
433
100
AcDbEntity
8
1-0
6
CONTINUOUS
62
4
100
AcDbLine
10
18486.919999999998
20
54382.860000000001
30
0.0
11
19754.220000000001
21
55650.169999999998
31
0.0
0
LINE
5
434
100
AcDbEntity
8
1-0
6
CONTINUOUS
62
4
100
AcDbLine
10
15689.110000000001
20
45798.349999999999
30
0.0
11
15689.110000000001
21
45879.059999999998
31
0.0
0
LINE
5
435
100
AcDbEntity
8
1-0
6
CONTINUOUS
62
3
100
AcDbLine
10
11824.379999999999
20
24089.680000000000
30
0.0
11
15266.879999999999
21
23582.470000000001
31
0.0
0
LINE
5
436
100
AcDbEntity
8
1-0
6
CONTINUOUS
62
4
100
AcDbLine
10
7900.340000000000
20
44067.349999999999
30
0.0
11
8105.870000000000
21
44191.239999999998
31
0.0
0
LINE
5
437
100
AcDbEntity
8
1-0
6
CONTINUOUS
62
4
100
AcDbLine
10
6761.910000000000
20
46093.250000000000
30
0.0
11
6820.840000000000
21
45988.730000000003
31
0.0
0
LINE
5
438
100
AcDbEntity
8
1-0
6
CONTINUOUS
62
4
100
AcDbLine
10
11715.639999999999
20
38483.970000000001
30
0.0
11
11793.740000000000
21
38392.870000000003
31
0.0
0
LINE
5
439
100
AcDbEntity
8
1-0
6
CONTINUOUS
62
3
100
AcDbLine
10
13137.950000000001
20
37271.930000000000
30
0.0
11
10458.900000000000
21
40410.239999999998
31
0.0
0
LINE
5
43a
100
AcDbEntity
8
1-0
6
CONTINUOUS
62
4
100
AcDbLine
10
11591.990000000000
20
38536.040000000001
30
0.0
11
11826.270000000000
21
38262.709999999999
31
0.0
0
LINE
5
43b
100
AcDbEntity
8
1-0
6
CONTINUOUS
62
3
100
AcDbLine
10
11622.790000000001
20
22097.790000000001
30
0.0
11
14975.350000000000
21
21603.830000000002
31
0.0
0
LINE
5
43c
100
AcDbEntity
8
1-0
6
CONTINUOUS
62
3
100
AcDbLine
10
9681.540000000001
20
22205.619999999999
30
0.0
11
6886.050000000000
21
21645.799999999999
31
0.0
0
LINE
5
43d
100
AcDbEntity
8
1-0
6
CONTINUOUS
62
3
100
AcDbLine
10
55100.239999999998
20
13581.740000000000
30
0.0
11
49139.940000000002
21
13529.719999999999
31
0.0
0
LINE
5
43e
100
AcDbEntity
8
1-0
6
CONTINUOUS
62
3
100
AcDbLine
10
6493.340000000000
20
23606.869999999999
30
0.0
11
9538.370000000001
21
24216.669999999998
31
0.0
0
LINE
5
43f
100
AcDbEntity
8
1-0
6
CONTINUOUS
62
4
100
AcDbLine
10
19120.570000000000
20
56360.510000000002
30
0.0
11
18993.869999999999
21
55143.209999999999
31
0.0
0
LINE
5
440
100
AcDbEntity
8
1-0
6
CONTINUOUS
62
3
100
AcDbLine
10
18613.799999999999
20
54509.739999999998
30
0.0
11
18845.150000000001
21
54895.190000000002
31
0.0
0
LINE
5
441
100
AcDbEntity
8
1-0
6
CONTINUOUS
62
4
100
AcDbLine
10
13744.570000000000
20
54926.900000000001
30
0.0
11
14102.969999999999
21
55106.120000000003
31
0.0
0
LINE
5
442
100
AcDbEntity
8
1-0
6
CONTINUOUS
62
4
100
AcDbLine
10
14689.110000000001
20
45798.349999999999
30
0.0
11
14689.110000000001
21
45879.059999999998
31
0.0
0
LINE
5
443
100
AcDbEntity
8
1-0
6
CONTINUOUS
62
3
100
AcDbLine
10
19627.349999999999
20
55523.290000000001
30
0.0
11
19392.779999999999
21
55132.099999999999
31
0.0
0
LINE
5
444
100
AcDbEntity
8
1-0
6
CONTINUOUS
62
3
100
AcDbLine
10
18613.790000000001
20
55523.300000000003
30
0.0
11
19008.750000000000
21
55286.389999999999
31
0.0
0
LINE
5
445
100
AcDbEntity
8
1-0
6
CONTINUOUS
62
4
100
AcDbLine
10
14389.110000000001
20
45798.349999999999
30
0.0
11
14389.110000000001
21
45856.470000000001
31
0.0
0
LINE
5
446
100
AcDbEntity
8
1-0
6
CONTINUOUS
62
4
100
AcDbLine
10
18486.919999999998
20
55650.169999999998
30
0.0
11
19754.220000000001
21
54382.860000000001
31
0.0
0
LINE
5
447
100
AcDbEntity
8
1-0
6
CONTINUOUS
62
3
100
AcDbLine
10
19120.570000000000
20
56360.510000000002
30
0.0
11
19247.270000000000
21
55143.209999999999
31
0.0
0
LINE
5
448
100
AcDbEntity
8
1-0
6
CONTINUOUS
62
4
100
AcDbLine
10
19120.570000000000
20
53224.519999999997
30
0.0
11
19120.570000000000
21
56808.519999999997
31
0.0
0
LINE
5
449
100
AcDbEntity
8
1-0
6
CONTINUOUS
62
4
100
AcDbLine
10
16689.110000000001
20
45798.349999999999
30
0.0
11
16689.110000000001
21
45879.059999999998
31
0.0
0
LINE
5
44a
100
AcDbEntity
8
1-0
6
CONTINUOUS
62
4
100
AcDbLine
10
18613.799999999999
20
54509.739999999998
30
0.0
11
19008.750000000000
21
54746.629999999997
31
0.0
0
LINE
5
44b
100
AcDbEntity
8
1-0
6
CONTINUOUS
62
3
100
AcDbLine
10
15536.580000000000
20
55016.519999999997
30
0.0
11
18993.869999999999
21
55143.209999999999
31
0.0
0
LINE
5
44c
100
AcDbEntity
8
1-0
6
CONTINUOUS
62
3
100
AcDbLine
10
20912.570000000000
20
55016.519999999997
30
0.0
11
19247.270000000000
21
54889.820000000000
31
0.0
0
LINE
5
44d
100
AcDbEntity
8
1-0
6
CONTINUOUS
62
4
100
AcDbLine
10
18613.790000000001
20
55523.300000000003
30
0.0
11
18845.150000000001
21
55137.839999999997
31
0.0
0
LINE
5
44e
100
AcDbEntity
8
1-0
6
CONTINUOUS
62
4
100
AcDbLine
10
15536.580000000000
20
55016.519999999997
30
0.0
11
18993.869999999999
21
54889.820000000000
31
0.0
0
LINE
5
44f
100
AcDbEntity
8
1-0
6
CONTINUOUS
62
4
100
AcDbLine
10
16689.110000000001
20
45798.349999999999
30
0.0
11
16689.110000000001
21
45879.059999999998
31
0.0
0
LINE
5
450
100
AcDbEntity
8
1-0
6
CONTINUOUS
62
3
100
AcDbLine
10
12848.570000000000
20
55016.519999999997
30
0.0
11
13744.570000000000
21
55106.120000000003
31
0.0
0
LINE
5
451
100
AcDbEntity
8
1-0
6
CONTINUOUS
62
4
100
AcDbLine
10
14102.969999999999
20
55106.120000000003
30
0.0
11
14461.370000000001
21
55016.519999999997
31
0.0
0
LINE
5
452
100
AcDbEntity
8
1-0
6
CONTINUOUS
62
3
100
AcDbLine
10
13744.570000000000
20
55106.120000000003
30
0.0
11
14102.969999999999
21
54926.919999999998
31
0.0
0
LINE
5
453
100
AcDbEntity
8
1-0
6
DASHED2
62
3
100
AcDbLine
10
29694.509999999998
20
19633.930000000000
30
0.0
11
29820.150000000001
21
19600.639999999999
31
0.0
0
LINE
5
454
100
AcDbEntity
8
1-0
6
CONTINUOUS
62
4
100
AcDbLine
10
81361.990000000005
20
34218.010000000002
30
0.0
11
81424.100000000006
21
34296.400000000001
31
0.0
0
LINE
5
455
100
AcDbEntity
8
1-0
6
CONTINUOUS
62
3
100
AcDbLine
10
38969.129999999997
20
15970.680000000000
30
0.0
11
40243.910000000003
21
18689.889999999999
31
0.0
0
LINE
5
456
100
AcDbEntity
8
1-0
6
CONTINUOUS
62
3
100
AcDbLine
10
55132.820000000000
20
14082.049999999999
30
0.0
11
49135.580000000002
21
14029.700000000001
31
0.0
0
LINE
5
457
100
AcDbEntity
8
1-0
6
CONTINUOUS
62
3
100
AcDbLine
10
33873.269999999997
20
20595.770000000000
30
0.0
11
38377.339999999997
21
18918.520000000000
31
0.0
0
LINE
5
458
100
AcDbEntity
8
1-0
6
CONTINUOUS
62
3
100
AcDbLine
10
29748.160000000000
20
19102.470000000001
30
0.0
11
33115.089999999997
21
18210.389999999999
31
0.0
0
LINE
5
459
100
AcDbEntity
8
1-0
6
DASHED2
62
3
100
AcDbLine
10
29596.950000000001
20
19142.529999999999
30
0.0
11
29748.160000000000
21
19102.470000000001
31
0.0
0
LINE
5
45a
100
AcDbEntity
8
1-0
6
CONTINUOUS
62
3
100
AcDbLine
10
71005.240000000005
20
9232.090000000000
30
0.0
11
70757.759999999995
21
8499.680000000000
31
0.0
0
LINE
5
45b
100
AcDbEntity
8
1-0
6
CONTINUOUS
62
3
100
AcDbLine
10
70584.080000000002
20
5795.490000000000
30
0.0
11
71005.240000000005
21
9232.090000000000
31
0.0
0
LINE
5
45c
100
AcDbEntity
8
1-0
6
CONTINUOUS
62
3
100
AcDbLine
10
9717.310000000000
20
21702.860000000001
30
0.0
11
11572.410000000000
21
21599.820000000000
31
0.0
0
LINE
5
45d
100
AcDbEntity
8
1-0
6
DASHED
62
3
100
AcDbLine
10
29694.509999999998
20
19633.930000000000
30
0.0
11
15001.610000000001
21
21600.130000000001
31
0.0
0
LINE
5
45e
100
AcDbEntity
8
1-0
6
CONTINUOUS
62
3
100
AcDbLine
10
71412.860000000001
20
26765.590000000000
30
0.0
11
78488.020000000004
21
31018.500000000000
31
0.0
0
LINE
5
45f
100
AcDbEntity
8
1-0
6
CONTINUOUS
62
3
100
AcDbLine
10
11572.410000000000
20
21599.820000000000
30
0.0
11
14902.469999999999
21
21109.169999999998
31
0.0
0
LINE
5
460
100
AcDbEntity
8
1-0
6
CONTINUOUS
62
3
100
AcDbLine
10
3793.920000000000
20
20291.080000000002
30
0.0
11
7143.270000000000
21
21192.830000000002
31
0.0
0
LINE
5
461
100
AcDbEntity
8
1-0
6
CONTINUOUS
62
3
100
AcDbLine
10
19063.360000000001
20
32471.669999999998
30
0.0
11
16269.350000000000
21
34630.669999999998
31
0.0
0
LINE
5
462
100
AcDbEntity
8
1-0
6
CONTINUOUS
62
3
100
AcDbLine
10
42548.779999999999
20
15046.240000000000
30
0.0
11
49135.580000000002
21
14029.700000000001
31
0.0
0
LINE
5
463
100
AcDbEntity
8
1-0
6
CONTINUOUS
62
4
100
AcDbLine
10
81393.039999999994
20
34257.199999999997
30
0.0
11
81216.669999999998
21
34396.910000000003
31
0.0
0
LINE
5
464
100
AcDbEntity
8
1-0
6
CONTINUOUS
62
3
100
AcDbLine
10
43049.070000000000
20
16992.709999999999
30
0.0
11
49280.690000000002
21
16031.040000000001
31
0.0
0
LINE
5
465
100
AcDbEntity
8
1-0
6
CONTINUOUS
62
3
100
AcDbLine
10
55263.269999999997
20
16083.270000000000
30
0.0
11
49280.690000000002
21
16031.040000000001
31
0.0
0
LINE
5
466
100
AcDbEntity
8
1-0
6
CONTINUOUS
62
3
100
AcDbLine
10
30182.340000000000
20
22090.939999999999
30
0.0
11
34024.930000000000
21
21072.830000000002
31
0.0
0
LINE
5
467
100
AcDbEntity
8
1-0
6
CONTINUOUS
62
3
100
AcDbLine
10
46008.279999999999
20
27178.910000000000
30
0.0
11
39267.570000000000
21
28263.119999999999
31
0.0
0
LINE
5
468
100
AcDbEntity
8
1-0
6
CONTINUOUS
62
3
100
AcDbLine
10
38559.959999999999
20
19384.060000000001
30
0.0
11
34024.930000000000
21
21072.830000000002
31
0.0
0
LINE
5
469
100
AcDbEntity
8
1-0
6
CONTINUOUS
62
3
100
AcDbLine
10
54348.279999999999
20
25266.869999999999
30
0.0
11
51860.250000000000
21
25452.360000000001
31
0.0
0
LINE
5
46a
100
AcDbEntity
8
1-0
6
CONTINUOUS
62
2
100
AcDbLine
10
55121.250000000000
20
21406.130000000001
30
0.0
11
55305.989999999998
21
24523.580000000002
31
0.0
0
LINE
5
46b
100
AcDbEntity
8
1-0
6
CONTINUOUS
62
3
100
AcDbLine
10
55577.110000000001
20
21380.049999999999
30
0.0
11
55760.889999999999
21
24481.410000000000
31
0.0
0
LINE
5
46c
100
AcDbEntity
8
1-0
6
CONTINUOUS
62
3
100
AcDbLine
10
47661.449999999997
20
26939.320000000000
30
0.0
11
46008.279999999999
21
27178.910000000000
31
0.0
0
LINE
5
46d
100
AcDbEntity
8
1-0
6
CONTINUOUS
62
3
100
AcDbLine
10
39267.570000000000
20
28263.119999999999
30
0.0
11
31888.560000000001
21
29722.779999999999
31
0.0
0
LINE
5
46e
100
AcDbEntity
8
1-0
6
CONTINUOUS
62
2
100
AcDbLine
10
54835.019999999997
20
16579.549999999999
30
0.0
11
54999.129999999997
21
19345.240000000002
31
0.0
0
LINE
5
46f
100
AcDbEntity
8
1-0
6
CONTINUOUS
62
3
100
AcDbLine
10
50205.760000000002
20
26453.520000000000
30
0.0
11
47661.449999999997
21
26939.320000000000
31
0.0
0
LINE
5
470
100
AcDbEntity
8
1-0
6
CONTINUOUS
62
3
100
AcDbLine
10
66700.110000000001
20
11590.969999999999
30
0.0
11
68351.550000000003
21
11388.590000000000
31
0.0
0
LINE
5
471
100
AcDbEntity
8
1-0
6
CONTINUOUS
62
2
100
AcDbLine
10
57650.339999999997
20
16254.320000000000
30
0.0
11
57823.540000000001
21
19177.000000000000
31
0.0
0
LINE
5
472
100
AcDbEntity
8
1-0
6
CONTINUOUS
62
3
100
AcDbLine
10
69411.529999999999
20
11362.129999999999
30
0.0
11
68787.330000000002
21
8326.969999999999
31
0.0
0
LINE
5
473
100
AcDbEntity
8
1-0
6
CONTINUOUS
62
3
100
AcDbLine
10
33266.739999999998
20
18687.459999999999
30
0.0
11
37526.669999999998
21
17101.139999999999
31
0.0
0
LINE
5
474
100
AcDbEntity
8
1-0
6
CONTINUOUS
62
3
100
AcDbLine
10
9717.310000000000
20
21702.860000000001
30
0.0
11
6984.230000000000
21
21155.540000000001
31
0.0
0
LINE
5
475
100
AcDbEntity
8
1-0
6
CONTINUOUS
62
3
100
AcDbLine
10
55263.269999999997
20
16083.270000000000
30
0.0
11
55454.940000000002
21
19318.480000000000
31
0.0
0
LINE
5
476
100
AcDbEntity
8
1-0
6
CONTINUOUS
62
3
100
AcDbLine
10
66482.410000000003
20
9814.580000000000
30
0.0
11
66678.279999999999
21
11412.870000000001
31
0.0
0
LINE
5
477
100
AcDbEntity
8
1-0
6
CONTINUOUS
62
3
100
AcDbLine
10
67236.419999999998
20
25078.070000000000
30
0.0
11
71164.410000000003
21
26128.389999999999
31
0.0
0
LINE
5
478
100
AcDbEntity
8
1-0
6
CONTINUOUS
62
3
100
AcDbLine
10
54269.519999999997
20
25774.119999999999
30
0.0
11
51897.410000000003
21
25950.970000000001
31
0.0
0
LINE
5
479
100
AcDbEntity
8
1-0
6
CONTINUOUS
62
3
100
AcDbLine
10
68293.529999999999
20
8407.990000000000
30
0.0
11
67395.179999999993
21
1077.790000000000
31
0.0
0
LINE
5
47a
100
AcDbEntity
8
1-0
6
CONTINUOUS
62
3
100
AcDbLine
10
69427.399999999994
20
13910.969999999999
30
0.0
11
81450.960000000006
21
13604.920000000000
31
0.0
0
LINE
5
47b
100
AcDbEntity
8
1-0
6
CONTINUOUS
62
3
100
AcDbLine
10
54222.849999999999
20
11317.020000000000
30
0.0
11
55005.339999999997
21
24522.369999999999
31
0.0
0
LINE
5
47c
100
AcDbEntity
8
1-0
6
CONTINUOUS
62
3
100
AcDbLine
10
66482.410000000003
20
9814.580000000000
30
0.0
11
54222.849999999999
21
11317.020000000000
31
0.0
0
LINE
5
47d
100
AcDbEntity
8
1-0
6
CONTINUOUS
62
3
100
AcDbLine
10
61904.070000000000
20
25667.099999999999
30
0.0
11
68118.740000000005
21
25847.810000000001
31
0.0
0
LINE
5
47e
100
AcDbEntity
8
1-0
6
CONTINUOUS
62
3
100
AcDbLine
10
73342.089999999997
20
10310.190000000001
30
0.0
11
81514.889999999999
21
10102.160000000000
31
0.0
0
LINE
5
47f
100
AcDbEntity
8
1-0
6
CONTINUOUS
62
3
100
AcDbLine
10
73783.149999999994
20
9798.799999999999
30
0.0
11
72716.649999999994
21
1096.420000000000
31
0.0
0
LINE
5
480
100
AcDbEntity
8
1-0
6
CONTINUOUS
62
3
100
AcDbLine
10
78745.350000000006
20
30639.720000000001
30
0.0
11
79625.440000000002
21
31663.439999999999
31
0.0
0
LINE
5
481
100
AcDbEntity
8
1-0
6
CONTINUOUS
62
3
100
AcDbLine
10
66678.279999999999
20
11412.870000000001
30
0.0
11
66700.110000000001
21
11590.969999999999
31
0.0
0
LINE
5
482
100
AcDbEntity
8
1-0
6
CONTINUOUS
62
3
100
AcDbLine
10
68118.740000000005
20
25847.810000000001
30
0.0
11
71412.860000000001
21
26765.590000000000
31
0.0
0
LINE
5
483
100
AcDbEntity
8
1-0
6
CONTINUOUS
62
3
100
AcDbLine
10
68821.000000000000
20
10972.889999999999
30
0.0
11
69411.529999999999
21
11362.129999999999
31
0.0
0
LINE
5
484
100
AcDbEntity
8
1-0
6
CONTINUOUS
62
4
100
AcDbLine
10
16689.110000000001
20
45798.349999999999
30
0.0
11
16689.110000000001
21
45879.059999999998
31
0.0
0
LINE
5
485
100
AcDbEntity
8
1-0
6
CONTINUOUS
62
4
100
AcDbLine
10
17689.110000000001
20
45798.349999999999
30
0.0
11
17689.110000000001
21
45879.059999999998
31
0.0
0
LINE
5
486
100
AcDbEntity
8
1-0
6
CONTINUOUS
62
4
100
AcDbLine
10
14789.110000000001
20
45798.349999999999
30
0.0
11
14789.110000000001
21
45854.849999999999
31
0.0
0
LINE
5
487
100
AcDbEntity
8
1-0
6
CONTINUOUS
62
4
100
AcDbLine
10
14289.110000000001
20
45798.349999999999
30
0.0
11
14289.110000000001
21
45856.470000000001
31
0.0
0
LINE
5
488
100
AcDbEntity
8
1-0
6
CONTINUOUS
62
4
100
AcDbLine
10
14189.110000000001
20
45798.349999999999
30
0.0
11
19189.110000000001
21
45798.349999999999
31
0.0
0
LINE
5
489
100
AcDbEntity
8
1-0
6
CONTINUOUS
62
3
100
AcDbLine
10
69370.320000000007
20
13412.260000000000
30
0.0
11
81417.970000000001
21
13105.600000000000
31
0.0
0
LINE
5
48a
100
AcDbEntity
8
1-0
6
CONTINUOUS
62
3
100
AcDbLine
10
66677.960000000006
20
11412.580000000000
30
0.0
11
58180.300000000003
21
13156.080000000000
31
0.0
0
LINE
5
48b
100
AcDbEntity
8
1-0
6
CONTINUOUS
62
4
100
AcDbLine
10
17189.110000000001
20
45798.349999999999
30
0.0
11
17189.110000000001
21
45898.349999999999
31
0.0
0
LINE
5
48c
100
AcDbEntity
8
1-0
6
CONTINUOUS
62
4
100
AcDbLine
10
14489.110000000001
20
45798.349999999999
30
0.0
11
14489.110000000001
21
45858.080000000002
31
0.0
0
LINE
5
48d
100
AcDbEntity
8
1-0
6
CONTINUOUS
62
3
100
AcDbLine
10
61876.279999999999
20
25294.279999999999
30
0.0
11
67236.419999999998
21
25078.070000000000
31
0.0
0
LINE
5
48e
100
AcDbEntity
8
1-0
6
CONTINUOUS
62
3
100
AcDbLine
10
58682.769999999997
20
15605.080000000000
30
0.0
11
69370.320000000007
21
13412.260000000000
31
0.0
0
LINE
5
48f
100
AcDbEntity
8
1-0
6
CONTINUOUS
62
3
100
AcDbLine
10
9681.540000000001
20
22205.619999999999
30
0.0
11
11622.790000000001
21
22097.790000000001
31
0.0
0
LINE
5
490
100
AcDbEntity
8
1-0
6
CONTINUOUS
62
3
100
AcDbLine
10
58122.989999999998
20
19159.689999999999
30
0.0
11
57948.379999999997
21
16212.629999999999
31
0.0
0
LINE
5
491
100
AcDbEntity
8
1-0
6
CONTINUOUS
62
3
100
AcDbLine
10
57250.269999999997
20
15805.400000000000
30
0.0
11
58682.769999999997
21
15605.080000000000
31
0.0
0
LINE
5
492
100
AcDbEntity
8
1-0
6
DASHED
62
3
100
AcDbLine
10
30182.340000000000
20
22090.939999999999
30
0.0
11
15333.200000000001
21
24078.049999999999
31
0.0
0
LINE
5
493
100
AcDbEntity
8
1-0
6
CONTINUOUS
62
3
100
AcDbLine
10
12847.480000000000
20
36979.089999999997
30
0.0
11
16269.350000000000
21
34630.669999999998
31
0.0
0
LINE
5
494
100
AcDbEntity
8
1-0
6
CONTINUOUS
62
3
100
AcDbLine
10
3673.330000000000
20
20776.419999999998
30
0.0
11
7013.280000000000
21
21675.639999999999
31
0.0
0
LINE
5
495
100
AcDbEntity
8
1-0
6
CONTINUOUS
62
3
100
AcDbLine
10
30505.980000000000
20
24746.810000000001
30
0.0
11
29383.450000000001
21
16358.480000000000
31
0.0
0
LINE
5
496
100
AcDbEntity
8
1-0
6
CONTINUOUS
62
3
100
AcDbLine
10
15688.059999999999
20
26729.740000000002
30
0.0
11
14565.530000000001
21
18341.410000000000
31
0.0
0
LINE
5
497
100
AcDbEntity
8
1-0
6
CONTINUOUS
62
4
100
AcDbLine
10
63155.239999999998
20
25467.869999999999
30
0.0
11
63164.309999999998
21
25692.689999999999
31
0.0
0
LINE
5
498
100
AcDbEntity
8
1-0
6
CONTINUOUS
62
3
100
AcDbLine
10
68351.550000000003
20
11388.590000000000
30
0.0
11
68313.559999999998
21
11078.580000000000
31
0.0
0
LINE
5
499
100
AcDbEntity
8
1-0
6
CONTINUOUS
62
3
100
AcDbLine
10
73342.089999999997
20
10310.190000000001
30
0.0
11
72210.509999999995
21
1076.750000000000
31
0.0
0
LINE
5
49a
100
AcDbEntity
8
1-0
6
CONTINUOUS
62
3
100
AcDbLine
10
68787.330000000002
20
8326.969999999999
30
0.0
11
67896.630000000005
21
1059.070000000000
31
0.0
0
LINE
5
49b
100
AcDbEntity
8
1-0
6
CONTINUOUS
62
3
100
AcDbLine
10
73783.149999999994
20
9798.799999999999
30
0.0
11
81546.970000000001
21
9601.180000000000
31
0.0
0
LINE
5
49c
100
AcDbEntity
8
1-0
6
CONTINUOUS
62
4
100
AcDbLine
10
64959.550000000003
20
25470.160000000000
30
0.0
11
65059.470000000001
21
25466.119999999999
31
0.0
0
LINE
5
49d
100
AcDbEntity
8
1-0
6
CONTINUOUS
62
3
100
AcDbLine
10
11874.780000000001
20
24587.650000000001
30
0.0
11
15339.760000000000
21
24077.119999999999
31
0.0
0
LINE
5
49e
100
AcDbEntity
8
1-0
6
CONTINUOUS
62
3
100
AcDbLine
10
30505.980000000000
20
24746.810000000001
30
0.0
11
15688.059999999999
21
26729.740000000002
31
0.0
0
LINE
5
49f
100
AcDbEntity
8
1-0
6
DASHED
62
3
100
AcDbLine
10
30084.799999999999
20
21599.529999999999
30
0.0
11
15266.879999999999
21
23582.470000000001
31
0.0
0
LINE
5
4a0
100
AcDbEntity
8
1-0
6
CONTINUOUS
62
3
100
AcDbLine
10
55100.239999999998
20
13581.740000000000
30
0.0
11
58336.529999999999
21
13129.170000000000
31
0.0
0
LINE
5
4a1
100
AcDbEntity
8
1-0
6
CONTINUOUS
62
4
100
AcDbLine
10
9733.770000000000
20
40909.269999999997
30
0.0
11
9919.620000000001
21
40600.940000000002
31
0.0
0
LINE
5
4a2
100
AcDbEntity
8
1-0
6
CONTINUOUS
62
3
100
AcDbLine
10
58431.570000000000
20
24366.209999999999
30
0.0
11
58245.209999999999
21
21221.330000000002
31
0.0
0
LINE
5
4a3
100
AcDbEntity
8
1-0
6
CONTINUOUS
62
3
100
AcDbLine
10
61904.070000000000
20
25667.099999999999
30
0.0
11
61839.110000000001
21
24795.660000000000
31
0.0
0
LINE
5
4a4
100
AcDbEntity
8
1-0
6
CONTINUOUS
62
3
100
AcDbLine
10
51937.000000000000
20
26410.169999999998
30
0.0
11
50205.760000000002
21
26453.520000000000
31
0.0
0
LINE
5
4a5
100
AcDbEntity
8
1-0
6
CONTINUOUS
62
3
100
AcDbLine
10
40244.029999999999
20
18689.840000000000
30
0.0
11
43184.410000000003
21
17477.740000000002
31
0.0
0
LINE
5
4a6
100
AcDbEntity
8
1-0
6
CONTINUOUS
62
3
100
AcDbLine
10
31888.560000000001
20
29722.779999999999
30
0.0
11
19952.369999999999
21
32090.680000000000
31
0.0
0
LINE
5
4a7
100
AcDbEntity
8
1-0
6
CONTINUOUS
62
3
100
AcDbLine
10
71164.410000000003
20
26128.389999999999
30
0.0
11
78745.350000000006
21
30639.720000000001
31
0.0
0
LINE
5
4a8
100
AcDbEntity
8
1-0
6
CONTINUOUS
62
4
100
AcDbLine
10
79314.860000000001
20
31417.220000000001
30
0.0
11
79836.389999999999
21
32023.849999999999
31
0.0
0
LINE
5
4a9
100
AcDbEntity
8
1-0
6
CONTINUOUS
62
3
100
AcDbLine
10
61904.070000000000
20
25667.099999999999
30
0.0
11
51937.000000000000
21
26410.169999999998
31
0.0
0
LINE
5
4aa
100
AcDbEntity
8
1-0
6
CONTINUOUS
62
3
100
AcDbLine
10
61876.279999999999
20
25294.279999999999
30
0.0
11
59220.599999999999
21
25492.259999999998
31
0.0
0
LINE
5
4ab
100
AcDbEntity
8
1-0
6
CONTINUOUS
62
3
100
AcDbLine
10
43184.410000000003
20
17477.740000000002
30
0.0
11
49316.540000000001
21
16531.380000000001
31
0.0
0
LINE
5
4ac
100
AcDbEntity
8
1-0
6
CONTINUOUS
62
4
100
AcDbLine
10
66702.860000000001
20
25399.840000000000
30
0.0
11
66802.779999999999
21
25395.799999999999
31
0.0
0
LINE
5
4ad
100
AcDbEntity
8
1-0
6
CONTINUOUS
62
4
100
AcDbLine
10
80415.259999999995
20
33022.849999999999
30
0.0
11
80238.889999999999
21
33162.559999999998
31
0.0
0
LINE
5
4ae
100
AcDbEntity
8
1-0
6
CONTINUOUS
62
4
100
AcDbLine
10
68771.160000000003
20
25721.349999999999
30
0.0
11
68867.770000000004
21
25747.189999999999
31
0.0
0
LINE
5
4af
100
AcDbEntity
8
1-0
6
CONTINUOUS
62
4
100
AcDbLine
10
63002.339999999997
20
25398.980000000000
30
0.0
11
63302.089999999997
21
25386.889999999999
31
0.0
0
LINE
5
4b0
100
AcDbEntity
8
1-0
6
CONTINUOUS
62
4
100
AcDbLine
10
70664.149999999994
20
26227.529999999999
30
0.0
11
70606.029999999999
21
26444.900000000001
31
0.0
0
LINE
5
4b1
100
AcDbEntity
8
1-0
6
CONTINUOUS
62
4
100
AcDbLine
10
62749.519999999997
20
25334.110000000001
30
0.0
11
63548.870000000003
21
25301.869999999999
31
0.0
0
LINE
5
4b2
100
AcDbEntity
8
1-0
6
CONTINUOUS
62
3
100
AcDbLine
10
54835.019999999997
20
16579.549999999999
30
0.0
11
49316.540000000001
21
16531.380000000001
31
0.0
0
LINE
5
4b3
100
AcDbEntity
8
1-0
6
CONTINUOUS
62
4
100
AcDbLine
10
65009.510000000002
20
25468.150000000001
30
0.0
11
65021.610000000001
21
25767.900000000001
31
0.0
0
LINE
5
4b4
100
AcDbEntity
8
1-0
6
CONTINUOUS
62
4
100
AcDbLine
10
79429.279999999999
20
31780.410000000000
30
0.0
11
79494.470000000001
21
31856.240000000002
31
0.0
0
LINE
5
4b5
100
AcDbEntity
8
1-0
6
CONTINUOUS
62
4
100
AcDbLine
10
64855.599999999999
20
25374.270000000000
30
0.0
11
65155.360000000001
21
25362.169999999998
31
0.0
0
LINE
5
4b6
100
AcDbEntity
8
1-0
6
CONTINUOUS
62
3
100
AcDbLine
10
73783.149999999994
20
9798.799999999999
30
0.0
11
73342.089999999997
21
10310.190000000001
31
0.0
0
LINE
5
4b7
100
AcDbEntity
8
1-0
6
CONTINUOUS
62
4
100
AcDbLine
10
71854.639999999999
20
26626.410000000000
30
0.0
11
72542.119999999995
21
27035.529999999999
31
0.0
0
LINE
5
4b8
100
AcDbEntity
8
1-0
6
CONTINUOUS
62
3
100
AcDbLine
10
57250.279999999999
20
15805.400000000000
30
0.0
11
57650.339999999997
21
16254.320000000000
31
0.0
0
LINE
5
4b9
100
AcDbEntity
8
1-0
6
CONTINUOUS
62
4
100
AcDbLine
10
74732.960000000006
20
28339.279999999999
30
0.0
11
75420.449999999997
21
28748.380000000001
31
0.0
0
LINE
5
4ba
100
AcDbEntity
8
1-0
6
CONTINUOUS
62
4
100
AcDbLine
10
66345.089999999997
20
25214.110000000001
30
0.0
11
67144.440000000002
21
25181.869999999999
31
0.0
0
LINE
5
4bb
100
AcDbEntity
8
1-0
6
CONTINUOUS
62
3
100
AcDbLine
10
55263.269999999997
20
16083.270000000000
30
0.0
11
54835.019999999997
21
16579.549999999999
31
0.0
0
LINE
5
4bc
100
AcDbEntity
8
1-0
6
CONTINUOUS
62
3
100
AcDbLine
10
79625.440000000002
20
31663.439999999999
30
0.0
11
81945.199999999997
21
34591.879999999997
31
0.0
0
LINE
5
4bd
100
AcDbEntity
8
1-0
6
CONTINUOUS
62
3
100
AcDbLine
10
57650.339999999997
20
16254.320000000000
30
0.0
11
58767.830000000002
21
16098.030000000001
31
0.0
0
LINE
5
4be
100
AcDbEntity
8
1-0
6
CONTINUOUS
62
3
100
AcDbLine
10
69411.529999999999
20
11362.129999999999
30
0.0
11
58280.790000000001
21
13645.879999999999
31
0.0
0
LINE
5
4bf
100
AcDbEntity
8
1-0
6
CONTINUOUS
62
3
100
AcDbLine
10
68821.000000000000
20
10972.889999999999
30
0.0
11
68309.710000000006
21
11077.790000000001
31
0.0
0
LINE
5
4c0
100
AcDbEntity
8
1-0
6
CONTINUOUS
62
3
100
AcDbLine
10
61839.110000000001
20
24795.660000000000
30
0.0
11
59183.430000000000
21
24993.650000000001
31
0.0
0
LINE
5
4c1
100
AcDbEntity
8
1-0
6
CONTINUOUS
62
4
100
AcDbLine
10
77970.910000000003
20
30353.410000000000
30
0.0
11
78228.710000000006
21
30506.830000000002
31
0.0
0
LINE
5
4c2
100
AcDbEntity
8
1-0
6
CONTINUOUS
62
4
100
AcDbLine
10
78018.490000000005
20
30469.009999999998
30
0.0
11
78104.429999999993
21
30520.139999999999
31
0.0
0
LINE
5
4c3
100
AcDbEntity
8
1-0
6
CONTINUOUS
62
3
100
AcDbLine
10
43049.070000000000
20
16992.709999999999
30
0.0
11
40031.410000000003
21
18236.669999999998
31
0.0
0
LINE
5
4c4
100
AcDbEntity
8
1-0
6
CONTINUOUS
62
4
100
AcDbLine
10
78061.460000000006
20
30494.570000000000
30
0.0
11
77946.399999999994
21
30687.919999999998
31
0.0
0
LINE
5
4c5
100
AcDbEntity
8
1-0
6
CONTINUOUS
62
3
100
AcDbLine
10
55132.820000000000
20
14082.049999999999
30
0.0
11
58405.779999999999
21
13624.340000000000
31
0.0
0
LINE
5
4c6
100
AcDbEntity
8
1-0
6
CONTINUOUS
62
3
100
AcDbLine
10
68821.000000000000
20
10972.889999999999
30
0.0
11
68293.529999999999
21
8407.990000000000
31
0.0
0
LINE
5
4c7
100
AcDbEntity
8
1-0
6
CONTINUOUS
62
4
100
AcDbLine
10
73508.559999999998
20
27697.919999999998
30
0.0
11
73766.360000000001
21
27851.340000000000
31
0.0
0
LINE
5
4c8
100
AcDbEntity
8
1-0
6
CONTINUOUS
62
4
100
AcDbLine
10
70538.610000000001
20
26116.330000000002
30
0.0
11
70828.429999999993
21
26193.820000000000
31
0.0
0
LINE
5
4c9
100
AcDbEntity
8
1-0
6
CONTINUOUS
62
4
100
AcDbLine
10
80380.910000000003
20
32858.709999999999
30
0.0
11
80567.190000000002
21
33093.860000000001
31
0.0
0
LINE
5
4ca
100
AcDbEntity
8
1-0
6
CONTINUOUS
62
4
100
AcDbLine
10
81358.690000000002
20
34093.050000000003
30
0.0
11
81544.970000000001
21
34328.209999999999
31
0.0
0
LINE
5
4cb
100
AcDbEntity
8
1-0
6
CONTINUOUS
62
3
100
AcDbLine
10
79625.429999999993
20
31663.439999999999
30
0.0
11
83870.179999999993
21
37021.959999999999
31
0.0
0
LINE
5
4cc
100
AcDbEntity
8
1-0
6
CONTINUOUS
62
4
100
AcDbLine
10
79461.880000000005
20
31818.330000000002
30
0.0
11
79291.259999999995
21
31965.009999999998
31
0.0
0
LINE
5
4cd
100
AcDbEntity
8
1-0
6
CONTINUOUS
62
4
100
AcDbLine
10
80284.470000000001
20
32616.169999999998
30
0.0
11
80781.220000000001
21
33243.260000000002
31
0.0
0
LINE
5
4ce
100
AcDbEntity
8
1-0
6
CONTINUOUS
62
4
100
AcDbLine
10
81262.259999999995
20
33850.519999999997
30
0.0
11
81759.000000000000
21
34477.610000000001
31
0.0
0
LINE
5
4cf
100
AcDbEntity
8
1-0
6
CONTINUOUS
62
4
100
AcDbLine
10
79429.279999999999
20
31780.419999999998
30
0.0
11
79494.470000000001
21
31856.250000000000
31
0.0
0
LINE
5
4d0
100
AcDbEntity
8
1-0
6
CONTINUOUS
62
4
100
AcDbLine
10
80384.210000000006
20
32983.660000000003
30
0.0
11
80446.309999999998
21
33062.050000000003
31
0.0
0
LINE
5
4d1
100
AcDbEntity
8
1-0
6
CONTINUOUS
62
4
100
AcDbLine
10
77794.419999999998
20
30161.110000000001
30
0.0
11
78481.910000000003
21
30570.230000000000
31
0.0
0
LINE
5
4d2
100
AcDbEntity
8
1-0
6
CONTINUOUS
62
3
100
AcDbLine
10
78745.350000000006
20
30639.720000000001
30
0.0
11
79625.429999999993
21
31663.439999999999
31
0.0
0
LINE
5
4d3
100
AcDbEntity
8
1-0
6
CONTINUOUS
62
4
100
AcDbLine
10
83314.250000000000
20
36561.739999999998
30
0.0
11
83500.529999999999
21
36796.889999999999
31
0.0
0
LINE
5
4d4
100
AcDbEntity
8
1-0
6
CONTINUOUS
62
4
100
AcDbLine
10
81393.039999999994
20
34257.199999999997
30
0.0
11
81216.669999999998
21
34396.910000000003
31
0.0
0
LINE
5
4d5
100
AcDbEntity
8
1-0
6
CONTINUOUS
62
4
100
AcDbLine
10
81361.990000000005
20
34218.010000000002
30
0.0
11
81424.100000000006
21
34296.400000000001
31
0.0
0
LINE
5
4d6
100
AcDbEntity
8
1-0
6
CONTINUOUS
62
4
100
AcDbLine
10
83317.550000000003
20
36686.690000000002
30
0.0
11
83379.660000000003
21
36765.080000000002
31
0.0
0
LINE
5
4d7
100
AcDbEntity
8
1-0
6
CONTINUOUS
62
4
100
AcDbLine
10
83348.600000000006
20
36725.879999999997
30
0.0
11
83172.229999999996
21
36865.589999999997
31
0.0
0
LINE
5
4d8
100
AcDbEntity
8
1-0
6
CONTINUOUS
62
4
100
AcDbLine
10
82130.940000000002
20
35188.720000000001
30
0.0
11
82193.039999999994
21
35267.110000000001
31
0.0
0
LINE
5
4d9
100
AcDbEntity
8
1-0
6
CONTINUOUS
62
4
100
AcDbLine
10
82161.990000000005
20
35227.910000000003
30
0.0
11
81985.619999999995
21
35367.620000000003
31
0.0
0
LINE
5
4da
100
AcDbEntity
8
1-0
6
CONTINUOUS
62
4
100
AcDbLine
10
82031.199999999997
20
34821.230000000003
30
0.0
11
82527.949999999997
21
35448.320000000000
31
0.0
0
LINE
5
4db
100
AcDbEntity
8
1-0
6
CONTINUOUS
62
4
100
AcDbLine
10
82127.639999999999
20
35063.760000000002
30
0.0
11
82313.919999999998
21
35298.919999999998
31
0.0
0
LINE
5
4dc
100
AcDbEntity
8
1-0
6
CONTINUOUS
62
4
100
AcDbLine
10
80415.259999999995
20
33022.860000000001
30
0.0
11
80238.889999999999
21
33162.570000000000
31
0.0
0
LINE
5
4dd
100
AcDbEntity
8
1-0
6
CONTINUOUS
62
4
100
AcDbLine
10
72031.119999999995
20
26818.709999999999
30
0.0
11
72288.919999999998
21
26972.130000000001
31
0.0
0
LINE
5
4de
100
AcDbEntity
8
1-0
6
CONTINUOUS
62
4
100
AcDbLine
10
64601.779999999999
20
25284.430000000000
30
0.0
11
65401.139999999999
21
25252.180000000000
31
0.0
0
LINE
5
4df
100
AcDbEntity
8
1-0
6
CONTINUOUS
62
4
100
AcDbLine
10
68819.470000000001
20
25734.270000000000
30
0.0
11
68761.350000000006
21
25951.639999999999
31
0.0
0
LINE
5
4e0
100
AcDbEntity
8
1-0
6
CONTINUOUS
62
4
100
AcDbLine
10
68693.929999999993
20
25623.070000000000
30
0.0
11
68983.750000000000
21
25700.570000000000
31
0.0
0
LINE
5
4e1
100
AcDbEntity
8
1-0
6
CONTINUOUS
62
4
100
AcDbLine
10
73556.130000000005
20
27813.509999999998
30
0.0
11
73642.070000000007
21
27864.650000000001
31
0.0
0
LINE
5
4e2
100
AcDbEntity
8
1-0
6
CONTINUOUS
62
4
100
AcDbLine
10
79420.960000000006
20
31655.689999999999
30
0.0
11
79616.529999999999
21
31883.180000000000
31
0.0
0
LINE
5
4e3
100
AcDbEntity
8
1-0
6
CONTINUOUS
62
3
100
AcDbLine
10
68313.559999999998
20
11078.580000000000
30
0.0
11
67090.820000000007
21
1101.270000000000
31
0.0
0
LINE
5
4e4
100
AcDbEntity
8
1-0
6
CONTINUOUS
62
4
100
AcDbLine
10
68471.789999999994
20
25486.029999999999
30
0.0
11
69244.639999999999
21
25692.689999999999
31
0.0
0
LINE
5
4e5
100
AcDbEntity
8
1-0
6
CONTINUOUS
62
4
100
AcDbLine
10
63105.279999999999
20
25469.889999999999
30
0.0
11
63205.199999999997
21
25465.860000000001
31
0.0
0
LINE
5
4e6
100
AcDbEntity
8
1-0
6
CONTINUOUS
62
4
100
AcDbLine
10
70316.470000000001
20
25979.299999999999
30
0.0
11
71089.320000000007
21
26185.950000000001
31
0.0
0
LINE
5
4e7
100
AcDbEntity
8
1-0
6
CONTINUOUS
62
4
100
AcDbLine
10
79314.860000000001
20
31417.220000000001
30
0.0
11
79836.389999999999
21
32023.860000000001
31
0.0
0
LINE
5
4e8
100
AcDbEntity
8
1-0
6
CONTINUOUS
62
4
100
AcDbLine
10
77970.910000000003
20
30353.410000000000
30
0.0
11
78228.710000000006
21
30506.840000000000
31
0.0
0
LINE
5
4e9
100
AcDbEntity
8
1-0
6
CONTINUOUS
62
4
100
AcDbLine
10
79420.960000000006
20
31655.689999999999
30
0.0
11
79616.529999999999
21
31883.180000000000
31
0.0
0
LINE
5
4ea
100
AcDbEntity
8
1-0
6
CONTINUOUS
62
4
100
AcDbLine
10
78018.490000000005
20
30469.009999999998
30
0.0
11
78104.429999999993
21
30520.150000000001
31
0.0
0
LINE
5
4eb
100
AcDbEntity
8
1-0
6
CONTINUOUS
62
4
100
AcDbLine
10
78061.460000000006
20
30494.570000000000
30
0.0
11
77946.399999999994
21
30687.930000000000
31
0.0
0
LINE
5
4ec
100
AcDbEntity
8
1-0
6
CONTINUOUS
62
3
100
AcDbLine
10
78745.350000000006
20
30639.720000000001
30
0.0
11
79625.429999999993
21
31663.439999999999
31
0.0
0
LINE
5
4ed
100
AcDbEntity
8
1-0
6
CONTINUOUS
62
3
100
AcDbLine
10
78488.020000000004
20
31018.500000000000
30
0.0
11
83615.490000000005
21
37372.889999999999
31
0.0
0
LINE
5
4ee
100
AcDbEntity
8
1-0
6
CONTINUOUS
62
4
100
AcDbLine
10
83217.809999999998
20
36319.190000000002
30
0.0
11
83714.559999999998
21
36946.290000000001
31
0.0
0
LINE
5
4ef
100
AcDbEntity
8
1-0
6
CONTINUOUS
62
3
100
AcDbLine
10
79625.429999999993
20
31663.439999999999
30
0.0
11
83557.029999999999
21
36626.650000000001
31
0.0
0
LINE
5
4f0
100
AcDbEntity
8
1-0
6
CONTINUOUS
62
4
100
AcDbLine
10
6791.390000000000
20
46040.989999999998
30
0.0
11
7000.400000000000
21
46158.910000000003
31
0.0
0
LINE
5
4f1
100
AcDbEntity
8
1-0
6
CONTINUOUS
62
4
100
AcDbLine
10
8793.040000000001
20
42470.050000000003
30
0.0
11
8978.889999999999
21
42161.730000000003
31
0.0
0
LINE
5
4f2
100
AcDbEntity
8
1-0
6
CONTINUOUS
62
3
100
AcDbLine
10
3797.400000000000
20
50910.129999999997
30
0.0
11
1763.680000000000
21
54519.989999999998
31
0.0
0
LINE
5
4f3
100
AcDbEntity
8
1-0
6
CONTINUOUS
62
3
100
AcDbLine
10
5627.750000000000
20
47859.529999999999
30
0.0
11
3797.400000000000
21
50910.129999999997
31
0.0
0
LINE
5
4f4
100
AcDbEntity
8
1-0
6
CONTINUOUS
62
4
100
AcDbLine
10
9878.090000000000
20
40786.080000000002
30
0.0
11
10083.660000000000
21
40909.970000000001
31
0.0
0
LINE
5
4f5
100
AcDbEntity
8
1-0
6
CONTINUOUS
62
3
100
AcDbLine
10
12847.480000000000
20
36979.089999999997
30
0.0
11
10101.969999999999
21
40182.209999999999
31
0.0
0
LINE
5
4f6
100
AcDbEntity
8
1-0
6
CONTINUOUS
62
4
100
AcDbLine
10
8906.379999999999
20
42398.250000000000
30
0.0
11
8968.330000000000
21
42295.470000000001
31
0.0
0
LINE
5
4f7
100
AcDbEntity
8
1-0
6
CONTINUOUS
62
4
100
AcDbLine
10
12542.490000000000
20
37519.300000000003
30
0.0
11
12620.580000000000
21
37428.190000000002
31
0.0
0
LINE
5
4f8
100
AcDbEntity
8
1-0
6
CONTINUOUS
62
3
100
AcDbLine
10
10101.969999999999
20
40182.209999999999
30
0.0
11
7864.840000000000
21
43893.760000000002
31
0.0
0
LINE
5
4f9
100
AcDbEntity
8
1-0
6
CONTINUOUS
62
4
100
AcDbLine
10
3065.380000000000
20
52453.949999999997
30
0.0
11
3124.270000000000
21
52349.400000000001
31
0.0
0
LINE
5
4fa
100
AcDbEntity
8
1-0
6
CONTINUOUS
62
4
100
AcDbLine
10
1898.470000000000
20
54525.059999999998
30
0.0
11
1957.250000000000
21
54420.419999999998
31
0.0
0
LINE
5
4fb
100
AcDbEntity
8
1-0
6
CONTINUOUS
62
4
100
AcDbLine
10
10847.879999999999
20
39496.339999999997
30
0.0
11
11030.129999999999
21
39652.529999999999
31
0.0
0
LINE
5
4fc
100
AcDbEntity
8
1-0
6
CONTINUOUS
62
3
100
AcDbLine
10
7864.840000000000
20
43893.760000000002
30
0.0
11
5627.750000000000
21
47859.529999999999
31
0.0
0
LINE
5
4fd
100
AcDbEntity
8
1-0
6
CONTINUOUS
62
4
100
AcDbLine
10
4189.610000000000
20
50489.680000000000
30
0.0
11
4395.420000000000
21
50613.160000000003
31
0.0
0
LINE
5
4fe
100
AcDbEntity
8
1-0
6
CONTINUOUS
62
4
100
AcDbLine
10
9847.110000000001
20
40837.470000000001
30
0.0
11
9909.060000000000
21
40734.699999999997
31
0.0
0
LINE
5
4ff
100
AcDbEntity
8
1-0
6
CONTINUOUS
62
3
100
AcDbLine
10
10458.900000000000
20
40410.239999999998
30
0.0
11
8282.840000000000
21
43996.879999999997
31
0.0
0
LINE
5
500
100
AcDbEntity
8
1-0
6
CONTINUOUS
62
3
100
AcDbLine
10
6379.050000000000
20
24093.910000000000
30
0.0
11
3061.350000000000
21
23200.669999999998
31
0.0
0
LINE
5
501
100
AcDbEntity
8
1-0
6
CONTINUOUS
62
4
100
AcDbLine
10
8937.360000000001
20
42346.860000000001
30
0.0
11
9142.889999999999
21
42470.760000000002
31
0.0
0
LINE
5
502
100
AcDbEntity
8
1-0
6
CONTINUOUS
62
4
100
AcDbLine
10
74909.449999999997
20
28531.570000000000
30
0.0
11
75167.250000000000
21
28684.990000000002
31
0.0
0
LINE
5
503
100
AcDbEntity
8
1-0
6
CONTINUOUS
62
3
100
AcDbLine
10
54821.750000000000
20
21423.910000000000
30
0.0
11
58244.680000000000
21
21221.070000000000
31
0.0
0
LINE
5
504
100
AcDbEntity
8
1-0
6
CONTINUOUS
62
3
100
AcDbLine
10
57573.459999999999
20
21259.259999999998
30
0.0
11
57573.519999999997
21
21260.380000000001
31
0.0
0
LINE
5
505
100
AcDbEntity
8
1-0
6
CONTINUOUS
62
3
100
AcDbLine
10
37313.709999999999
20
16646.900000000001
30
0.0
11
33115.089999999997
21
18210.389999999999
31
0.0
0
LINE
5
506
100
AcDbEntity
8
1-0
6
CONTINUOUS
62
3
100
AcDbLine
10
57573.519999999997
20
21260.380000000001
30
0.0
11
57757.230000000003
21
24360.540000000001
31
0.0
0
LINE
5
507
100
AcDbEntity
8
1-0
6
CONTINUOUS
62
3
100
AcDbLine
10
19952.369999999999
20
32090.680000000000
30
0.0
11
19063.360000000001
21
32471.669999999998
31
0.0
0
LINE
5
508
100
AcDbEntity
8
1-0
6
CONTINUOUS
62
3
100
AcDbLine
10
30084.799999999999
20
21599.529999999999
30
0.0
11
33873.269999999997
21
20595.770000000000
31
0.0
0
LINE
5
509
100
AcDbEntity
8
1-0
6
CONTINUOUS
62
4
100
AcDbLine
10
4158.730000000000
20
50541.129999999997
30
0.0
11
4220.470000000000
21
50438.230000000003
31
0.0
0
LINE
5
50a
100
AcDbEntity
8
1-0
6
CONTINUOUS
62
4
100
AcDbLine
10
5541.970000000000
20
48235.739999999998
30
0.0
11
5603.710000000000
21
48132.830000000002
31
0.0
0
LINE
5
50b
100
AcDbEntity
8
1-0
6
CONTINUOUS
62
3
100
AcDbLine
10
57250.269999999997
20
15805.400000000000
30
0.0
11
57451.349999999999
21
19198.799999999999
31
0.0
0
LINE
5
50c
100
AcDbEntity
8
1-0
6
CONTINUOUS
62
3
100
AcDbLine
10
9502.629999999999
20
24719.419999999998
30
0.0
11
11874.780000000001
21
24587.650000000001
31
0.0
0
LINE
5
50d
100
AcDbEntity
8
1-0
6
CONTINUOUS
62
3
100
AcDbLine
10
42414.110000000001
20
14561.110000000001
30
0.0
11
49059.320000000000
21
13535.549999999999
31
0.0
0
LINE
5
50e
100
AcDbEntity
8
1-0
6
CONTINUOUS
62
2
100
AcDbLine
10
57945.669999999998
20
21237.990000000002
30
0.0
11
58131.459999999999
21
24373.189999999999
31
0.0
0
LINE
5
50f
100
AcDbEntity
8
1-0
6
CONTINUOUS
62
3
100
AcDbLine
10
13137.950000000001
20
37271.930000000000
30
0.0
11
16269.350000000000
21
34630.669999999998
31
0.0
0
LINE
5
510
100
AcDbEntity
8
1-0
6
CONTINUOUS
62
3
100
AcDbLine
10
29820.150000000001
20
19600.639999999999
30
0.0
11
33266.739999999998
21
18687.459999999999
31
0.0
0
LINE
5
511
100
AcDbEntity
8
1-0
6
CONTINUOUS
62
3
100
AcDbLine
10
51860.250000000000
20
25452.360000000001
30
0.0
11
51931.160000000003
21
26403.290000000001
31
0.0
0
LINE
5
512
100
AcDbEntity
8
1-0
6
DASHED
62
3
100
AcDbLine
10
29596.950000000001
20
19142.529999999999
30
0.0
11
14935.290000000001
21
21104.549999999999
31
0.0
0
LINE
5
513
100
AcDbEntity
8
1-0
6
CONTINUOUS
62
3
100
AcDbLine
10
57451.349999999999
20
19198.799999999999
30
0.0
11
57451.379999999997
21
19199.320000000000
31
0.0
0
LINE
5
514
100
AcDbEntity
8
1-0
6
CONTINUOUS
62
3
100
AcDbLine
10
37313.709999999999
20
16646.900000000001
30
0.0
11
38591.419999999998
21
19372.340000000000
31
0.0
0
LINE
5
515
100
AcDbEntity
8
1-0
6
CONTINUOUS
62
3
100
AcDbLine
10
3191.340000000000
20
22717.860000000001
30
0.0
11
6493.340000000000
21
23606.869999999999
31
0.0
0
LINE
5
516
100
AcDbEntity
8
1-0
6
CONTINUOUS
62
3
100
AcDbLine
10
6379.050000000000
20
24093.910000000000
30
0.0
11
9502.629999999999
21
24719.419999999998
31
0.0
0
LINE
5
517
100
AcDbEntity
8
1-0
6
CONTINUOUS
62
4
100
AcDbLine
10
77794.419999999998
20
30161.110000000001
30
0.0
11
78481.910000000003
21
30570.220000000001
31
0.0
0
LINE
5
518
100
AcDbEntity
8
1-0
6
CONTINUOUS
62
4
100
AcDbLine
10
76453.779999999999
20
29450.590000000000
30
0.0
11
76711.580000000002
21
29604.009999999998
31
0.0
0
LINE
5
519
100
AcDbEntity
8
1-0
6
CONTINUOUS
62
4
100
AcDbLine
10
81262.259999999995
20
33850.519999999997
30
0.0
11
81759.000000000000
21
34477.599999999999
31
0.0
0
LINE
5
51a
100
AcDbEntity
8
1-0
6
CONTINUOUS
62
4
100
AcDbLine
10
75000.000000000000
20
28672.740000000002
30
0.0
11
74884.929999999993
21
28866.090000000000
31
0.0
0
LINE
5
51b
100
AcDbEntity
8
1-0
6
CONTINUOUS
62
4
100
AcDbLine
10
73332.059999999998
20
27505.619999999999
30
0.0
11
74019.550000000003
21
27914.730000000000
31
0.0
0
LINE
5
51c
100
AcDbEntity
8
1-0
6
CONTINUOUS
62
4
100
AcDbLine
10
79461.880000000005
20
31818.330000000002
30
0.0
11
79291.259999999995
21
31965.009999999998
31
0.0
0
LINE
5
51d
100
AcDbEntity
8
1-0
6
CONTINUOUS
62
3
100
AcDbLine
10
58122.949999999997
20
19158.240000000002
30
0.0
11
58245.209999999999
21
21221.330000000002
31
0.0
0
LINE
5
51e
100
AcDbEntity
8
1-0
6
CONTINUOUS
62
4
100
AcDbLine
10
76544.330000000002
20
29591.740000000002
30
0.0
11
76429.270000000004
21
29785.099999999999
31
0.0
0
LINE
5
51f
100
AcDbEntity
8
1-0
6
CONTINUOUS
62
4
100
AcDbLine
10
74957.020000000004
20
28647.160000000000
30
0.0
11
75042.970000000001
21
28698.299999999999
31
0.0
0
LINE
5
520
100
AcDbEntity
8
1-0
6
CONTINUOUS
62
4
100
AcDbLine
10
70615.839999999997
20
26214.619999999999
30
0.0
11
70712.449999999997
21
26240.450000000001
31
0.0
0
LINE
5
521
100
AcDbEntity
8
1-0
6
CONTINUOUS
62
3
100
AcDbLine
10
69427.399999999994
20
13910.969999999999
30
0.0
11
58767.830000000002
21
16098.030000000001
31
0.0
0
LINE
5
522
100
AcDbEntity
8
1-0
6
CONTINUOUS
62
4
100
AcDbLine
10
66598.910000000003
20
25303.950000000001
30
0.0
11
66898.679999999993
21
25291.860000000001
31
0.0
0
LINE
5
523
100
AcDbEntity
8
1-0
6
CONTINUOUS
62
4
100
AcDbLine
10
66752.820000000007
20
25397.830000000002
30
0.0
11
66764.910000000003
21
25697.580000000002
31
0.0
0
LINE
5
524
100
AcDbEntity
8
1-0
6
CONTINUOUS
62
4
100
AcDbLine
10
72121.669999999998
20
26959.869999999999
30
0.0
11
72006.610000000001
21
27153.230000000000
31
0.0
0
LINE
5
525
100
AcDbEntity
8
1-0
6
CONTINUOUS
62
4
100
AcDbLine
10
72078.699999999997
20
26934.310000000001
30
0.0
11
72164.639999999999
21
26985.450000000001
31
0.0
0
LINE
5
526
100
AcDbEntity
8
1-0
6
CONTINUOUS
62
4
100
AcDbLine
10
76277.300000000003
20
29258.290000000001
30
0.0
11
76964.779999999999
21
29667.400000000001
31
0.0
0
LINE
5
527
100
AcDbEntity
8
1-0
6
CONTINUOUS
62
4
100
AcDbLine
10
76501.360000000001
20
29566.180000000000
30
0.0
11
76587.300000000003
21
29617.320000000000
31
0.0
0
LINE
5
528
100
AcDbEntity
8
1-0
6
CONTINUOUS
62
4
100
AcDbLine
10
80284.470000000001
20
32616.169999999998
30
0.0
11
80781.220000000001
21
33243.260000000002
31
0.0
0
LINE
5
529
100
AcDbEntity
8
1-0
6
CONTINUOUS
62
4
100
AcDbLine
10
80384.210000000006
20
32983.660000000003
30
0.0
11
80446.309999999998
21
33062.050000000003
31
0.0
0
LINE
5
52a
100
AcDbEntity
8
1-0
6
CONTINUOUS
62
4
100
AcDbLine
10
81358.690000000002
20
34093.050000000003
30
0.0
11
81544.970000000001
21
34328.199999999997
31
0.0
0
LINE
5
52b
100
AcDbEntity
8
1-0
6
CONTINUOUS
62
3
100
AcDbLine
10
8282.840000000000
20
43996.879999999997
30
0.0
11
6010.350000000000
21
48140.830000000002
31
0.0
0
LINE
5
52c
100
AcDbEntity
8
1-0
6
CONTINUOUS
62
4
100
AcDbLine
10
4045.540000000000
20
50613.160000000003
30
0.0
11
4230.780000000000
21
50304.459999999999
31
0.0
0
LINE
5
52d
100
AcDbEntity
8
1-0
6
CONTINUOUS
62
4
100
AcDbLine
10
6650.670000000000
20
46168.290000000001
30
0.0
11
6827.550000000000
21
45854.730000000003
31
0.0
0
LINE
5
52e
100
AcDbEntity
8
1-0
6
CONTINUOUS
62
4
100
AcDbLine
10
11754.680000000000
20
38438.419999999998
30
0.0
11
11936.900000000000
21
38594.610000000001
31
0.0
0
LINE
5
52f
100
AcDbEntity
8
1-0
6
CONTINUOUS
62
4
100
AcDbLine
10
7756.020000000000
20
44190.540000000001
30
0.0
11
7941.870000000000
21
43882.220000000001
31
0.0
0
LINE
5
530
100
AcDbEntity
8
1-0
6
CONTINUOUS
62
4
100
AcDbLine
10
3094.820000000000
20
52401.680000000000
30
0.0
11
3303.930000000000
21
52519.480000000003
31
0.0
0
LINE
5
531
100
AcDbEntity
8
1-0
6
CONTINUOUS
62
4
100
AcDbLine
10
1787.390000000000
20
54600.279999999999
30
0.0
11
1963.720000000000
21
54286.419999999998
31
0.0
0
LINE
5
532
100
AcDbEntity
8
1-0
6
CONTINUOUS
62
4
100
AcDbLine
10
7869.360000000000
20
44118.739999999998
30
0.0
11
7931.310000000000
21
44015.959999999999
31
0.0
0
LINE
5
533
100
AcDbEntity
8
1-0
6
CONTINUOUS
62
4
100
AcDbLine
10
1927.860000000000
20
54472.739999999998
30
0.0
11
2137.090000000000
21
54590.290000000001
31
0.0
0
LINE
5
534
100
AcDbEntity
8
1-0
6
CONTINUOUS
62
4
100
AcDbLine
10
10808.840000000000
20
39541.900000000001
30
0.0
11
10886.940000000001
21
39450.790000000001
31
0.0
0
LINE
5
535
100
AcDbEntity
8
1-0
6
CONTINUOUS
62
3
100
AcDbLine
10
6010.350000000000
20
48140.830000000002
30
0.0
11
2085.180000000000
21
54813.599999999999
31
0.0
0
LINE
5
536
100
AcDbEntity
8
1-0
6
CONTINUOUS
62
4
100
AcDbLine
10
2954.200000000000
20
52529.050000000003
30
0.0
11
3130.900000000000
21
52215.400000000001
31
0.0
0
LINE
5
537
100
AcDbEntity
8
1-0
6
CONTINUOUS
62
4
100
AcDbLine
10
73599.110000000001
20
27839.070000000000
30
0.0
11
73484.039999999994
21
28032.430000000000
31
0.0
0
LINE
5
538
100
AcDbEntity
8
1-0
6
CONTINUOUS
62
4
100
AcDbLine
10
80380.910000000003
20
32858.709999999999
30
0.0
11
80567.190000000002
21
33093.860000000001
31
0.0
0
LINE
5
539
100
AcDbEntity
8
1-0
6
CONTINUOUS
62
4
100
AcDbLine
10
5428.780000000000
20
48307.760000000002
30
0.0
11
5614.020000000000
21
47999.070000000000
31
0.0
0
LINE
5
53a
100
AcDbEntity
8
1-0
6
CONTINUOUS
62
4
100
AcDbLine
10
12581.549999999999
20
37473.750000000000
30
0.0
11
12763.770000000000
21
37629.930000000000
31
0.0
0
LINE
5
53b
100
AcDbEntity
8
1-0
6
CONTINUOUS
62
4
100
AcDbLine
10
5572.850000000000
20
48184.279999999999
30
0.0
11
5778.630000000000
21
48307.760000000002
31
0.0
0
LINE
5
53c
100
AcDbEntity
8
1-0
6
CONTINUOUS
62
4
100
AcDbLine
10
12418.860000000001
20
37571.370000000003
30
0.0
11
12653.139999999999
21
37298.029999999999
31
0.0
0
LINE
5
53d
100
AcDbEntity
8
1-0
6
CONTINUOUS
62
4
100
AcDbLine
10
10685.190000000001
20
39593.959999999999
30
0.0
11
10919.469999999999
21
39320.629999999997
31
0.0
0
LINE
5
53e
100
AcDbEntity
8
1-0
6
CONTINUOUS
62
3
100
AcDbLine
10
74883.500000000000
20
53172.519999999997
30
0.0
11
75213.000000000000
21
52799.000000000000
31
0.0
0
LINE
5
53f
100
AcDbEntity
8
1-0
6
CONTINUOUS
62
3
100
AcDbLine
10
75213.000000000000
20
52799.000000000000
30
0.0
11
75538.850000000006
21
52420.989999999998
31
0.0
0
LINE
5
540
100
AcDbEntity
8
1-0
6
CONTINUOUS
62
3
100
AcDbLine
10
75538.850000000006
20
52420.989999999998
30
0.0
11
75857.350000000006
21
52034.000000000000
31
0.0
0
LINE
5
541
100
AcDbEntity
8
1-0
6
CONTINUOUS
62
3
100
AcDbLine
10
75857.350000000006
20
52034.000000000000
30
0.0
11
76164.720000000001
21
51633.580000000002
31
0.0
0
LINE
5
542
100
AcDbEntity
8
1-0
6
CONTINUOUS
62
3
100
AcDbLine
10
76164.720000000001
20
51633.580000000002
30
0.0
11
76454.490000000005
21
51217.400000000001
31
0.0
0
LINE
5
543
100
AcDbEntity
8
1-0
6
CONTINUOUS
62
3
100
AcDbLine
10
76454.490000000005
20
51217.400000000001
30
0.0
11
76717.259999999995
21
50785.190000000002
31
0.0
0
LINE
5
544
100
AcDbEntity
8
1-0
6
CONTINUOUS
62
3
100
AcDbLine
10
76717.259999999995
20
50785.190000000002
30
0.0
11
76943.509999999995
21
50336.870000000003
31
0.0
0
LINE
5
545
100
AcDbEntity
8
1-0
6
CONTINUOUS
62
3
100
AcDbLine
10
76943.509999999995
20
50336.870000000003
30
0.0
11
77123.699999999997
21
49872.309999999998
31
0.0
0
LINE
5
546
100
AcDbEntity
8
1-0
6
CONTINUOUS
62
3
100
AcDbLine
10
77123.699999999997
20
49872.309999999998
30
0.0
11
77249.910000000003
21
49391.489999999998
31
0.0
0
LINE
5
547
100
AcDbEntity
8
1-0
6
CONTINUOUS
62
3
100
AcDbLine
10
77249.910000000003
20
49391.489999999998
30
0.0
11
77339.070000000007
21
48895.660000000003
31
0.0
0
LINE
5
548
100
AcDbEntity
8
1-0
6
CONTINUOUS
62
3
100
AcDbLine
10
77339.070000000007
20
48895.660000000003
30
0.0
11
77407.690000000002
21
48389.580000000002
31
0.0
0
LINE
5
549
100
AcDbEntity
8
1-0
6
CONTINUOUS
62
3
100
AcDbLine
10
77407.690000000002
20
48389.580000000002
30
0.0
11
77438.009999999995
21
47882.330000000002
31
0.0
0
LINE
5
54a
100
AcDbEntity
8
1-0
6
CONTINUOUS
62
3
100
AcDbLine
10
77438.009999999995
20
47882.330000000002
30
0.0
11
77408.809999999998
21
47383.419999999998
31
0.0
0
LINE
5
54b
100
AcDbEntity
8
1-0
6
CONTINUOUS
62
3
100
AcDbLine
10
77408.809999999998
20
47383.419999999998
30
0.0
11
77298.940000000002
21
46902.330000000002
31
0.0
0
LINE
5
54c
100
AcDbEntity
8
1-0
6
CONTINUOUS
62
3
100
AcDbLine
10
77298.940000000002
20
46902.330000000002
30
0.0
11
77102.529999999999
21
46444.730000000003
31
0.0
0
LINE
5
54d
100
AcDbEntity
8
1-0
6
CONTINUOUS
62
3
100
AcDbLine
10
77102.529999999999
20
46444.730000000003
30
0.0
11
76844.929999999993
21
46008.389999999999
31
0.0
0
LINE
5
54e
100
AcDbEntity
8
1-0
6
CONTINUOUS
62
3
100
AcDbLine
10
76844.929999999993
20
46008.389999999999
30
0.0
11
76551.350000000006
21
45591.110000000001
31
0.0
0
LINE
5
54f
100
AcDbEntity
8
1-0
6
CONTINUOUS
62
3
100
AcDbLine
10
76551.350000000006
20
45591.110000000001
30
0.0
11
76228.979999999996
21
45195.089999999997
31
0.0
0
LINE
5
550
100
AcDbEntity
8
1-0
6
CONTINUOUS
62
3
100
AcDbLine
10
76228.979999999996
20
45195.089999999997
30
0.0
11
75879.919999999998
21
44823.800000000003
31
0.0
0
LINE
5
551
100
AcDbEntity
8
1-0
6
CONTINUOUS
62
3
100
AcDbLine
10
75879.919999999998
20
44823.800000000003
30
0.0
11
75506.259999999995
21
44480.720000000001
31
0.0
0
LINE
5
552
100
AcDbEntity
8
1-0
6
CONTINUOUS
62
3
100
AcDbLine
10
75506.259999999995
20
44480.720000000001
30
0.0
11
75110.070000000007
21
44169.300000000003
31
0.0
0
LINE
5
553
100
AcDbEntity
8
1-0
6
CONTINUOUS
62
3
100
AcDbLine
10
75110.070000000007
20
44169.300000000003
30
0.0
11
74693.470000000001
21
43893.010000000002
31
0.0
0
LINE
5
554
100
AcDbEntity
8
1-0
6
CONTINUOUS
62
3
100
AcDbLine
10
74693.470000000001
20
43893.010000000002
30
0.0
11
74258.539999999994
21
43655.290000000001
31
0.0
0
LINE
5
555
100
AcDbEntity
8
1-0
6
CONTINUOUS
62
3
100
AcDbLine
10
74258.539999999994
20
43655.290000000001
30
0.0
11
73807.250000000000
21
43457.019999999997
31
0.0
0
LINE
5
556
100
AcDbEntity
8
1-0
6
CONTINUOUS
62
3
100
AcDbLine
10
73807.250000000000
20
43457.019999999997
30
0.0
11
73341.259999999995
21
43291.800000000003
31
0.0
0
LINE
5
557
100
AcDbEntity
8
1-0
6
CONTINUOUS
62
3
100
AcDbLine
10
73341.259999999995
20
43291.800000000003
30
0.0
11
72862.149999999994
21
43151.980000000003
31
0.0
0
LINE
5
558
100
AcDbEntity
8
1-0
6
CONTINUOUS
62
3
100
AcDbLine
10
72862.149999999994
20
43151.980000000003
30
0.0
11
72371.539999999994
21
43029.940000000002
31
0.0
0
LINE
5
559
100
AcDbEntity
8
1-0
6
CONTINUOUS
62
3
100
AcDbLine
10
72371.539999999994
20
43029.940000000002
30
0.0
11
71871.009999999995
21
42918.040000000001
31
0.0
0
LINE
5
55a
100
AcDbEntity
8
1-0
6
CONTINUOUS
62
3
100
AcDbLine
10
71871.009999999995
20
42918.040000000001
30
0.0
11
71362.270000000004
21
42809.879999999997
31
0.0
0
LINE
5
55b
100
AcDbEntity
8
1-0
6
CONTINUOUS
62
3
100
AcDbLine
10
71362.270000000004
20
42809.879999999997
30
0.0
11
70847.759999999995
21
42707.589999999997
31
0.0
0
LINE
5
55c
100
AcDbEntity
8
1-0
6
CONTINUOUS
62
3
100
AcDbLine
10
70847.759999999995
20
42707.589999999997
30
0.0
11
70330.220000000001
21
42616.889999999999
31
0.0
0
LINE
5
55d
100
AcDbEntity
8
1-0
6
CONTINUOUS
62
3
100
AcDbLine
10
70330.220000000001
20
42616.889999999999
30
0.0
11
69812.389999999999
21
42543.570000000000
31
0.0
0
LINE
5
55e
100
AcDbEntity
8
1-0
6
CONTINUOUS
62
3
100
AcDbLine
10
69812.389999999999
20
42543.570000000000
30
0.0
11
69297.020000000004
21
42493.320000000000
31
0.0
0
LINE
5
55f
100
AcDbEntity
8
1-0
6
CONTINUOUS
62
3
100
AcDbLine
10
69297.020000000004
20
42493.320000000000
30
0.0
11
68786.839999999997
21
42471.930000000000
31
0.0
0
LINE
5
560
100
AcDbEntity
8
1-0
6
CONTINUOUS
62
3
100
AcDbLine
10
68786.839999999997
20
42471.930000000000
30
0.0
11
68284.619999999995
21
42485.120000000003
31
0.0
0
LINE
5
561
100
AcDbEntity
8
1-0
6
CONTINUOUS
62
3
100
AcDbLine
10
68284.619999999995
20
42485.120000000003
30
0.0
11
67793.089999999997
21
42538.669999999998
31
0.0
0
LINE
5
562
100
AcDbEntity
8
1-0
6
CONTINUOUS
62
3
100
AcDbLine
10
67793.089999999997
20
42538.669999999998
30
0.0
11
67314.990000000005
21
42638.309999999998
31
0.0
0
LINE
5
563
100
AcDbEntity
8
1-0
6
CONTINUOUS
62
3
100
AcDbLine
10
67314.990000000005
20
42638.309999999998
30
0.0
11
66853.059999999998
21
42789.779999999999
31
0.0
0
LINE
5
564
100
AcDbEntity
8
1-0
6
CONTINUOUS
62
3
100
AcDbLine
10
66853.059999999998
20
42789.779999999999
30
0.0
11
66409.770000000004
21
42997.839999999997
31
0.0
0
LINE
5
565
100
AcDbEntity
8
1-0
6
CONTINUOUS
62
3
100
AcDbLine
10
66409.770000000004
20
42997.839999999997
30
0.0
11
65983.779999999999
21
43255.089999999997
31
0.0
0
LINE
5
566
100
AcDbEntity
8
1-0
6
CONTINUOUS
62
3
100
AcDbLine
10
65983.779999999999
20
43255.089999999997
30
0.0
11
65571.339999999997
21
43546.230000000003
31
0.0
0
LINE
5
567
100
AcDbEntity
8
1-0
6
CONTINUOUS
62
3
100
AcDbLine
10
65571.339999999997
20
43546.230000000003
30
0.0
11
65168.680000000000
21
43855.790000000001
31
0.0
0
LINE
5
568
100
AcDbEntity
8
1-0
6
CONTINUOUS
62
3
100
AcDbLine
10
65168.680000000000
20
43855.790000000001
30
0.0
11
64772.980000000003
21
44171.309999999998
31
0.0
0
LINE
5
569
100
AcDbEntity
8
1-0
6
CONTINUOUS
62
3
100
AcDbLine
10
64772.980000000003
20
44171.309999999998
30
0.0
11
64385.330000000002
21
44492.370000000003
31
0.0
0
LINE
5
56a
100
AcDbEntity
8
1-0
6
CONTINUOUS
62
3
100
AcDbLine
10
64385.330000000002
20
44492.370000000003
30
0.0
11
64007.800000000003
21
44821.599999999999
31
0.0
0
LINE
5
56b
100
AcDbEntity
8
1-0
6
CONTINUOUS
62
3
100
AcDbLine
10
64007.800000000003
20
44821.599999999999
30
0.0
11
63642.510000000002
21
45161.599999999999
31
0.0
0
LINE
5
56c
100
AcDbEntity
8
1-0
6
CONTINUOUS
62
3
100
AcDbLine
10
63642.510000000002
20
45161.599999999999
30
0.0
11
63291.529999999999
21
45515.040000000001
31
0.0
0
LINE
5
56d
100
AcDbEntity
8
1-0
6
CONTINUOUS
62
3
100
AcDbLine
10
63291.529999999999
20
45515.040000000001
30
0.0
11
62956.940000000002
21
45884.500000000000
31
0.0
0
LINE
5
56e
100
AcDbEntity
8
1-0
6
CONTINUOUS
62
3
100
AcDbLine
10
62956.940000000002
20
45884.500000000000
30
0.0
11
62640.860000000001
21
46272.379999999997
31
0.0
0
LINE
5
56f
100
AcDbEntity
8
1-0
6
CONTINUOUS
62
3
100
AcDbLine
10
62640.860000000001
20
46272.379999999997
30
0.0
11
62345.389999999999
21
46678.489999999998
31
0.0
0
LINE
5
570
100
AcDbEntity
8
1-0
6
CONTINUOUS
62
3
100
AcDbLine
10
62345.389999999999
20
46678.489999999998
30
0.0
11
62072.639999999999
21
47101.209999999999
31
0.0
0
LINE
5
571
100
AcDbEntity
8
1-0
6
CONTINUOUS
62
3
100
AcDbLine
10
62072.639999999999
20
47101.209999999999
30
0.0
11
61824.790000000001
21
47538.860000000001
31
0.0
0
LINE
5
572
100
AcDbEntity
8
1-0
6
CONTINUOUS
62
3
100
AcDbLine
10
61824.790000000001
20
47538.860000000001
30
0.0
11
61603.940000000002
21
47989.800000000003
31
0.0
0
LINE
5
573
100
AcDbEntity
8
1-0
6
CONTINUOUS
62
3
100
AcDbLine
10
61603.940000000002
20
47989.800000000003
30
0.0
11
61412.230000000003
21
48452.349999999999
31
0.0
0
LINE
5
574
100
AcDbEntity
8
1-0
6
CONTINUOUS
62
3
100
AcDbLine
10
61412.230000000003
20
48452.349999999999
30
0.0
11
61251.160000000003
21
48925.139999999999
31
0.0
0
LINE
5
575
100
AcDbEntity
8
1-0
6
CONTINUOUS
62
3
100
AcDbLine
10
61251.160000000003
20
48925.139999999999
30
0.0
11
61120.690000000002
21
49407.330000000002
31
0.0
0
LINE
5
576
100
AcDbEntity
8
1-0
6
CONTINUOUS
62
3
100
AcDbLine
10
61120.690000000002
20
49407.330000000002
30
0.0
11
61020.559999999998
21
49898.230000000003
31
0.0
0
LINE
5
577
100
AcDbEntity
8
1-0
6
CONTINUOUS
62
3
100
AcDbLine
10
61020.559999999998
20
49898.230000000003
30
0.0
11
60950.470000000001
21
50397.110000000001
31
0.0
0
LINE
5
578
100
AcDbEntity
8
1-0
6
CONTINUOUS
62
3
100
AcDbLine
10
60950.470000000001
20
50397.110000000001
30
0.0
11
60910.220000000001
21
50903.250000000000
31
0.0
0
LINE
5
579
100
AcDbEntity
8
1-0
6
CONTINUOUS
62
3
100
AcDbLine
10
60910.220000000001
20
50903.250000000000
30
0.0
11
60900.339999999997
21
51414.800000000003
31
0.0
0
LINE
5
57a
100
AcDbEntity
8
1-0
6
CONTINUOUS
62
3
100
AcDbLine
10
60900.339999999997
20
51414.800000000003
30
0.0
11
60923.300000000003
21
51927.220000000001
31
0.0
0
LINE
5
57b
100
AcDbEntity
8
1-0
6
CONTINUOUS
62
3
100
AcDbLine
10
60923.300000000003
20
51927.220000000001
30
0.0
11
60981.839999999997
21
52435.690000000002
31
0.0
0
LINE
5
57c
100
AcDbEntity
8
1-0
6
CONTINUOUS
62
3
100
AcDbLine
10
60981.839999999997
20
52435.690000000002
30
0.0
11
61078.660000000003
21
52935.360000000001
31
0.0
0
LINE
5
57d
100
AcDbEntity
8
1-0
6
CONTINUOUS
62
3
100
AcDbLine
10
61078.660000000003
20
52935.360000000001
30
0.0
11
61216.529999999999
21
53421.370000000003
31
0.0
0
LINE
5
57e
100
AcDbEntity
8
1-0
6
CONTINUOUS
62
3
100
AcDbLine
10
61216.529999999999
20
53421.370000000003
30
0.0
11
61398.150000000001
21
53888.839999999997
31
0.0
0
LINE
5
57f
100
AcDbEntity
8
1-0
6
CONTINUOUS
62
3
100
AcDbLine
10
61398.150000000001
20
53888.839999999997
30
0.0
11
61626.239999999998
21
54332.959999999999
31
0.0
0
LINE
5
580
100
AcDbEntity
8
1-0
6
CONTINUOUS
62
3
100
AcDbLine
10
61626.239999999998
20
54332.959999999999
30
0.0
11
61902.300000000003
21
54749.400000000001
31
0.0
0
LINE
5
581
100
AcDbEntity
8
1-0
6
CONTINUOUS
62
3
100
AcDbLine
10
61902.300000000003
20
54749.400000000001
30
0.0
11
62221.419999999998
21
55136.599999999999
31
0.0
0
LINE
5
582
100
AcDbEntity
8
1-0
6
CONTINUOUS
62
3
100
AcDbLine
10
62221.419999999998
20
55136.599999999999
30
0.0
11
62576.709999999999
21
55493.860000000001
31
0.0
0
LINE
5
583
100
AcDbEntity
8
1-0
6
CONTINUOUS
62
3
100
AcDbLine
10
62576.709999999999
20
55493.860000000001
30
0.0
11
62961.230000000003
21
55820.519999999997
31
0.0
0
LINE
5
584
100
AcDbEntity
8
1-0
6
CONTINUOUS
62
3
100
AcDbLine
10
62961.230000000003
20
55820.519999999997
30
0.0
11
63369.860000000001
21
56113.580000000002
31
0.0
0
LINE
5
585
100
AcDbEntity
8
1-0
6
CONTINUOUS
62
3
100
AcDbLine
10
63369.860000000001
20
56113.580000000002
30
0.0
11
63802.000000000000
21
56364.000000000000
31
0.0
0
LINE
5
586
100
AcDbEntity
8
1-0
6
CONTINUOUS
62
3
100
AcDbLine
10
63802.000000000000
20
56364.000000000000
30
0.0
11
64257.470000000001
21
56562.970000000001
31
0.0
0
LINE
5
587
100
AcDbEntity
8
1-0
6
CONTINUOUS
62
3
100
AcDbLine
10
64257.470000000001
20
56562.970000000001
30
0.0
11
64733.059999999998
21
56712.080000000002
31
0.0
0
LINE
5
588
100
AcDbEntity
8
1-0
6
CONTINUOUS
62
3
100
AcDbLine
10
64733.059999999998
20
56712.080000000002
30
0.0
11
65223.900000000001
21
56818.349999999999
31
0.0
0
LINE
5
589
100
AcDbEntity
8
1-0
6
CONTINUOUS
62
3
100
AcDbLine
10
65223.900000000001
20
56818.349999999999
30
0.0
11
65725.179999999993
21
56888.750000000000
31
0.0
0
LINE
5
58a
100
AcDbEntity
8
1-0
6
CONTINUOUS
62
3
100
AcDbLine
10
65725.179999999993
20
56888.750000000000
30
0.0
11
66232.059999999998
21
56930.379999999997
31
0.0
0
LINE
5
58b
100
AcDbEntity
8
1-0
6
CONTINUOUS
62
3
100
AcDbLine
10
66232.059999999998
20
56930.379999999997
30
0.0
11
66739.690000000002
21
56950.260000000002
31
0.0
0
LINE
5
58c
100
AcDbEntity
8
1-0
6
CONTINUOUS
62
3
100
AcDbLine
10
66739.690000000002
20
56950.260000000002
30
0.0
11
67243.479999999996
21
56955.519999999997
31
0.0
0
LINE
5
58d
100
AcDbEntity
8
1-0
6
CONTINUOUS
62
3
100
AcDbLine
10
67243.479999999996
20
56955.519999999997
30
0.0
11
67742.550000000003
21
56955.589999999997
31
0.0
0
LINE
5
58e
100
AcDbEntity
8
1-0
6
CONTINUOUS
62
3
100
AcDbLine
10
67742.550000000003
20
56955.589999999997
30
0.0
11
68239.259999999995
21
56961.680000000000
31
0.0
0
LINE
5
58f
100
AcDbEntity
8
1-0
6
CONTINUOUS
62
3
100
AcDbLine
10
68239.259999999995
20
56961.680000000000
30
0.0
11
68736.000000000000
21
56985.110000000001
31
0.0
0
LINE
5
590
100
AcDbEntity
8
1-0
6
CONTINUOUS
62
3
100
AcDbLine
10
68736.000000000000
20
56985.110000000001
30
0.0
11
69235.190000000002
21
57037.169999999998
31
0.0
0
LINE
5
591
100
AcDbEntity
8
1-0
6
CONTINUOUS
62
3
100
AcDbLine
10
69235.190000000002
20
57037.169999999998
30
0.0
11
69739.220000000001
21
57128.900000000001
31
0.0
0
LINE
5
592
100
AcDbEntity
8
1-0
6
CONTINUOUS
62
3
100
AcDbLine
10
69739.220000000001
20
57128.900000000001
30
0.0
11
70243.929999999993
21
57233.660000000003
31
0.0
0
LINE
5
593
100
AcDbEntity
8
1-0
6
CONTINUOUS
62
3
100
AcDbLine
10
70243.929999999993
20
57233.660000000003
30
0.0
11
70731.669999999998
21
57246.800000000003
31
0.0
0
LINE
5
594
100
AcDbEntity
8
1-0
6
CONTINUOUS
62
3
100
AcDbLine
10
70731.669999999998
20
57246.800000000003
30
0.0
11
71184.929999999993
21
57079.330000000002
31
0.0
0
LINE
5
595
100
AcDbEntity
8
1-0
6
CONTINUOUS
62
3
100
AcDbLine
10
71184.929999999993
20
57079.330000000002
30
0.0
11
71595.179999999993
21
56768.180000000000
31
0.0
0
LINE
5
596
100
AcDbEntity
8
1-0
6
CONTINUOUS
62
3
100
AcDbLine
10
71595.179999999993
20
56768.180000000000
30
0.0
11
71956.759999999995
21
56389.180000000000
31
0.0
0
LINE
5
597
100
AcDbEntity
8
1-0
6
CONTINUOUS
62
3
100
AcDbLine
10
71956.759999999995
20
56389.180000000000
30
0.0
11
72272.919999999998
21
55997.129999999997
31
0.0
0
LINE
5
598
100
AcDbEntity
8
1-0
6
CONTINUOUS
62
3
100
AcDbLine
10
72272.919999999998
20
55997.129999999997
30
0.0
11
72543.410000000003
21
55632.629999999997
31
0.0
0
ARC
5
599
100
AcDbEntity
8
1-0
6
CONTINUOUS
62
4
100
AcDbCircle
10
56905.110000000001
20
13430.320000000000
30
0.0
40
299.999997209656
100
AcDbArc
50
11.510375976563
51
152.567977905273
0
ARC
5
59a
100
AcDbEntity
8
1-0
6
CONTINUOUS
62
4
100
AcDbCircle
10
56345.559999999998
20
13508.559999999999
30
0.0
40
299.999997209656
100
AcDbArc
50
11.510375976563
51
152.567977905273
0
ARC
5
59b
100
AcDbEntity
8
1-0
6
CONTINUOUS
62
4
100
AcDbCircle
10
64989.269999999997
20
11861.129999999999
30
0.0
40
299.999997209656
100
AcDbArc
50
7.876525878906
51
148.934112548828
0
ARC
5
59c
100
AcDbEntity
8
1-0
6
CONTINUOUS
62
4
100
AcDbCircle
10
40795.570000000000
20
15115.309999999999
30
0.0
40
299.999997209656
100
AcDbArc
50
357.218399047852
51
138.275970458984
0
ARC
5
59d
100
AcDbEntity
8
1-0
6
CONTINUOUS
62
4
100
AcDbCircle
10
47665.959999999999
20
13649.400000000000
30
0.0
40
299.999997209656
100
AcDbArc
50
10.697998046875
51
151.755584716797
0
ARC
5
59e
100
AcDbEntity
8
1-0
6
CONTINUOUS
62
4
100
AcDbCircle
10
67412.789999999994
20
2043.470000000000
30
0.0
40
299.999997209656
100
AcDbArc
50
282.484268188477
51
63.541854858398
0
ARC
5
59f
100
AcDbEntity
8
1-0
6
CONTINUOUS
62
4
100
AcDbCircle
10
39749.739999999998
20
15543.240000000000
30
0.0
40
299.999997209656
100
AcDbArc
50
357.218399047852
51
138.275970458984
0
ARC
5
5a0
100
AcDbEntity
8
1-0
6
CONTINUOUS
62
4
100
AcDbCircle
10
68823.050000000003
20
10486.340000000000
30
0.0
40
299.999997209656
100
AcDbArc
50
277.850128173828
51
58.907714843750
0
ARC
5
5a1
100
AcDbEntity
8
1-0
6
CONTINUOUS
62
4
100
AcDbCircle
10
68595.410000000003
20
9379.510000000000
30
0.0
40
299.999997209656
100
AcDbArc
50
277.850128173828
51
58.907714843750
0
ARC
5
5a2
100
AcDbEntity
8
1-0
6
CONTINUOUS
62
4
100
AcDbCircle
10
60384.809999999998
20
12601.700000000001
30
0.0
40
299.999997209656
100
AcDbArc
50
7.876525878906
51
148.934112548828
0
ARC
5
5a3
100
AcDbEntity
8
1-0
6
CONTINUOUS
62
4
100
AcDbCircle
10
59831.349999999999
20
12715.250000000000
30
0.0
40
299.999997209656
100
AcDbArc
50
7.876525878906
51
148.934112548828
0
ARC
5
5a4
100
AcDbEntity
8
1-0
6
CONTINUOUS
62
4
100
AcDbCircle
10
40612.160000000003
20
15406.450000000001
30
0.0
40
299.999997209656
100
AcDbArc
50
357.218399047852
51
138.275970458984
0
ARC
5
5a5
100
AcDbEntity
8
1-0
6
CONTINUOUS
62
4
100
AcDbCircle
10
68156.059999999998
20
6464.250000000000
30
0.0
40
299.999997209656
100
AcDbArc
50
282.484268188477
51
63.541854858398
0
ARC
5
5a6
100
AcDbEntity
8
1-0
6
CONTINUOUS
62
4
100
AcDbCircle
10
67714.089999999997
20
2857.860000000000
30
0.0
40
299.999997209656
100
AcDbArc
50
282.484268188477
51
63.541854858398
0
ARC
5
5a7
100
AcDbEntity
8
1-0
6
CONTINUOUS
62
4
100
AcDbCircle
10
67481.520000000004
20
2604.290000000000
30
0.0
40
299.999997209656
100
AcDbArc
50
282.484268188477
51
63.541854858398
0
ARC
5
5a8
100
AcDbEntity
8
1-0
6
CONTINUOUS
62
4
100
AcDbCircle
10
48224.349999999999
20
13563.230000000000
30
0.0
40
299.999997209656
100
AcDbArc
50
10.697998046875
51
151.755584716797
0
ARC
5
5a9
100
AcDbEntity
8
1-0
6
CONTINUOUS
62
3
100
AcDbCircle
10
59220.040000000001
20
24403.560000000001
30
0.0
40
1088.657393339112
100
AcDbArc
50
89.933410644531
51
181.692596435547
0
ARC
5
5aa
100
AcDbEntity
8
1-0
6
CONTINUOUS
62
4
100
AcDbCircle
10
68060.940000000002
20
7332.270000000000
30
0.0
40
299.999997209656
100
AcDbArc
50
282.484268188477
51
63.541854858398
0
ARC
5
5ab
100
AcDbEntity
8
1-0
6
CONTINUOUS
62
4
100
AcDbCircle
10
67645.360000000001
20
2297.080000000000
30
0.0
40
299.999997209656
100
AcDbArc
50
282.484268188477
51
63.541854858398
0
ARC
5
5ac
100
AcDbEntity
8
1-0
6
CONTINUOUS
62
4
100
AcDbCircle
10
40272.660000000003
20
15329.270000000000
30
0.0
40
299.999997209656
100
AcDbArc
50
357.218399047852
51
138.275970458984
0
ARC
5
5ad
100
AcDbEntity
8
1-0
6
CONTINUOUS
62
4
100
AcDbCircle
10
41318.489999999998
20
14901.350000000000
30
0.0
40
299.999997209656
100
AcDbArc
50
357.218399047852
51
138.275970458984
0
ARC
5
5ae
100
AcDbEntity
8
1-0
6
CONTINUOUS
62
4
100
AcDbCircle
10
68129.669999999998
20
7893.070000000000
30
0.0
40
299.999997209656
100
AcDbArc
50
282.484268188477
51
63.541854858398
0
ARC
5
5af
100
AcDbEntity
8
1-0
6
CONTINUOUS
62
3
100
AcDbCircle
10
54321.610000000001
20
24581.130000000001
30
0.0
40
686.253908981693
100
AcDbArc
50
355.089263916016
51
87.772583007813
0
ARC
5
5b0
100
AcDbEntity
8
1-0
6
CONTINUOUS
62
4
100
AcDbCircle
10
57464.669999999998
20
13352.059999999999
30
0.0
40
299.999997209656
100
AcDbArc
50
11.510375976563
51
152.567977905273
0
ARC
5
5b1
100
AcDbEntity
8
1-0
6
CONTINUOUS
62
4
100
AcDbCircle
10
66847.949999999997
20
14542.290000000001
30
0.0
40
299.999997209656
100
AcDbArc
50
187.876510620117
51
328.934127807617
0
ARC
5
5b2
100
AcDbEntity
8
1-0
6
CONTINUOUS
62
4
100
AcDbCircle
10
72850.529999999999
20
3010.910000000000
30
0.0
40
299.999997209656
100
AcDbArc
50
102.484283447266
51
243.541839599609
0
ARC
5
5b3
100
AcDbEntity
8
1-0
6
CONTINUOUS
62
4
100
AcDbCircle
10
65569.979999999996
20
14804.500000000000
30
0.0
40
299.999997209656
100
AcDbArc
50
187.876510620117
51
328.934127807617
0
ARC
5
5b4
100
AcDbEntity
8
1-0
6
CONTINUOUS
62
4
100
AcDbCircle
10
39226.820000000000
20
15757.190000000001
30
0.0
40
299.999997209656
100
AcDbArc
50
357.218399047852
51
138.275970458984
0
ARC
5
5b5
100
AcDbEntity
8
1-0
6
CONTINUOUS
62
4
100
AcDbCircle
10
62987.870000000003
20
15130.110000000001
30
0.0
40
299.999997209656
100
AcDbArc
50
187.876510620117
51
328.934127807617
0
ARC
5
5b6
100
AcDbEntity
8
1-0
6
CONTINUOUS
62
4
100
AcDbCircle
10
61880.919999999998
20
15357.230000000000
30
0.0
40
299.999997209656
100
AcDbArc
50
187.876510620117
51
328.934127807617
0
ARC
5
5b7
100
AcDbEntity
8
1-0
6
CONTINUOUS
62
4
100
AcDbCircle
10
73695.339999999997
20
8260.190000000001
30
0.0
40
299.999997209656
100
AcDbArc
50
102.484283447266
51
243.541839599609
0
ARC
5
5b8
100
AcDbEntity
8
1-0
6
CONTINUOUS
62
4
100
AcDbCircle
10
61327.449999999997
20
15470.790000000001
30
0.0
40
299.999997209656
100
AcDbArc
50
187.876510620117
51
328.934127807617
0
ARC
5
5b9
100
AcDbEntity
8
1-0
6
CONTINUOUS
62
4
100
AcDbCircle
10
61093.360000000001
20
15722.980000000000
30
0.0
40
299.999997209656
100
AcDbArc
50
187.876510620117
51
328.934127807617
0
ARC
5
5ba
100
AcDbEntity
8
1-0
6
CONTINUOUS
62
4
100
AcDbCircle
10
64463.029999999999
20
15031.610000000001
30
0.0
40
299.999997209656
100
AcDbArc
50
187.876510620117
51
328.934127807617
0
ARC
5
5bb
100
AcDbEntity
8
1-0
6
CONTINUOUS
62
4
100
AcDbCircle
10
73626.610000000001
20
7699.390000000000
30
0.0
40
299.999997209656
100
AcDbArc
50
102.484283447266
51
243.541839599609
0
ARC
5
5bc
100
AcDbEntity
8
1-0
6
CONTINUOUS
62
4
100
AcDbCircle
10
47360.620000000003
20
16934.419999999998
30
0.0
40
299.999997209656
100
AcDbArc
50
190.698089599609
51
331.755676269531
0
ARC
5
5bd
100
AcDbEntity
8
1-0
6
CONTINUOUS
62
4
100
AcDbCircle
10
40089.250000000000
20
15620.420000000000
30
0.0
40
299.999997209656
100
AcDbArc
50
357.218399047852
51
138.275970458984
0
ARC
5
5be
100
AcDbEntity
8
1-0
6
CONTINUOUS
62
4
100
AcDbCircle
10
39566.330000000002
20
15834.379999999999
30
0.0
40
299.999997209656
100
AcDbArc
50
357.218399047852
51
138.275970458984
0
ARC
5
5bf
100
AcDbEntity
8
1-0
6
CONTINUOUS
62
4
100
AcDbCircle
10
48165.209999999999
20
16607.869999999999
30
0.0
40
299.999997209656
100
AcDbArc
50
190.698089599609
51
331.755676269531
0
ARC
5
5c0
100
AcDbEntity
8
1-0
6
CONTINUOUS
62
4
100
AcDbCircle
10
68709.229999999996
20
9932.930000000000
30
0.0
40
299.999997209656
100
AcDbArc
50
277.850128173828
51
58.907714843750
0
ARC
5
5c1
100
AcDbEntity
8
1-0
6
CONTINUOUS
62
4
100
AcDbCircle
10
43784.110000000001
20
14248.480000000000
30
0.0
40
299.999997209656
100
AcDbArc
50
10.697998046875
51
151.755584716797
0
ARC
5
5c2
100
AcDbEntity
8
1-0
6
CONTINUOUS
62
4
100
AcDbCircle
10
44900.889999999999
20
14076.139999999999
30
0.0
40
299.999997209656
100
AcDbArc
50
10.697998046875
51
151.755584716797
0
ARC
5
5c3
100
AcDbEntity
8
1-0
6
CONTINUOUS
62
4
100
AcDbCircle
10
42667.339999999997
20
14420.840000000000
30
0.0
40
299.999997209656
100
AcDbArc
50
10.697998046875
51
151.755584716797
0
ARC
5
5c4
100
AcDbEntity
8
1-0
6
CONTINUOUS
62
4
100
AcDbCircle
10
42979.500000000000
20
14575.030000000001
30
0.0
40
299.999997209656
100
AcDbArc
50
10.697998046875
51
151.755584716797
0
ARC
5
5c5
100
AcDbEntity
8
1-0
6
CONTINUOUS
62
4
100
AcDbCircle
10
43225.720000000001
20
14334.660000000000
30
0.0
40
299.999997209656
100
AcDbArc
50
10.697998046875
51
151.755584716797
0
ARC
5
5c6
100
AcDbEntity
8
1-0
6
CONTINUOUS
62
4
100
AcDbCircle
10
47919.000000000000
20
16848.240000000002
30
0.0
40
299.999997209656
100
AcDbArc
50
190.698089599609
51
331.755676269531
0
ARC
5
5c7
100
AcDbEntity
8
1-0
6
CONTINUOUS
62
4
100
AcDbCircle
10
46802.230000000003
20
17020.599999999999
30
0.0
40
299.999997209656
100
AcDbArc
50
190.698089599609
51
331.755676269531
0
ARC
5
5c8
100
AcDbEntity
8
1-0
6
CONTINUOUS
62
4
100
AcDbCircle
10
48723.610000000001
20
16521.689999999999
30
0.0
40
299.999997209656
100
AcDbArc
50
190.698089599609
51
331.755676269531
0
ARC
5
5c9
100
AcDbEntity
8
1-0
6
CONTINUOUS
62
4
100
AcDbCircle
10
60938.279999999999
20
12488.139999999999
30
0.0
40
299.999997209656
100
AcDbArc
50
7.876525878906
51
148.934112548828
0
ARC
5
5ca
100
AcDbEntity
8
1-0
6
CONTINUOUS
62
4
100
AcDbCircle
10
64669.879999999997
20
11722.500000000000
30
0.0
40
299.999997209656
100
AcDbArc
50
7.876525878906
51
148.934112548828
0
ARC
5
5cb
100
AcDbEntity
8
1-0
6
CONTINUOUS
62
4
100
AcDbCircle
10
64116.419999999998
20
11836.070000000000
30
0.0
40
299.999997209656
100
AcDbArc
50
7.876525878906
51
148.934112548828
0
ARC
5
5cc
100
AcDbEntity
8
1-0
6
CONTINUOUS
62
4
100
AcDbCircle
10
60150.730000000003
20
12853.889999999999
30
0.0
40
299.999997209656
100
AcDbArc
50
7.876525878906
51
148.934112548828
0
ARC
5
5cd
100
AcDbEntity
8
1-0
6
CONTINUOUS
62
4
100
AcDbCircle
10
60699.010000000002
20
25482.320000000000
30
0.0
40
299.999997209656
100
AcDbArc
50
15.207641601563
51
156.265258789063
0
ARC
5
5ce
100
AcDbEntity
8
1-0
6
CONTINUOUS
62
4
100
AcDbCircle
10
61491.750000000000
20
12374.580000000000
30
0.0
40
299.999997209656
100
AcDbArc
50
7.876525878906
51
148.934112548828
0
ARC
5
5cf
100
AcDbEntity
8
1-0
6
CONTINUOUS
62
4
100
AcDbCircle
10
32190.500000000000
20
18351.900000000001
30
0.0
40
299.999997209656
100
AcDbArc
50
4.631423950195
51
145.689025878906
0
ARC
5
5d0
100
AcDbEntity
8
1-0
6
CONTINUOUS
62
4
100
AcDbCircle
10
54013.360000000001
20
13472.240000000000
30
0.0
40
299.999997209656
100
AcDbArc
50
19.971298217773
51
161.028900146484
0
ARC
5
5d1
100
AcDbEntity
8
1-0
6
CONTINUOUS
62
4
100
AcDbCircle
10
67854.759999999995
20
5649.850000000000
30
0.0
40
299.999997209656
100
AcDbArc
50
282.484268188477
51
63.541854858398
0
ARC
5
5d2
100
AcDbEntity
8
1-0
6
CONTINUOUS
62
4
100
AcDbCircle
10
61811.129999999997
20
12513.219999999999
30
0.0
40
299.999997209656
100
AcDbArc
50
7.876525878906
51
148.934112548828
0
ARC
5
5d3
100
AcDbEntity
8
1-0
6
CONTINUOUS
62
4
100
AcDbCircle
10
61257.660000000003
20
12626.770000000000
30
0.0
40
299.999997209656
100
AcDbArc
50
7.876525878906
51
148.934112548828
0
ARC
5
5d4
100
AcDbEntity
8
1-0
6
CONTINUOUS
62
4
100
AcDbCircle
10
65776.820000000007
20
11495.389999999999
30
0.0
40
299.999997209656
100
AcDbArc
50
7.876525878906
51
148.934112548828
0
ARC
5
5d5
100
AcDbEntity
8
1-0
6
CONTINUOUS
62
4
100
AcDbCircle
10
67992.210000000006
20
6771.460000000000
30
0.0
40
299.999997209656
100
AcDbArc
50
282.484268188477
51
63.541854858398
0
ARC
5
5d6
100
AcDbEntity
8
1-0
6
CONTINUOUS
62
4
100
AcDbCircle
10
68229.300000000003
20
8592.120000000001
30
0.0
40
299.999997209656
100
AcDbArc
50
277.850128173828
51
58.907714843750
0
ARC
5
5d7
100
AcDbEntity
8
1-0
6
CONTINUOUS
62
4
100
AcDbCircle
10
57154.720000000001
20
13193.469999999999
30
0.0
40
299.999997209656
100
AcDbArc
50
11.510375976563
51
152.567977905273
0
ARC
5
5d8
100
AcDbEntity
8
1-0
6
CONTINUOUS
62
4
100
AcDbCircle
10
55786.000000000000
20
13586.820000000000
30
0.0
40
299.999997209656
100
AcDbArc
50
11.510375976563
51
152.567977905273
0
ARC
5
5d9
100
AcDbEntity
8
1-0
6
CONTINUOUS
62
4
100
AcDbCircle
10
56035.610000000001
20
13349.959999999999
30
0.0
40
299.999997209656
100
AcDbArc
50
11.510375976563
51
152.567977905273
0
ARC
5
5da
100
AcDbEntity
8
1-0
6
CONTINUOUS
62
4
100
AcDbCircle
10
67344.050000000003
20
1482.680000000000
30
0.0
40
299.999997209656
100
AcDbArc
50
282.484268188477
51
63.541854858398
0
ARC
5
5db
100
AcDbEntity
8
1-0
6
CONTINUOUS
62
4
100
AcDbCircle
10
65223.360000000001
20
11608.950000000001
30
0.0
40
299.999997209656
100
AcDbArc
50
7.876525878906
51
148.934112548828
0
ARC
5
5dc
100
AcDbEntity
8
1-0
6
CONTINUOUS
62
4
100
AcDbCircle
10
65542.740000000005
20
11747.580000000000
30
0.0
40
299.999997209656
100
AcDbArc
50
7.876525878906
51
148.934112548828
0
ARC
5
5dd
100
AcDbEntity
8
1-0
6
CONTINUOUS
62
4
100
AcDbCircle
10
60704.190000000002
20
12740.330000000000
30
0.0
40
299.999997209656
100
AcDbArc
50
7.876525878906
51
148.934112548828
0
ARC
5
5de
100
AcDbEntity
8
1-0
6
CONTINUOUS
62
4
100
AcDbCircle
10
67550.240000000005
20
3165.080000000000
30
0.0
40
299.999997209656
100
AcDbArc
50
282.484268188477
51
63.541854858398
0
ARC
5
5df
100
AcDbEntity
8
1-0
6
CONTINUOUS
62
3
100
AcDbCircle
10
59057.589999999997
20
24380.189999999999
30
0.0
40
626.210950848323
100
AcDbArc
50
78.408203125000
51
181.280334472656
0
ARC
5
5e0
100
AcDbEntity
8
1-0
6
CONTINUOUS
62
4
100
AcDbCircle
10
52491.430000000000
20
16659.099999999999
30
0.0
40
299.999997209656
100
AcDbArc
50
199.971328735352
51
341.028945922852
0
ARC
5
5e1
100
AcDbEntity
8
1-0
6
CONTINUOUS
62
3
100
AcDbCircle
10
54036.139999999999
20
24525.939999999999
30
0.0
40
1269.808210803451
100
AcDbArc
50
358.394668579102
51
79.409179687500
0
ARC
5
5e2
100
AcDbEntity
8
1-0
6
CONTINUOUS
62
3
100
AcDbCircle
10
54036.139999999999
20
24525.939999999999
30
0.0
40
1725.231886568974
100
AcDbArc
50
358.394668579102
51
82.147613525391
0
ARC
5
5e3
100
AcDbEntity
8
1-0
6
CONTINUOUS
62
4
100
AcDbCircle
10
41135.089999999997
20
15192.500000000000
30
0.0
40
299.999997209656
100
AcDbArc
50
357.218399047852
51
138.275970458984
0
ARC
5
5e4
100
AcDbEntity
8
1-0
6
CONTINUOUS
62
4
100
AcDbCircle
10
32105.459999999999
20
21684.860000000001
30
0.0
40
299.999997209656
100
AcDbArc
50
184.631408691406
51
325.689025878906
0
ARC
5
5e5
100
AcDbEntity
8
1-0
6
CONTINUOUS
62
4
100
AcDbCircle
10
68481.600000000006
20
8826.090000000000
30
0.0
40
299.999997209656
100
AcDbArc
50
277.850128173828
51
58.907714843750
0
ARC
5
5e6
100
AcDbEntity
8
1-0
6
CONTINUOUS
62
4
100
AcDbCircle
10
67576.630000000005
20
1736.270000000000
30
0.0
40
299.999997209656
100
AcDbArc
50
282.484268188477
51
63.541854858398
0
ARC
5
5e7
100
AcDbEntity
8
1-0
6
CONTINUOUS
62
4
100
AcDbCircle
10
46549.190000000002
20
13821.750000000000
30
0.0
40
299.999997209656
100
AcDbArc
50
10.697998046875
51
151.755584716797
0
ARC
5
5e8
100
AcDbEntity
8
1-0
6
CONTINUOUS
62
4
100
AcDbCircle
10
47048.440000000002
20
16780.220000000001
30
0.0
40
299.999997209656
100
AcDbArc
50
190.698089599609
51
331.755676269531
0
ARC
5
5e9
100
AcDbEntity
8
1-0
6
CONTINUOUS
62
4
100
AcDbCircle
10
47606.839999999997
20
16694.049999999999
30
0.0
40
299.999997209656
100
AcDbArc
50
190.698089599609
51
331.755676269531
0
ARC
5
5ea
100
AcDbEntity
8
1-0
6
CONTINUOUS
62
4
100
AcDbCircle
10
44342.489999999998
20
14162.309999999999
30
0.0
40
299.999997209656
100
AcDbArc
50
10.697998046875
51
151.755584716797
0
ARC
5
5eb
100
AcDbEntity
8
1-0
6
CONTINUOUS
62
3
100
AcDbCircle
10
59220.040000000001
20
24403.560000000001
30
0.0
40
1463.526206750365
100
AcDbArc
50
89.933410644531
51
181.692596435547
0
ARC
5
5ec
100
AcDbEntity
8
1-0
6
CONTINUOUS
62
4
100
AcDbCircle
10
44294.290000000001
20
17205.259999999998
30
0.0
40
299.999997209656
100
AcDbArc
50
190.698089599609
51
331.755676269531
0
ARC
5
5ed
100
AcDbEntity
8
1-0
6
CONTINUOUS
62
4
100
AcDbCircle
10
43735.900000000001
20
17291.439999999999
30
0.0
40
299.999997209656
100
AcDbArc
50
190.698089599609
51
331.755676269531
0
ARC
5
5ee
100
AcDbEntity
8
1-0
6
CONTINUOUS
62
4
100
AcDbCircle
10
52883.400000000001
20
13462.379999999999
30
0.0
40
299.999997209656
100
AcDbArc
50
19.971298217773
51
161.028900146484
0
ARC
5
5ef
100
AcDbEntity
8
1-0
6
CONTINUOUS
62
4
100
AcDbCircle
10
46861.349999999999
20
13975.950000000001
30
0.0
40
299.999997209656
100
AcDbArc
50
10.697998046875
51
151.755584716797
0
ARC
5
5f0
100
AcDbEntity
8
1-0
6
CONTINUOUS
62
4
100
AcDbCircle
10
51926.470000000001
20
16654.169999999998
30
0.0
40
299.999997209656
100
AcDbArc
50
199.971328735352
51
341.028945922852
0
ARC
5
5f1
100
AcDbEntity
8
1-0
6
CONTINUOUS
62
4
100
AcDbCircle
10
53448.379999999997
20
13467.320000000000
30
0.0
40
299.999997209656
100
AcDbArc
50
19.971298217773
51
161.028900146484
0
ARC
5
5f2
100
AcDbEntity
8
1-0
6
CONTINUOUS
62
4
100
AcDbCircle
10
52208.199999999997
20
16456.619999999999
30
0.0
40
299.999997209656
100
AcDbArc
50
199.971328735352
51
341.028945922852
0
ARC
5
5f3
100
AcDbEntity
8
1-0
6
CONTINUOUS
62
4
100
AcDbCircle
10
67923.479999999996
20
6210.650000000000
30
0.0
40
299.999997209656
100
AcDbArc
50
282.484268188477
51
63.541854858398
0
ARC
5
5f4
100
AcDbEntity
8
1-0
6
CONTINUOUS
62
4
100
AcDbCircle
10
68293.520000000004
20
7585.850000000000
30
0.0
40
299.999997209656
100
AcDbArc
50
282.484268188477
51
63.541854858398
0
ARC
5
5f5
100
AcDbEntity
8
1-0
6
CONTINUOUS
62
4
100
AcDbCircle
10
68224.789999999994
20
7025.060000000000
30
0.0
40
299.999997209656
100
AcDbArc
50
282.484268188477
51
63.541854858398
0
ARC
5
5f6
100
AcDbEntity
8
1-0
6
CONTINUOUS
62
4
100
AcDbCircle
10
30332.599999999999
20
19051.070000000000
30
0.0
40
299.999997209656
100
AcDbArc
50
4.631423950195
51
145.689025878906
0
ARC
5
5f7
100
AcDbEntity
8
1-0
6
CONTINUOUS
62
4
100
AcDbCircle
10
32651.619999999999
20
21540.150000000001
30
0.0
40
299.999997209656
100
AcDbArc
50
184.631408691406
51
325.689025878906
0
ARC
5
5f8
100
AcDbEntity
8
1-0
6
CONTINUOUS
62
4
100
AcDbCircle
10
78935.539999999994
20
9567.620000000001
30
0.0
40
299.999997209656
100
AcDbArc
50
18.013107299805
51
159.070693969727
0
ARC
5
5f9
100
AcDbEntity
8
1-0
6
CONTINUOUS
62
4
100
AcDbCircle
10
12788.860000000001
20
24554.060000000001
30
0.0
40
299.999997209656
100
AcDbArc
50
191.089569091797
51
332.147186279297
0
ARC
5
5fa
100
AcDbEntity
8
1-0
6
CONTINUOUS
62
4
100
AcDbCircle
10
79500.360000000001
20
9553.240000000000
30
0.0
40
299.999997209656
100
AcDbArc
50
18.013107299805
51
159.070693969727
0
ARC
5
5fb
100
AcDbEntity
8
1-0
6
CONTINUOUS
62
4
100
AcDbCircle
10
45723.230000000003
20
17187.110000000001
30
0.0
40
299.999997209656
100
AcDbArc
50
190.698089599609
51
331.755676269531
0
ARC
5
5fc
100
AcDbEntity
8
1-0
6
CONTINUOUS
62
4
100
AcDbCircle
10
30552.040000000001
20
18786.020000000000
30
0.0
40
299.999997209656
100
AcDbArc
50
4.631423950195
51
145.689025878906
0
ARC
5
5fd
100
AcDbEntity
8
1-0
6
CONTINUOUS
62
4
100
AcDbCircle
10
31098.200000000001
20
18641.310000000001
30
0.0
40
299.999997209656
100
AcDbArc
50
4.631423950195
51
145.689025878906
0
ARC
5
5fe
100
AcDbEntity
8
1-0
6
CONTINUOUS
62
4
100
AcDbCircle
10
79225.539999999994
20
9760.299999999999
30
0.0
40
299.999997209656
100
AcDbArc
50
18.013107299805
51
159.070693969727
0
ARC
5
5ff
100
AcDbEntity
8
1-0
6
CONTINUOUS
62
4
100
AcDbCircle
10
63909.559999999998
20
15145.170000000000
30
0.0
40
299.999997209656
100
AcDbArc
50
187.876510620117
51
328.934127807617
0
ARC
5
600
100
AcDbEntity
8
1-0
6
CONTINUOUS
62
4
100
AcDbCircle
10
13347.820000000000
20
24471.700000000001
30
0.0
40
299.999997209656
100
AcDbArc
50
191.089569091797
51
332.147186279297
0
ARC
5
601
100
AcDbEntity
8
1-0
6
CONTINUOUS
62
4
100
AcDbCircle
10
13906.780000000001
20
24389.349999999999
30
0.0
40
299.999997209656
100
AcDbArc
50
191.089569091797
51
332.147186279297
0
ARC
5
602
100
AcDbEntity
8
1-0
6
CONTINUOUS
62
4
100
AcDbCircle
10
76116.139999999999
20
9839.440000000001
30
0.0
40
299.999997209656
100
AcDbArc
50
18.013107299805
51
159.070693969727
0
ARC
5
603
100
AcDbEntity
8
1-0
6
CONTINUOUS
62
4
100
AcDbCircle
10
42129.839999999997
20
18020.630000000001
30
0.0
40
299.999997209656
100
AcDbArc
50
177.068450927734
51
318.126037597656
0
ARC
5
604
100
AcDbEntity
8
1-0
6
CONTINUOUS
62
4
100
AcDbCircle
10
42652.199999999997
20
17805.299999999999
30
0.0
40
299.999997209656
100
AcDbArc
50
177.068450927734
51
318.126037597656
0
ARC
5
605
100
AcDbEntity
8
1-0
6
CONTINUOUS
62
4
100
AcDbCircle
10
48536.519999999997
20
13717.430000000000
30
0.0
40
299.999997209656
100
AcDbArc
50
10.697998046875
51
151.755584716797
0
ARC
5
606
100
AcDbEntity
8
1-0
6
CONTINUOUS
62
4
100
AcDbCircle
10
47978.129999999997
20
13803.610000000001
30
0.0
40
299.999997209656
100
AcDbArc
50
10.697998046875
51
151.755584716797
0
ARC
5
607
100
AcDbEntity
8
1-0
6
CONTINUOUS
62
4
100
AcDbCircle
10
52036.690000000002
20
13655.010000000000
30
0.0
40
299.999997209656
100
AcDbArc
50
19.971298217773
51
161.028900146484
0
ARC
5
608
100
AcDbEntity
8
1-0
6
CONTINUOUS
62
4
100
AcDbCircle
10
68570.740000000005
20
10252.370000000001
30
0.0
40
299.999997209656
100
AcDbArc
50
277.850128173828
51
58.907714843750
0
ARC
5
609
100
AcDbEntity
8
1-0
6
CONTINUOUS
62
4
100
AcDbCircle
10
48782.739999999998
20
13477.049999999999
30
0.0
40
299.999997209656
100
AcDbArc
50
10.697998046875
51
151.755584716797
0
ARC
5
60a
100
AcDbEntity
8
1-0
6
CONTINUOUS
62
4
100
AcDbCircle
10
53731.620000000003
20
13669.809999999999
30
0.0
40
299.999997209656
100
AcDbArc
50
19.971298217773
51
161.028900146484
0
ARC
5
60b
100
AcDbEntity
8
1-0
6
CONTINUOUS
62
4
100
AcDbCircle
10
31971.080000000002
20
18616.950000000001
30
0.0
40
299.999997209656
100
AcDbArc
50
4.631423950195
51
145.689025878906
0
ARC
5
60c
100
AcDbEntity
8
1-0
6
CONTINUOUS
62
4
100
AcDbCircle
10
40562.769999999997
20
18666.619999999999
30
0.0
40
299.999997209656
100
AcDbArc
50
177.068450927734
51
318.126037597656
0
ARC
5
60d
100
AcDbEntity
8
1-0
6
CONTINUOUS
62
4
100
AcDbCircle
10
47419.750000000000
20
13889.780000000001
30
0.0
40
299.999997209656
100
AcDbArc
50
10.697998046875
51
151.755584716797
0
ARC
5
60e
100
AcDbEntity
8
1-0
6
CONTINUOUS
62
4
100
AcDbCircle
10
40745.400000000001
20
18374.990000000002
30
0.0
40
299.999997209656
100
AcDbArc
50
177.068450927734
51
318.126037597656
0
ARC
5
60f
100
AcDbEntity
8
1-0
6
CONTINUOUS
62
4
100
AcDbCircle
10
66123.440000000002
20
14690.940000000001
30
0.0
40
299.999997209656
100
AcDbArc
50
187.876510620117
51
328.934127807617
0
CIRCLE
5
610
100
AcDbEntity
8
1-0
6
CONTINUOUS
62
4
100
AcDbCircle
10
17986.029999999999
20
31150.919999999998
30
0.0
40
99.999999069885
0
CIRCLE
5
611
100
AcDbEntity
8
1-0
6
CONTINUOUS
62
4
100
AcDbCircle
10
27953.990000000002
20
29419.419999999998
30
0.0
40
99.999999069885
0
CIRCLE
5
612
100
AcDbEntity
8
1-0
6
CONTINUOUS
62
4
100
AcDbCircle
10
3464.070000000000
20
24222.080000000002
30
0.0
40
99.999999069885
0
CIRCLE
5
613
100
AcDbEntity
8
1-0
6
CONTINUOUS
62
4
100
AcDbCircle
10
4908.030000000000
20
34117.279999999999
30
0.0
40
99.999999069885
0
CIRCLE
5
614
100
AcDbEntity
8
1-0
6
CONTINUOUS
62
4
100
AcDbCircle
10
10883.700000000001
20
37773.760000000002
30
0.0
40
99.999999069885
0
CIRCLE
5
615
100
AcDbEntity
8
1-0
6
CONTINUOUS
62
4
100
AcDbCircle
10
38077.800000000003
20
26154.220000000001
30
0.0
40
99.999999069885
0
CIRCLE
5
616
100
AcDbEntity
8
1-0
6
CONTINUOUS
62
4
100
AcDbCircle
10
76480.729999999996
20
27954.150000000001
30
0.0
40
99.999999069885
0
CIRCLE
5
617
100
AcDbEntity
8
1-0
6
CONTINUOUS
62
4
100
AcDbCircle
10
83464.699999999997
20
35181.970000000001
30
0.0
40
99.999999069885
0
CIRCLE
5
618
100
AcDbEntity
8
1-0
6
CONTINUOUS
62
4
100
AcDbCircle
10
69107.210000000006
20
21290.639999999999
30
0.0
40
99.999999069885
0
CIRCLE
5
619
100
AcDbEntity
8
1-0
6
CONTINUOUS
62
4
100
AcDbCircle
10
47939.839999999997
20
24146.750000000000
30
0.0
40
99.999999069885
0
CIRCLE
5
61a
100
AcDbEntity
8
1-0
6
CONTINUOUS
62
4
100
AcDbCircle
10
59382.230000000003
20
23607.919999999998
30
0.0
40
99.999999069885
0
CIRCLE
5
61b
100
AcDbEntity
8
1-0
6
CONTINUOUS
62
4
100
AcDbCircle
10
5475.350000000000
20
46009.550000000003
30
0.0
40
99.999999069885
0
ARC
5
61c
100
AcDbEntity
8
1-0
6
CONTINUOUS
62
4
100
AcDbCircle
10
41607.480000000003
20
18235.959999999999
30
0.0
40
299.999997209656
100
AcDbArc
50
177.068450927734
51
318.126037597656
0
ARC
5
61d
100
AcDbEntity
8
1-0
6
CONTINUOUS
62
4
100
AcDbCircle
10
42312.480000000003
20
17729.000000000000
30
0.0
40
299.999997209656
100
AcDbArc
50
177.068450927734
51
318.126037597656
0
ARC
5
61e
100
AcDbEntity
8
1-0
6
CONTINUOUS
62
4
100
AcDbCircle
10
41085.129999999997
20
18451.290000000001
30
0.0
40
299.999997209656
100
AcDbArc
50
177.068450927734
51
318.126037597656
0
ARC
5
61f
100
AcDbEntity
8
1-0
6
CONTINUOUS
62
4
100
AcDbCircle
10
65804.070000000007
20
14552.299999999999
30
0.0
40
299.999997209656
100
AcDbArc
50
187.876510620117
51
328.934127807617
0
ARC
5
620
100
AcDbEntity
8
1-0
6
CONTINUOUS
62
4
100
AcDbCircle
10
35737.629999999997
20
17340.520000000000
30
0.0
40
299.999997209656
100
AcDbArc
50
359.046783447266
51
140.104385375977
0
ARC
5
621
100
AcDbEntity
8
1-0
6
CONTINUOUS
62
4
100
AcDbCircle
10
41267.760000000002
20
18159.660000000000
30
0.0
40
299.999997209656
100
AcDbArc
50
177.068450927734
51
318.126037597656
0
ARC
5
622
100
AcDbEntity
8
1-0
6
CONTINUOUS
62
4
100
AcDbCircle
10
30878.770000000000
20
18906.360000000001
30
0.0
40
299.999997209656
100
AcDbArc
50
4.631423950195
51
145.689025878906
0
ARC
5
623
100
AcDbEntity
8
1-0
6
CONTINUOUS
62
4
100
AcDbCircle
10
36267.110000000001
20
17143.349999999999
30
0.0
40
299.999997209656
100
AcDbArc
50
359.046783447266
51
140.104385375977
0
ARC
5
624
100
AcDbEntity
8
1-0
6
CONTINUOUS
62
4
100
AcDbCircle
10
31424.919999999998
20
18761.660000000000
30
0.0
40
299.999997209656
100
AcDbArc
50
4.631423950195
51
145.689025878906
0
ARC
5
625
100
AcDbEntity
8
1-0
6
CONTINUOUS
62
4
100
AcDbCircle
10
41790.129999999997
20
17944.340000000000
30
0.0
40
299.999997209656
100
AcDbArc
50
177.068450927734
51
318.126037597656
0
ARC
5
626
100
AcDbEntity
8
1-0
6
CONTINUOUS
62
4
100
AcDbCircle
10
36796.589999999997
20
16946.180000000000
30
0.0
40
299.999997209656
100
AcDbArc
50
359.046783447266
51
140.104385375977
0
ARC
5
627
100
AcDbEntity
8
1-0
6
CONTINUOUS
62
4
100
AcDbCircle
10
52601.669999999998
20
13659.950000000001
30
0.0
40
299.999997209656
100
AcDbArc
50
19.971298217773
51
161.028900146484
0
ARC
5
628
100
AcDbEntity
8
1-0
6
CONTINUOUS
62
4
100
AcDbCircle
10
81194.820000000007
20
9510.110000000001
30
0.0
40
299.999997209656
100
AcDbArc
50
18.013107299805
51
159.070693969727
0
ARC
5
629
100
AcDbEntity
8
1-0
6
CONTINUOUS
62
4
100
AcDbCircle
10
73600.220000000001
20
9128.209999999999
30
0.0
40
299.999997209656
100
AcDbArc
50
102.484283447266
51
243.541839599609
0
ARC
5
62a
100
AcDbEntity
8
1-0
6
CONTINUOUS
62
4
100
AcDbCircle
10
76390.960000000006
20
9632.389999999999
30
0.0
40
299.999997209656
100
AcDbArc
50
18.013107299805
51
159.070693969727
0
ARC
5
62b
100
AcDbEntity
8
1-0
6
CONTINUOUS
62
4
100
AcDbCircle
10
73014.369999999995
20
2703.710000000000
30
0.0
40
299.999997209656
100
AcDbArc
50
102.484283447266
51
243.541839599609
0
ARC
5
62c
100
AcDbEntity
8
1-0
6
CONTINUOUS
62
4
100
AcDbCircle
10
62434.400000000001
20
15243.680000000000
30
0.0
40
299.999997209656
100
AcDbArc
50
187.876510620117
51
328.934127807617
0
ARC
5
62d
100
AcDbEntity
8
1-0
6
CONTINUOUS
62
4
100
AcDbCircle
10
80065.179999999993
20
9538.870000000001
30
0.0
40
299.999997209656
100
AcDbArc
50
18.013107299805
51
159.070693969727
0
ARC
5
62e
100
AcDbEntity
8
1-0
6
CONTINUOUS
62
4
100
AcDbCircle
10
57912.980000000003
20
22376.669999999998
30
0.0
40
299.999997209656
100
AcDbArc
50
106.079833984375
51
247.137420654297
0
ARC
5
62f
100
AcDbEntity
8
1-0
6
CONTINUOUS
62
4
100
AcDbCircle
10
57879.550000000003
20
21812.660000000000
30
0.0
40
299.999997209656
100
AcDbArc
50
106.079833984375
51
247.137420654297
0
ARC
5
630
100
AcDbEntity
8
1-0
6
CONTINUOUS
62
4
100
AcDbCircle
10
57768.800000000003
20
16562.910000000000
30
0.0
40
299.999997209656
100
AcDbArc
50
106.079742431641
51
247.137329101563
0
ARC
5
631
100
AcDbEntity
8
1-0
6
CONTINUOUS
62
4
100
AcDbCircle
10
75826.139999999999
20
9646.760000000000
30
0.0
40
299.999997209656
100
AcDbArc
50
18.013107299805
51
159.070693969727
0
ARC
5
632
100
AcDbEntity
8
1-0
6
CONTINUOUS
62
4
100
AcDbCircle
10
73462.770000000004
20
8006.590000000000
30
0.0
40
299.999997209656
100
AcDbArc
50
102.484283447266
51
243.541839599609
0
ARC
5
633
100
AcDbEntity
8
1-0
6
CONTINUOUS
62
4
100
AcDbCircle
10
73557.880000000005
20
7138.580000000000
30
0.0
40
299.999997209656
100
AcDbArc
50
102.484283447266
51
243.541839599609
0
ARC
5
634
100
AcDbEntity
8
1-0
6
CONTINUOUS
62
4
100
AcDbCircle
10
72713.070000000007
20
1889.320000000000
30
0.0
40
299.999997209656
100
AcDbArc
50
102.484283447266
51
243.541839599609
0
ARC
5
635
100
AcDbEntity
8
1-0
6
CONTINUOUS
62
4
100
AcDbCircle
10
74421.679999999993
20
9882.580000000000
30
0.0
40
299.999997209656
100
AcDbArc
50
18.013107299805
51
159.070693969727
0
ARC
5
636
100
AcDbEntity
8
1-0
6
CONTINUOUS
62
4
100
AcDbCircle
10
65016.500000000000
20
14918.049999999999
30
0.0
40
299.999997209656
100
AcDbArc
50
187.876510620117
51
328.934127807617
0
ARC
5
637
100
AcDbEntity
8
1-0
6
CONTINUOUS
62
4
100
AcDbCircle
10
72781.809999999998
20
2450.120000000000
30
0.0
40
299.999997209656
100
AcDbArc
50
102.484283447266
51
243.541839599609
0
ARC
5
638
100
AcDbEntity
8
1-0
6
CONTINUOUS
62
4
100
AcDbCircle
10
67401.419999999998
20
14428.730000000000
30
0.0
40
299.999997209656
100
AcDbArc
50
187.876510620117
51
328.934127807617
0
ARC
5
639
100
AcDbEntity
8
1-0
6
CONTINUOUS
62
4
100
AcDbCircle
10
75551.320000000007
20
9853.820000000000
30
0.0
40
299.999997209656
100
AcDbArc
50
18.013107299805
51
159.070693969727
0
ARC
5
63a
100
AcDbEntity
8
1-0
6
CONTINUOUS
62
4
100
AcDbCircle
10
73083.110000000001
20
3264.510000000000
30
0.0
40
299.999997209656
100
AcDbArc
50
102.484283447266
51
243.541839599609
0
ARC
5
63b
100
AcDbEntity
8
1-0
6
CONTINUOUS
62
4
100
AcDbCircle
10
72945.649999999994
20
2142.900000000000
30
0.0
40
299.999997209656
100
AcDbArc
50
102.484283447266
51
243.541839599609
0
ARC
5
63c
100
AcDbEntity
8
1-0
6
CONTINUOUS
62
4
100
AcDbCircle
10
80920.000000000000
20
9717.160000000000
30
0.0
40
299.999997209656
100
AcDbArc
50
18.013107299805
51
159.070693969727
0
ARC
5
63d
100
AcDbEntity
8
1-0
6
CONTINUOUS
62
4
100
AcDbCircle
10
74986.500000000000
20
9868.200000000001
30
0.0
40
299.999997209656
100
AcDbArc
50
18.013107299805
51
159.070693969727
0
ARC
5
63e
100
AcDbEntity
8
1-0
6
CONTINUOUS
62
4
100
AcDbCircle
10
73151.830000000002
20
3825.320000000000
30
0.0
40
299.999997209656
100
AcDbArc
50
102.484283447266
51
243.541839599609
0
ARC
5
63f
100
AcDbEntity
8
1-0
6
CONTINUOUS
62
4
100
AcDbCircle
10
80630.000000000000
20
9524.490000000000
30
0.0
40
299.999997209656
100
AcDbArc
50
18.013107299805
51
159.070693969727
0
ARC
5
640
100
AcDbEntity
8
1-0
6
CONTINUOUS
62
4
100
AcDbCircle
10
68087.330000000002
20
5903.440000000000
30
0.0
40
299.999997209656
100
AcDbArc
50
282.484268188477
51
63.541854858398
0
ARC
5
641
100
AcDbEntity
8
1-0
6
CONTINUOUS
62
4
100
AcDbCircle
10
47107.570000000000
20
13735.580000000000
30
0.0
40
299.999997209656
100
AcDbArc
50
10.697998046875
51
151.755584716797
0
ARC
5
642
100
AcDbEntity
8
1-0
6
CONTINUOUS
62
4
100
AcDbCircle
10
68343.119999999995
20
9145.540000000001
30
0.0
40
299.999997209656
100
AcDbArc
50
277.850128173828
51
58.907714843750
0
ARC
5
643
100
AcDbEntity
8
1-0
6
CONTINUOUS
62
4
100
AcDbCircle
10
74131.690000000002
20
9689.900000000000
30
0.0
40
299.999997209656
100
AcDbArc
50
18.013107299805
51
159.070693969727
0
ARC
5
644
100
AcDbEntity
8
1-0
6
CONTINUOUS
62
4
100
AcDbCircle
10
14465.750000000000
20
24306.990000000002
30
0.0
40
299.999997209656
100
AcDbArc
50
191.089569091797
51
332.147186279297
0
ARC
5
645
100
AcDbEntity
8
1-0
6
CONTINUOUS
62
4
100
AcDbCircle
10
68684.559999999998
20
10805.790000000001
30
0.0
40
299.999997209656
100
AcDbArc
50
277.850128173828
51
58.907714843750
0
ARC
5
646
100
AcDbEntity
8
1-0
6
CONTINUOUS
62
4
100
AcDbCircle
10
30005.880000000001
20
18930.730000000000
30
0.0
40
299.999997209656
100
AcDbArc
50
4.631423950195
51
145.689025878906
0
ARC
5
647
100
AcDbEntity
8
1-0
6
CONTINUOUS
62
4
100
AcDbCircle
10
53166.639999999999
20
13664.870000000001
30
0.0
40
299.999997209656
100
AcDbArc
50
19.971298217773
51
161.028900146484
0
ARC
5
648
100
AcDbEntity
8
1-0
6
CONTINUOUS
62
4
100
AcDbCircle
10
49035.779999999999
20
16675.900000000001
30
0.0
40
299.999997209656
100
AcDbArc
50
190.698089599609
51
331.755676269531
0
ARC
5
649
100
AcDbEntity
8
1-0
6
CONTINUOUS
62
4
100
AcDbCircle
10
68456.929999999993
20
9698.950000000001
30
0.0
40
299.999997209656
100
AcDbArc
50
277.850128173828
51
58.907714843750
0
ARC
5
64a
100
AcDbEntity
8
1-0
6
CONTINUOUS
62
4
100
AcDbCircle
10
48477.400000000001
20
16762.070000000000
30
0.0
40
299.999997209656
100
AcDbArc
50
190.698089599609
51
331.755676269531
0
ARC
5
64b
100
AcDbEntity
8
1-0
6
CONTINUOUS
62
4
100
AcDbCircle
10
78621.020000000004
20
13576.920000000000
30
0.0
40
299.999997209656
100
AcDbArc
50
198.013092041016
51
339.070693969727
0
ARC
5
64c
100
AcDbEntity
8
1-0
6
CONTINUOUS
62
4
100
AcDbCircle
10
77216.559999999998
20
13812.730000000000
30
0.0
40
299.999997209656
100
AcDbArc
50
198.013092041016
51
339.070693969727
0
ARC
5
64d
100
AcDbEntity
8
1-0
6
CONTINUOUS
62
4
100
AcDbCircle
10
72919.259999999995
20
3571.730000000000
30
0.0
40
299.999997209656
100
AcDbArc
50
102.484283447266
51
243.541839599609
0
ARC
5
64e
100
AcDbEntity
8
1-0
6
CONTINUOUS
62
4
100
AcDbCircle
10
78056.199999999997
20
13591.299999999999
30
0.0
40
299.999997209656
100
AcDbArc
50
198.013092041016
51
339.070693969727
0
ARC
5
64f
100
AcDbEntity
8
1-0
6
CONTINUOUS
62
4
100
AcDbCircle
10
73531.490000000005
20
8567.400000000000
30
0.0
40
299.999997209656
100
AcDbArc
50
102.484283447266
51
243.541839599609
0
ARC
5
650
100
AcDbEntity
8
1-0
6
CONTINUOUS
62
4
100
AcDbCircle
10
73394.039999999994
20
7445.790000000000
30
0.0
40
299.999997209656
100
AcDbArc
50
102.484283447266
51
243.541839599609
0
ARC
5
651
100
AcDbEntity
8
1-0
6
CONTINUOUS
62
4
100
AcDbCircle
10
73832.789999999994
20
9381.799999999999
30
0.0
40
299.999997209656
100
AcDbArc
50
102.484283447266
51
243.541839599609
0
ARC
5
652
100
AcDbEntity
8
1-0
6
CONTINUOUS
62
4
100
AcDbCircle
10
79790.360000000001
20
9745.920000000000
30
0.0
40
299.999997209656
100
AcDbArc
50
18.013107299805
51
159.070693969727
0
ARC
5
653
100
AcDbEntity
8
1-0
6
CONTINUOUS
62
4
100
AcDbCircle
10
75261.320000000007
20
9661.139999999999
30
0.0
40
299.999997209656
100
AcDbArc
50
18.013107299805
51
159.070693969727
0
ARC
5
654
100
AcDbEntity
8
1-0
6
CONTINUOUS
62
4
100
AcDbCircle
10
74696.509999999995
20
9675.520000000000
30
0.0
40
299.999997209656
100
AcDbArc
50
18.013107299805
51
159.070693969727
0
ARC
5
655
100
AcDbEntity
8
1-0
6
CONTINUOUS
62
4
100
AcDbCircle
10
73764.070000000007
20
8820.990000000000
30
0.0
40
299.999997209656
100
AcDbArc
50
102.484283447266
51
243.541839599609
0
ARC
5
656
100
AcDbEntity
8
1-0
6
CONTINUOUS
62
4
100
AcDbCircle
10
78346.190000000002
20
13783.980000000000
30
0.0
40
299.999997209656
100
AcDbArc
50
198.013092041016
51
339.070693969727
0
ARC
5
657
100
AcDbEntity
8
1-0
6
CONTINUOUS
62
4
100
AcDbCircle
10
55476.050000000003
20
13428.209999999999
30
0.0
40
299.999997209656
100
AcDbArc
50
11.510375976563
51
152.567977905273
0
ARC
5
658
100
AcDbEntity
8
1-0
6
CONTINUOUS
62
4
100
AcDbCircle
10
53628.440000000002
20
25922.200000000001
30
0.0
40
299.999997209656
100
AcDbArc
50
15.207504272461
51
156.265090942383
0
ARC
5
659
100
AcDbEntity
8
1-0
6
CONTINUOUS
62
4
100
AcDbCircle
10
58196.029999999999
20
23772.369999999999
30
0.0
40
299.999997209656
100
AcDbArc
50
106.079833984375
51
247.137420654297
0
ARC
5
65a
100
AcDbEntity
8
1-0
6
CONTINUOUS
62
4
100
AcDbCircle
10
54191.879999999997
20
25880.200000000001
30
0.0
40
299.999997209656
100
AcDbArc
50
15.207504272461
51
156.265090942383
0
ARC
5
65b
100
AcDbEntity
8
1-0
6
CONTINUOUS
62
4
100
AcDbCircle
10
53329.360000000001
20
25743.930000000000
30
0.0
40
299.999997209656
100
AcDbArc
50
15.207504272461
51
156.265090942383
0
ARC
5
65c
100
AcDbEntity
8
1-0
6
CONTINUOUS
62
4
100
AcDbCircle
10
52765.919999999998
20
25785.930000000000
30
0.0
40
299.999997209656
100
AcDbArc
50
15.207504272461
51
156.265090942383
0
ARC
5
65d
100
AcDbEntity
8
1-0
6
CONTINUOUS
62
4
100
AcDbCircle
10
53892.800000000003
20
25701.930000000000
30
0.0
40
299.999997209656
100
AcDbArc
50
15.207504272461
51
156.265090942383
0
ARC
5
65e
100
AcDbEntity
8
1-0
6
CONTINUOUS
62
4
100
AcDbCircle
10
60135.580000000002
20
25524.330000000002
30
0.0
40
299.999997209656
100
AcDbArc
50
15.207641601563
51
156.265258789063
0
ARC
5
65f
100
AcDbEntity
8
1-0
6
CONTINUOUS
62
4
100
AcDbCircle
10
54456.230000000003
20
25659.919999999998
30
0.0
40
299.999997209656
100
AcDbArc
50
15.207504272461
51
156.265090942383
0
ARC
5
660
100
AcDbEntity
8
1-0
6
CONTINUOUS
62
4
100
AcDbCircle
10
57586.019999999997
20
16859.250000000000
30
0.0
40
299.999997209656
100
AcDbArc
50
106.079742431641
51
247.137329101563
0
ARC
5
661
100
AcDbEntity
8
1-0
6
CONTINUOUS
62
4
100
AcDbCircle
10
44654.669999999998
20
14316.520000000000
30
0.0
40
299.999997209656
100
AcDbArc
50
10.697998046875
51
151.755584716797
0
ARC
5
662
100
AcDbEntity
8
1-0
6
CONTINUOUS
62
4
100
AcDbCircle
10
44096.279999999999
20
14402.690000000001
30
0.0
40
299.999997209656
100
AcDbArc
50
10.697998046875
51
151.755584716797
0
ARC
5
663
100
AcDbEntity
8
1-0
6
CONTINUOUS
62
4
100
AcDbCircle
10
43537.900000000001
20
14488.860000000001
30
0.0
40
299.999997209656
100
AcDbArc
50
10.697998046875
51
151.755584716797
0
ARC
5
664
100
AcDbEntity
8
1-0
6
CONTINUOUS
62
4
100
AcDbCircle
10
57946.400000000001
20
22940.680000000000
30
0.0
40
299.999997209656
100
AcDbArc
50
106.079833984375
51
247.137420654297
0
ARC
5
665
100
AcDbEntity
8
1-0
6
CONTINUOUS
62
4
100
AcDbCircle
10
58062.339999999997
20
21516.330000000002
30
0.0
40
299.999997209656
100
AcDbArc
50
106.079833984375
51
247.137420654297
0
ARC
5
666
100
AcDbEntity
8
1-0
6
CONTINUOUS
62
4
100
AcDbCircle
10
58129.180000000000
20
22644.349999999999
30
0.0
40
299.999997209656
100
AcDbArc
50
106.079833984375
51
247.137420654297
0
ARC
5
667
100
AcDbEntity
8
1-0
6
CONTINUOUS
62
4
100
AcDbCircle
10
57802.220000000001
20
17126.919999999998
30
0.0
40
299.999997209656
100
AcDbArc
50
106.079742431641
51
247.137329101563
0
ARC
5
668
100
AcDbEntity
8
1-0
6
CONTINUOUS
62
4
100
AcDbCircle
10
57619.440000000002
20
17423.259999999998
30
0.0
40
299.999997209656
100
AcDbArc
50
106.079742431641
51
247.137329101563
0
ARC
5
669
100
AcDbEntity
8
1-0
6
CONTINUOUS
62
4
100
AcDbCircle
10
52501.570000000000
20
26006.209999999999
30
0.0
40
299.999997209656
100
AcDbArc
50
15.207504272461
51
156.265090942383
0
ARC
5
66a
100
AcDbEntity
8
1-0
6
CONTINUOUS
62
4
100
AcDbCircle
10
58095.769999999997
20
22080.340000000000
30
0.0
40
299.999997209656
100
AcDbArc
50
106.079833984375
51
247.137420654297
0
ARC
5
66b
100
AcDbEntity
8
1-0
6
CONTINUOUS
62
4
100
AcDbCircle
10
53065.010000000002
20
25964.200000000001
30
0.0
40
299.999997209656
100
AcDbArc
50
15.207504272461
51
156.265090942383
0
ARC
5
66c
100
AcDbEntity
8
1-0
6
CONTINUOUS
62
4
100
AcDbCircle
10
54784.680000000000
20
17419.270000000000
30
0.0
40
299.999997209656
100
AcDbArc
50
286.075393676758
51
67.133010864258
0
ARC
5
66d
100
AcDbEntity
8
1-0
6
CONTINUOUS
62
4
100
AcDbCircle
10
54818.139999999999
20
17983.279999999999
30
0.0
40
299.999997209656
100
AcDbArc
50
286.075393676758
51
67.133010864258
0
ARC
5
66e
100
AcDbEntity
8
1-0
6
CONTINUOUS
62
4
100
AcDbCircle
10
54751.209999999999
20
16855.270000000000
30
0.0
40
299.999997209656
100
AcDbArc
50
286.075393676758
51
67.133010864258
0
ARC
5
66f
100
AcDbEntity
8
1-0
6
CONTINUOUS
62
4
100
AcDbCircle
10
55034.370000000003
20
18250.950000000001
30
0.0
40
299.999997209656
100
AcDbArc
50
286.075393676758
51
67.133010864258
0
ARC
5
670
100
AcDbEntity
8
1-0
6
CONTINUOUS
62
4
100
AcDbCircle
10
55067.839999999997
20
18814.950000000001
30
0.0
40
299.999997209656
100
AcDbArc
50
286.075393676758
51
67.133010864258
0
ARC
5
671
100
AcDbEntity
8
1-0
6
CONTINUOUS
62
4
100
AcDbCircle
10
54851.610000000001
20
18547.299999999999
30
0.0
40
299.999997209656
100
AcDbArc
50
286.075393676758
51
67.133010864258
0
ARC
5
672
100
AcDbEntity
8
1-0
6
CONTINUOUS
62
4
100
AcDbCircle
10
54885.070000000000
20
19111.299999999999
30
0.0
40
299.999997209656
100
AcDbArc
50
286.075393676758
51
67.133010864258
0
ARC
5
673
100
AcDbEntity
8
1-0
6
CONTINUOUS
62
4
100
AcDbCircle
10
64435.800000000003
20
11974.700000000001
30
0.0
40
299.999997209656
100
AcDbArc
50
7.876525878906
51
148.934112548828
0
ARC
5
674
100
AcDbEntity
8
1-0
6
CONTINUOUS
62
4
100
AcDbCircle
10
66330.300000000003
20
11381.830000000000
30
0.0
40
299.999997209656
100
AcDbArc
50
7.876525878906
51
148.934112548828
0
ARC
5
675
100
AcDbEntity
8
1-0
6
CONTINUOUS
62
4
100
AcDbCircle
10
62045.230000000003
20
12261.030000000001
30
0.0
40
299.999997209656
100
AcDbArc
50
7.876525878906
51
148.934112548828
0
ARC
5
676
100
AcDbEntity
8
1-0
6
CONTINUOUS
62
4
100
AcDbCircle
10
66096.210000000006
20
11634.030000000001
30
0.0
40
299.999997209656
100
AcDbArc
50
7.876525878906
51
148.934112548828
0
ARC
5
677
100
AcDbEntity
8
1-0
6
CONTINUOUS
62
4
100
AcDbCircle
10
55000.910000000003
20
17686.930000000000
30
0.0
40
299.999997209656
100
AcDbArc
50
286.075393676758
51
67.133010864258
0
ARC
5
678
100
AcDbEntity
8
1-0
6
CONTINUOUS
62
4
100
AcDbCircle
10
55326.410000000003
20
23177.660000000000
30
0.0
40
299.999997209656
100
AcDbArc
50
286.079849243164
51
67.137466430664
0
ARC
5
679
100
AcDbEntity
8
1-0
6
CONTINUOUS
62
4
100
AcDbCircle
10
55359.830000000002
20
23741.669999999998
30
0.0
40
299.999997209656
100
AcDbArc
50
286.079849243164
51
67.137466430664
0
ARC
5
67a
100
AcDbEntity
8
1-0
6
CONTINUOUS
62
4
100
AcDbCircle
10
55292.989999999998
20
22613.650000000001
30
0.0
40
299.999997209656
100
AcDbArc
50
286.079849243164
51
67.137466430664
0
ARC
5
67b
100
AcDbEntity
8
1-0
6
CONTINUOUS
62
4
100
AcDbCircle
10
52202.500000000000
20
25827.950000000001
30
0.0
40
299.999997209656
100
AcDbArc
50
15.207504272461
51
156.265090942383
0
ARC
5
67c
100
AcDbEntity
8
1-0
6
CONTINUOUS
62
4
100
AcDbCircle
10
55259.559999999998
20
22049.639999999999
30
0.0
40
299.999997209656
100
AcDbArc
50
286.079849243164
51
67.137466430664
0
ARC
5
67d
100
AcDbEntity
8
1-0
6
CONTINUOUS
62
4
100
AcDbCircle
10
55043.349999999999
20
21781.959999999999
30
0.0
40
299.999997209656
100
AcDbArc
50
286.079849243164
51
67.137466430664
0
ARC
5
67e
100
AcDbEntity
8
1-0
6
CONTINUOUS
62
4
100
AcDbCircle
10
55177.040000000001
20
24038.000000000000
30
0.0
40
299.999997209656
100
AcDbArc
50
286.079849243164
51
67.137466430664
0
ARC
5
67f
100
AcDbEntity
8
1-0
6
CONTINUOUS
62
4
100
AcDbCircle
10
54967.440000000002
20
17122.930000000000
30
0.0
40
299.999997209656
100
AcDbArc
50
286.075393676758
51
67.133010864258
0
ARC
5
680
100
AcDbEntity
8
1-0
6
CONTINUOUS
62
4
100
AcDbCircle
10
55143.610000000001
20
23473.990000000002
30
0.0
40
299.999997209656
100
AcDbArc
50
286.079849243164
51
67.137466430664
0
ARC
5
681
100
AcDbEntity
8
1-0
6
CONTINUOUS
62
4
100
AcDbCircle
10
55076.779999999999
20
22345.970000000001
30
0.0
40
299.999997209656
100
AcDbArc
50
286.079849243164
51
67.137466430664
0
ARC
5
682
100
AcDbEntity
8
1-0
6
CONTINUOUS
62
4
100
AcDbCircle
10
55110.199999999997
20
22909.980000000000
30
0.0
40
299.999997209656
100
AcDbArc
50
286.079849243164
51
67.137466430664
0
ARC
5
683
100
AcDbEntity
8
1-0
6
CONTINUOUS
62
4
100
AcDbCircle
10
57979.820000000000
20
23504.689999999999
30
0.0
40
299.999997209656
100
AcDbArc
50
106.079833984375
51
247.137420654297
0
ARC
5
684
100
AcDbEntity
8
1-0
6
CONTINUOUS
62
4
100
AcDbCircle
10
69061.830000000002
20
14088.059999999999
30
0.0
40
299.999997209656
100
AcDbArc
50
187.876510620117
51
328.934127807617
0
ARC
5
685
100
AcDbEntity
8
1-0
6
CONTINUOUS
62
4
100
AcDbCircle
10
67635.509999999995
20
14176.549999999999
30
0.0
40
299.999997209656
100
AcDbArc
50
187.876510620117
51
328.934127807617
0
ARC
5
686
100
AcDbEntity
8
1-0
6
CONTINUOUS
62
4
100
AcDbCircle
10
65250.599999999999
20
14665.870000000001
30
0.0
40
299.999997209656
100
AcDbArc
50
187.876510620117
51
328.934127807617
0
ARC
5
687
100
AcDbEntity
8
1-0
6
CONTINUOUS
62
4
100
AcDbCircle
10
64143.650000000001
20
14892.969999999999
30
0.0
40
299.999997209656
100
AcDbArc
50
187.876510620117
51
328.934127807617
0
ARC
5
688
100
AcDbEntity
8
1-0
6
CONTINUOUS
62
4
100
AcDbCircle
10
58788.139999999999
20
16195.940000000001
30
0.0
40
299.999997209656
100
AcDbArc
50
187.876510620117
51
328.934127807617
0
ARC
5
689
100
AcDbEntity
8
1-0
6
CONTINUOUS
62
4
100
AcDbCircle
10
62200.300000000003
20
15495.870000000001
30
0.0
40
299.999997209656
100
AcDbArc
50
187.876510620117
51
328.934127807617
0
ARC
5
68a
100
AcDbEntity
8
1-0
6
CONTINUOUS
62
4
100
AcDbCircle
10
59022.230000000003
20
15943.760000000000
30
0.0
40
299.999997209656
100
AcDbArc
50
187.876510620117
51
328.934127807617
0
ARC
5
68b
100
AcDbEntity
8
1-0
6
CONTINUOUS
62
4
100
AcDbCircle
10
68508.360000000001
20
14201.620000000001
30
0.0
40
299.999997209656
100
AcDbArc
50
187.876510620117
51
328.934127807617
0
ARC
5
68c
100
AcDbEntity
8
1-0
6
CONTINUOUS
62
4
100
AcDbCircle
10
68742.449999999997
20
13949.430000000000
30
0.0
40
299.999997209656
100
AcDbArc
50
187.876510620117
51
328.934127807617
0
ARC
5
68d
100
AcDbEntity
8
1-0
6
CONTINUOUS
62
4
100
AcDbCircle
10
80355.179999999993
20
9731.549999999999
30
0.0
40
299.999997209656
100
AcDbArc
50
18.013107299805
51
159.070693969727
0
ARC
5
68e
100
AcDbEntity
8
1-0
6
CONTINUOUS
62
4
100
AcDbCircle
10
64697.120000000003
20
14779.420000000000
30
0.0
40
299.999997209656
100
AcDbArc
50
187.876510620117
51
328.934127807617
0
ARC
5
68f
100
AcDbEntity
8
1-0
6
CONTINUOUS
62
4
100
AcDbCircle
10
68188.979999999996
20
14062.990000000000
30
0.0
40
299.999997209656
100
AcDbArc
50
187.876510620117
51
328.934127807617
0
ARC
5
690
100
AcDbEntity
8
1-0
6
CONTINUOUS
62
4
100
AcDbCircle
10
67954.889999999999
20
14315.180000000000
30
0.0
40
299.999997209656
100
AcDbArc
50
187.876510620117
51
328.934127807617
0
ARC
5
691
100
AcDbEntity
8
1-0
6
CONTINUOUS
62
4
100
AcDbCircle
10
58468.769999999997
20
16057.309999999999
30
0.0
40
299.999997209656
100
AcDbArc
50
187.876510620117
51
328.934127807617
0
ARC
5
692
100
AcDbEntity
8
1-0
6
CONTINUOUS
62
4
100
AcDbCircle
10
60963.370000000003
20
25262.060000000001
30
0.0
40
299.999997209656
100
AcDbArc
50
15.207641601563
51
156.265258789063
0
ARC
5
693
100
AcDbEntity
8
1-0
6
CONTINUOUS
62
4
100
AcDbCircle
10
63307.239999999998
20
15268.740000000000
30
0.0
40
299.999997209656
100
AcDbArc
50
187.876510620117
51
328.934127807617
0
ARC
5
694
100
AcDbEntity
8
1-0
6
CONTINUOUS
62
4
100
AcDbCircle
10
59895.089999999997
20
15968.830000000000
30
0.0
40
299.999997209656
100
AcDbArc
50
187.876510620117
51
328.934127807617
0
ARC
5
695
100
AcDbEntity
8
1-0
6
CONTINUOUS
62
4
100
AcDbCircle
10
59273.059999999998
20
25388.080000000002
30
0.0
40
299.999997209656
100
AcDbArc
50
15.207641601563
51
156.265258789063
0
ARC
5
696
100
AcDbEntity
8
1-0
6
CONTINUOUS
62
4
100
AcDbCircle
10
60399.930000000000
20
25304.070000000000
30
0.0
40
299.999997209656
100
AcDbArc
50
15.207641601563
51
156.265258789063
0
ARC
5
697
100
AcDbEntity
8
1-0
6
CONTINUOUS
62
4
100
AcDbCircle
10
57652.860000000001
20
17987.259999999998
30
0.0
40
299.999997209656
100
AcDbArc
50
106.079742431641
51
247.137329101563
0
ARC
5
698
100
AcDbEntity
8
1-0
6
CONTINUOUS
62
4
100
AcDbCircle
10
58162.610000000001
20
23208.360000000001
30
0.0
40
299.999997209656
100
AcDbArc
50
106.079833984375
51
247.137420654297
0
ARC
5
699
100
AcDbEntity
8
1-0
6
CONTINUOUS
62
4
100
AcDbCircle
10
57686.290000000001
20
18551.279999999999
30
0.0
40
299.999997209656
100
AcDbArc
50
106.079742431641
51
247.137329101563
0
ARC
5
69a
100
AcDbEntity
8
1-0
6
CONTINUOUS
62
4
100
AcDbCircle
10
61526.809999999998
20
25220.060000000001
30
0.0
40
299.999997209656
100
AcDbArc
50
15.207641601563
51
156.265258789063
0
ARC
5
69b
100
AcDbEntity
8
1-0
6
CONTINUOUS
62
4
100
AcDbCircle
10
57902.489999999998
20
18818.950000000001
30
0.0
40
299.999997209656
100
AcDbArc
50
106.079742431641
51
247.137329101563
0
ARC
5
69c
100
AcDbEntity
8
1-0
6
CONTINUOUS
62
4
100
AcDbCircle
10
61262.449999999997
20
25440.310000000001
30
0.0
40
299.999997209656
100
AcDbArc
50
15.207641601563
51
156.265258789063
0
ARC
5
69d
100
AcDbEntity
8
1-0
6
CONTINUOUS
62
4
100
AcDbCircle
10
57869.070000000000
20
18254.939999999999
30
0.0
40
299.999997209656
100
AcDbArc
50
106.079742431641
51
247.137329101563
0
ARC
5
69e
100
AcDbEntity
8
1-0
6
CONTINUOUS
62
4
100
AcDbCircle
10
57835.650000000001
20
17690.930000000000
30
0.0
40
299.999997209656
100
AcDbArc
50
106.079742431641
51
247.137329101563
0
ARC
5
69f
100
AcDbEntity
8
1-0
6
CONTINUOUS
62
4
100
AcDbCircle
10
59341.610000000001
20
16082.389999999999
30
0.0
40
299.999997209656
100
AcDbArc
50
187.876510620117
51
328.934127807617
0
ARC
5
6a0
100
AcDbEntity
8
1-0
6
CONTINUOUS
62
4
100
AcDbCircle
10
62753.779999999999
20
15382.309999999999
30
0.0
40
299.999997209656
100
AcDbArc
50
187.876510620117
51
328.934127807617
0
ARC
5
6a1
100
AcDbEntity
8
1-0
6
CONTINUOUS
62
4
100
AcDbCircle
10
61646.830000000002
20
15609.420000000000
30
0.0
40
299.999997209656
100
AcDbArc
50
187.876510620117
51
328.934127807617
0
ARC
5
6a2
100
AcDbEntity
8
1-0
6
CONTINUOUS
62
4
100
AcDbCircle
10
60129.169999999998
20
15716.639999999999
30
0.0
40
299.999997209656
100
AcDbArc
50
187.876510620117
51
328.934127807617
0
ARC
5
6a3
100
AcDbEntity
8
1-0
6
CONTINUOUS
62
4
100
AcDbCircle
10
59836.500000000000
20
25346.070000000000
30
0.0
40
299.999997209656
100
AcDbArc
50
15.207641601563
51
156.265258789063
0
ARC
5
6a4
100
AcDbEntity
8
1-0
6
CONTINUOUS
62
4
100
AcDbCircle
10
60448.559999999998
20
15855.270000000000
30
0.0
40
299.999997209656
100
AcDbArc
50
187.876510620117
51
328.934127807617
0
ARC
5
6a5
100
AcDbEntity
8
1-0
6
CONTINUOUS
62
4
100
AcDbCircle
10
59572.139999999999
20
25566.330000000002
30
0.0
40
299.999997209656
100
AcDbArc
50
15.207641601563
51
156.265258789063
0
ARC
5
6a6
100
AcDbEntity
8
1-0
6
CONTINUOUS
62
4
100
AcDbCircle
10
58234.680000000000
20
16309.500000000000
30
0.0
40
299.999997209656
100
AcDbArc
50
187.876510620117
51
328.934127807617
0
ARC
5
6a7
100
AcDbEntity
8
1-0
6
CONTINUOUS
62
4
100
AcDbCircle
10
59575.709999999999
20
15830.200000000001
30
0.0
40
299.999997209656
100
AcDbArc
50
187.876510620117
51
328.934127807617
0
ARC
5
6a8
100
AcDbEntity
8
1-0
6
CONTINUOUS
62
4
100
AcDbCircle
10
31644.360000000001
20
18496.599999999999
30
0.0
40
299.999997209656
100
AcDbArc
50
4.631423950195
51
145.689025878906
0
ARC
5
6a9
100
AcDbEntity
8
1-0
6
CONTINUOUS
62
4
100
AcDbCircle
10
9736.500000000000
20
24806.590000000000
30
0.0
40
299.999997209656
100
AcDbArc
50
196.291824340820
51
337.349441528320
0
ARC
5
6aa
100
AcDbEntity
8
1-0
6
CONTINUOUS
62
4
100
AcDbCircle
10
5884.640000000000
20
24064.360000000001
30
0.0
40
299.999997209656
100
AcDbArc
50
214.539794921875
51
355.597412109375
0
ARC
5
6ab
100
AcDbEntity
8
1-0
6
CONTINUOUS
62
4
100
AcDbCircle
10
11697.379999999999
20
24497.349999999999
30
0.0
40
299.999997209656
100
AcDbArc
50
196.291824340820
51
337.349441528320
0
ARC
5
6ac
100
AcDbEntity
8
1-0
6
CONTINUOUS
62
4
100
AcDbCircle
10
10864.770000000000
20
24743.919999999998
30
0.0
40
299.999997209656
100
AcDbArc
50
196.291824340820
51
337.349441528320
0
ARC
5
6ad
100
AcDbEntity
8
1-0
6
CONTINUOUS
62
4
100
AcDbCircle
10
31232.590000000000
20
21709.220000000001
30
0.0
40
299.999997209656
100
AcDbArc
50
184.631408691406
51
325.689025878906
0
ARC
5
6ae
100
AcDbEntity
8
1-0
6
CONTINUOUS
62
4
100
AcDbCircle
10
31778.740000000002
20
21564.509999999998
30
0.0
40
299.999997209656
100
AcDbArc
50
184.631408691406
51
325.689025878906
0
ARC
5
6af
100
AcDbEntity
8
1-0
6
CONTINUOUS
62
4
100
AcDbCircle
10
30686.430000000000
20
21853.930000000000
30
0.0
40
299.999997209656
100
AcDbArc
50
184.631408691406
51
325.689025878906
0
ARC
5
6b0
100
AcDbEntity
8
1-0
6
CONTINUOUS
62
4
100
AcDbCircle
10
37809.139999999999
20
19770.369999999999
30
0.0
40
299.999997209656
100
AcDbArc
50
179.046737670898
51
320.104354858398
0
ARC
5
6b1
100
AcDbEntity
8
1-0
6
CONTINUOUS
62
4
100
AcDbCircle
10
38338.620000000003
20
19573.200000000001
30
0.0
40
299.999997209656
100
AcDbArc
50
179.046737670898
51
320.104354858398
0
ARC
5
6b2
100
AcDbEntity
8
1-0
6
CONTINUOUS
62
4
100
AcDbCircle
10
32324.900000000001
20
21419.810000000001
30
0.0
40
299.999997209656
100
AcDbArc
50
184.631408691406
51
325.689025878906
0
ARC
5
6b3
100
AcDbEntity
8
1-0
6
CONTINUOUS
62
4
100
AcDbCircle
10
5339.060000000000
20
23917.470000000001
30
0.0
40
299.999997209656
100
AcDbArc
50
214.539794921875
51
355.597412109375
0
ARC
5
6b4
100
AcDbEntity
8
1-0
6
CONTINUOUS
62
4
100
AcDbCircle
10
31559.310000000001
20
21829.570000000000
30
0.0
40
299.999997209656
100
AcDbArc
50
184.631408691406
51
325.689025878906
0
ARC
5
6b5
100
AcDbEntity
8
1-0
6
CONTINUOUS
62
4
100
AcDbCircle
10
30467.000000000000
20
22118.980000000000
30
0.0
40
299.999997209656
100
AcDbArc
50
184.631408691406
51
325.689025878906
0
ARC
5
6b6
100
AcDbEntity
8
1-0
6
CONTINUOUS
62
4
100
AcDbCircle
10
31013.150000000001
20
21974.270000000000
30
0.0
40
299.999997209656
100
AcDbArc
50
184.631408691406
51
325.689025878906
0
ARC
5
6b7
100
AcDbEntity
8
1-0
6
CONTINUOUS
62
4
100
AcDbCircle
10
4953.330000000000
20
20706.790000000001
30
0.0
40
299.999997209656
100
AcDbArc
50
34.539810180664
51
175.597396850586
0
ARC
5
6b8
100
AcDbEntity
8
1-0
6
CONTINUOUS
62
4
100
AcDbCircle
10
6044.470000000000
20
21000.560000000001
30
0.0
40
299.999997209656
100
AcDbArc
50
34.539810180664
51
175.597396850586
0
ARC
5
6b9
100
AcDbEntity
8
1-0
6
CONTINUOUS
62
4
100
AcDbCircle
10
4407.750000000000
20
20559.900000000001
30
0.0
40
299.999997209656
100
AcDbArc
50
34.539810180664
51
175.597396850586
0
ARC
5
6ba
100
AcDbEntity
8
1-0
6
CONTINUOUS
62
4
100
AcDbCircle
10
5821.270000000000
20
20733.340000000000
30
0.0
40
299.999997209656
100
AcDbArc
50
34.539810180664
51
175.597396850586
0
ARC
5
6bb
100
AcDbEntity
8
1-0
6
CONTINUOUS
62
4
100
AcDbCircle
10
13498.910000000000
20
21214.889999999999
30
0.0
40
299.999997209656
100
AcDbArc
50
11.089508056641
51
152.147109985352
0
ARC
5
6bc
100
AcDbEntity
8
1-0
6
CONTINUOUS
62
4
100
AcDbCircle
10
37279.660000000003
20
19967.540000000001
30
0.0
40
299.999997209656
100
AcDbArc
50
179.046737670898
51
320.104354858398
0
ARC
5
6bd
100
AcDbEntity
8
1-0
6
CONTINUOUS
62
4
100
AcDbCircle
10
36942.769999999997
20
19879.560000000001
30
0.0
40
299.999997209656
100
AcDbArc
50
179.046737670898
51
320.104354858398
0
ARC
5
6be
100
AcDbEntity
8
1-0
6
CONTINUOUS
62
4
100
AcDbCircle
10
4570.290000000000
20
23503.349999999999
30
0.0
40
299.999997209656
100
AcDbArc
50
214.539794921875
51
355.597412109375
0
ARC
5
6bf
100
AcDbEntity
8
1-0
6
CONTINUOUS
62
4
100
AcDbCircle
10
14368.980000000000
20
21288.860000000001
30
0.0
40
299.999997209656
100
AcDbArc
50
11.089508056641
51
152.147109985352
0
ARC
5
6c0
100
AcDbEntity
8
1-0
6
CONTINUOUS
62
4
100
AcDbCircle
10
14616.830000000000
20
21050.169999999998
30
0.0
40
299.999997209656
100
AcDbArc
50
11.089508056641
51
152.147109985352
0
ARC
5
6c1
100
AcDbEntity
8
1-0
6
CONTINUOUS
62
4
100
AcDbCircle
10
4730.130000000000
20
20439.570000000000
30
0.0
40
299.999997209656
100
AcDbArc
50
34.539810180664
51
175.597396850586
0
ARC
5
6c2
100
AcDbEntity
8
1-0
6
CONTINUOUS
62
4
100
AcDbCircle
10
11993.030000000001
20
24681.240000000002
30
0.0
40
299.999997209656
100
AcDbArc
50
196.291824340820
51
337.349441528320
0
ARC
5
6c3
100
AcDbEntity
8
1-0
6
CONTINUOUS
62
4
100
AcDbCircle
10
36989.190000000002
20
16661.029999999999
30
0.0
40
299.999997209656
100
AcDbArc
50
359.046783447266
51
140.104385375977
0
ARC
5
6c4
100
AcDbEntity
8
1-0
6
CONTINUOUS
62
4
100
AcDbCircle
10
14057.870000000001
20
21132.529999999999
30
0.0
40
299.999997209656
100
AcDbArc
50
11.089508056641
51
152.147109985352
0
ARC
5
6c5
100
AcDbEntity
8
1-0
6
CONTINUOUS
62
4
100
AcDbCircle
10
35930.230000000003
20
17055.369999999999
30
0.0
40
299.999997209656
100
AcDbArc
50
359.046783447266
51
140.104385375977
0
ARC
5
6c6
100
AcDbEntity
8
1-0
6
CONTINUOUS
62
4
100
AcDbCircle
10
35400.750000000000
20
17252.540000000001
30
0.0
40
299.999997209656
100
AcDbArc
50
359.046783447266
51
140.104385375977
0
ARC
5
6c7
100
AcDbEntity
8
1-0
6
CONTINUOUS
62
4
100
AcDbCircle
10
36750.180000000000
20
20164.709999999999
30
0.0
40
299.999997209656
100
AcDbArc
50
179.046737670898
51
320.104354858398
0
ARC
5
6c8
100
AcDbEntity
8
1-0
6
CONTINUOUS
62
4
100
AcDbCircle
10
36413.290000000001
20
20076.730000000000
30
0.0
40
299.999997209656
100
AcDbArc
50
179.046737670898
51
320.104354858398
0
ARC
5
6c9
100
AcDbEntity
8
1-0
6
CONTINUOUS
62
4
100
AcDbCircle
10
13810.020000000000
20
21371.220000000001
30
0.0
40
299.999997209656
100
AcDbArc
50
11.089508056641
51
152.147109985352
0
ARC
5
6ca
100
AcDbEntity
8
1-0
6
CONTINUOUS
62
4
100
AcDbCircle
10
36459.709999999999
20
16858.200000000001
30
0.0
40
299.999997209656
100
AcDbArc
50
359.046783447266
51
140.104385375977
0
ARC
5
6cb
100
AcDbEntity
8
1-0
6
CONTINUOUS
62
4
100
AcDbCircle
10
38001.730000000003
20
19485.220000000001
30
0.0
40
299.999997209656
100
AcDbArc
50
179.046737670898
51
320.104354858398
0
ARC
5
6cc
100
AcDbEntity
8
1-0
6
CONTINUOUS
62
4
100
AcDbCircle
10
36220.699999999997
20
20361.880000000001
30
0.0
40
299.999997209656
100
AcDbArc
50
179.046737670898
51
320.104354858398
0
ARC
5
6cd
100
AcDbEntity
8
1-0
6
CONTINUOUS
62
4
100
AcDbCircle
10
53621.389999999999
20
16668.959999999999
30
0.0
40
299.999997209656
100
AcDbArc
50
199.971328735352
51
341.028945922852
0
ARC
5
6ce
100
AcDbEntity
8
1-0
6
CONTINUOUS
62
4
100
AcDbCircle
10
35208.150000000001
20
17537.689999999999
30
0.0
40
299.999997209656
100
AcDbArc
50
359.046783447266
51
140.104385375977
0
ARC
5
6cf
100
AcDbEntity
8
1-0
6
CONTINUOUS
62
4
100
AcDbCircle
10
5275.700000000000
20
20586.450000000001
30
0.0
40
299.999997209656
100
AcDbArc
50
34.539810180664
51
175.597396850586
0
ARC
5
6d0
100
AcDbEntity
8
1-0
6
CONTINUOUS
62
4
100
AcDbCircle
10
37472.250000000000
20
19682.389999999999
30
0.0
40
299.999997209656
100
AcDbArc
50
179.046737670898
51
320.104354858398
0
ARC
5
6d1
100
AcDbEntity
8
1-0
6
CONTINUOUS
62
4
100
AcDbCircle
10
6366.840000000000
20
20880.220000000001
30
0.0
40
299.999997209656
100
AcDbArc
50
34.539810180664
51
175.597396850586
0
ARC
5
6d2
100
AcDbEntity
8
1-0
6
CONTINUOUS
62
4
100
AcDbCircle
10
4184.550000000000
20
20292.680000000000
30
0.0
40
299.999997209656
100
AcDbArc
50
34.539810180664
51
175.597396850586
0
ARC
5
6d3
100
AcDbEntity
8
1-0
6
CONTINUOUS
62
4
100
AcDbCircle
10
43489.680000000000
20
17531.820000000000
30
0.0
40
299.999997209656
100
AcDbArc
50
190.698089599609
51
331.755676269531
0
ARC
5
6d4
100
AcDbEntity
8
1-0
6
CONTINUOUS
62
4
100
AcDbCircle
10
56595.160000000003
20
13271.709999999999
30
0.0
40
299.999997209656
100
AcDbArc
50
11.510375976563
51
152.567977905273
0
ARC
5
6d5
100
AcDbEntity
8
1-0
6
CONTINUOUS
62
4
100
AcDbCircle
10
57714.269999999997
20
13115.209999999999
30
0.0
40
299.999997209656
100
AcDbArc
50
11.510375976563
51
152.567977905273
0
ARC
5
6d6
100
AcDbEntity
8
1-0
6
CONTINUOUS
62
4
100
AcDbCircle
10
44048.080000000002
20
17445.639999999999
30
0.0
40
299.999997209656
100
AcDbArc
50
190.698089599609
51
331.755676269531
0
ARC
5
6d7
100
AcDbEntity
8
1-0
6
CONTINUOUS
62
4
100
AcDbCircle
10
44852.669999999998
20
17119.090000000000
30
0.0
40
299.999997209656
100
AcDbArc
50
190.698089599609
51
331.755676269531
0
ARC
5
6d8
100
AcDbEntity
8
1-0
6
CONTINUOUS
62
4
100
AcDbCircle
10
45411.070000000000
20
17032.900000000001
30
0.0
40
299.999997209656
100
AcDbArc
50
190.698089599609
51
331.755676269531
0
ARC
5
6d9
100
AcDbEntity
8
1-0
6
CONTINUOUS
62
4
100
AcDbCircle
10
5498.890000000000
20
20853.680000000000
30
0.0
40
299.999997209656
100
AcDbArc
50
34.539810180664
51
175.597396850586
0
ARC
5
6da
100
AcDbEntity
8
1-0
6
CONTINUOUS
62
4
100
AcDbCircle
10
53338.150000000001
20
16466.480000000000
30
0.0
40
299.999997209656
100
AcDbArc
50
199.971328735352
51
341.028945922852
0
ARC
5
6db
100
AcDbEntity
8
1-0
6
CONTINUOUS
62
4
100
AcDbCircle
10
51753.440000000002
20
13452.520000000000
30
0.0
40
299.999997209656
100
AcDbArc
50
19.971298217773
51
161.028900146484
0
ARC
5
6dc
100
AcDbEntity
8
1-0
6
CONTINUOUS
62
4
100
AcDbCircle
10
52773.169999999998
20
16461.549999999999
30
0.0
40
299.999997209656
100
AcDbArc
50
199.971328735352
51
341.028945922852
0
ARC
5
6dd
100
AcDbEntity
8
1-0
6
CONTINUOUS
62
4
100
AcDbCircle
10
52318.430000000000
20
13457.450000000001
30
0.0
40
299.999997209656
100
AcDbArc
50
19.971298217773
51
161.028900146484
0
ARC
5
6de
100
AcDbEntity
8
1-0
6
CONTINUOUS
62
4
100
AcDbCircle
10
53903.120000000003
20
16471.410000000000
30
0.0
40
299.999997209656
100
AcDbArc
50
199.971328735352
51
341.028945922852
0
ARC
5
6df
100
AcDbEntity
8
1-0
6
CONTINUOUS
62
4
100
AcDbCircle
10
8544.410000000000
20
21365.990000000002
30
0.0
40
299.999997209656
100
AcDbArc
50
30.795440673828
51
171.853012084961
0
ARC
5
6e0
100
AcDbEntity
8
1-0
6
CONTINUOUS
62
4
100
AcDbCircle
10
54186.360000000001
20
16673.889999999999
30
0.0
40
299.999997209656
100
AcDbArc
50
199.971328735352
51
341.028945922852
0
ARC
5
6e1
100
AcDbEntity
8
1-0
6
CONTINUOUS
62
4
100
AcDbCircle
10
44606.449999999997
20
17359.459999999999
30
0.0
40
299.999997209656
100
AcDbArc
50
190.698089599609
51
331.755676269531
0
ARC
5
6e2
100
AcDbEntity
8
1-0
6
CONTINUOUS
62
4
100
AcDbCircle
10
45164.849999999999
20
17273.290000000001
30
0.0
40
299.999997209656
100
AcDbArc
50
190.698089599609
51
331.755676269531
0
ARC
5
6e3
100
AcDbEntity
8
1-0
6
CONTINUOUS
62
4
100
AcDbCircle
10
7990.410000000000
20
21255.040000000001
30
0.0
40
299.999997209656
100
AcDbArc
50
30.795440673828
51
171.853012084961
0
ARC
5
6e4
100
AcDbEntity
8
1-0
6
CONTINUOUS
62
4
100
AcDbCircle
10
53056.410000000003
20
16664.029999999999
30
0.0
40
299.999997209656
100
AcDbArc
50
199.971328735352
51
341.028945922852
0
ARC
5
6e5
100
AcDbEntity
8
1-0
6
CONTINUOUS
62
4
100
AcDbCircle
10
34871.269999999997
20
17449.709999999999
30
0.0
40
299.999997209656
100
AcDbArc
50
359.046783447266
51
140.104385375977
0
ARC
5
6e6
100
AcDbEntity
8
1-0
6
CONTINUOUS
62
4
100
AcDbCircle
10
12380.969999999999
20
21379.610000000001
30
0.0
40
299.999997209656
100
AcDbArc
50
11.089508056641
51
152.147109985352
0
ARC
5
6e7
100
AcDbEntity
8
1-0
6
CONTINUOUS
62
4
100
AcDbCircle
10
12692.090000000000
20
21535.939999999999
30
0.0
40
299.999997209656
100
AcDbArc
50
11.089508056641
51
152.147109985352
0
ARC
5
6e8
100
AcDbEntity
8
1-0
6
CONTINUOUS
62
4
100
AcDbCircle
10
9098.410000000000
20
21476.930000000000
30
0.0
40
299.999997209656
100
AcDbArc
50
30.795440673828
51
171.853012084961
0
ARC
5
6e9
100
AcDbEntity
8
1-0
6
CONTINUOUS
62
4
100
AcDbCircle
10
9652.410000000000
20
21587.869999999999
30
0.0
40
299.999997209656
100
AcDbArc
50
30.795440673828
51
171.853012084961
0
ARC
5
6ea
100
AcDbEntity
8
1-0
6
CONTINUOUS
62
4
100
AcDbCircle
10
13251.040000000001
20
21453.580000000002
30
0.0
40
299.999997209656
100
AcDbArc
50
11.089508056641
51
152.147109985352
0
ARC
5
6eb
100
AcDbEntity
8
1-0
6
CONTINUOUS
62
4
100
AcDbCircle
10
4024.710000000000
20
23356.480000000000
30
0.0
40
299.999997209656
100
AcDbArc
50
214.539794921875
51
355.597412109375
0
ARC
5
6ec
100
AcDbEntity
8
1-0
6
CONTINUOUS
62
4
100
AcDbCircle
10
5661.430000000000
20
23797.130000000001
30
0.0
40
299.999997209656
100
AcDbArc
50
214.539794921875
51
355.597412109375
0
ARC
5
6ed
100
AcDbEntity
8
1-0
6
CONTINUOUS
62
4
100
AcDbCircle
10
15024.709999999999
20
24224.630000000001
30
0.0
40
299.999997209656
100
AcDbArc
50
191.089569091797
51
332.147186279297
0
ARC
5
6ee
100
AcDbEntity
8
1-0
6
CONTINUOUS
62
4
100
AcDbCircle
10
3702.340000000000
20
23476.810000000001
30
0.0
40
299.999997209656
100
AcDbArc
50
214.539794921875
51
355.597412109375
0
ARC
5
6ef
100
AcDbEntity
8
1-0
6
CONTINUOUS
62
4
100
AcDbCircle
10
4793.480000000000
20
23770.580000000002
30
0.0
40
299.999997209656
100
AcDbArc
50
214.539794921875
51
355.597412109375
0
ARC
5
6f0
100
AcDbEntity
8
1-0
6
CONTINUOUS
62
4
100
AcDbCircle
10
11428.900000000000
20
24712.580000000002
30
0.0
40
299.999997209656
100
AcDbArc
50
196.291824340820
51
337.349441528320
0
ARC
5
6f1
100
AcDbEntity
8
1-0
6
CONTINUOUS
62
4
100
AcDbCircle
10
13595.660000000000
20
24233.009999999998
30
0.0
40
299.999997209656
100
AcDbArc
50
191.089569091797
51
332.147186279297
0
ARC
5
6f2
100
AcDbEntity
8
1-0
6
CONTINUOUS
62
4
100
AcDbCircle
10
4247.920000000000
20
23623.700000000001
30
0.0
40
299.999997209656
100
AcDbArc
50
214.539794921875
51
355.597412109375
0
ARC
5
6f3
100
AcDbEntity
8
1-0
6
CONTINUOUS
62
4
100
AcDbCircle
10
12939.930000000000
20
21297.250000000000
30
0.0
40
299.999997209656
100
AcDbArc
50
11.089508056641
51
152.147109985352
0
ARC
5
6f4
100
AcDbEntity
8
1-0
6
CONTINUOUS
62
4
100
AcDbCircle
10
14713.600000000000
20
24068.299999999999
30
0.0
40
299.999997209656
100
AcDbArc
50
191.089569091797
51
332.147186279297
0
ARC
5
6f5
100
AcDbEntity
8
1-0
6
CONTINUOUS
62
4
100
AcDbCircle
10
13036.709999999999
20
24315.369999999999
30
0.0
40
299.999997209656
100
AcDbArc
50
191.089569091797
51
332.147186279297
0
ARC
5
6f6
100
AcDbEntity
8
1-0
6
CONTINUOUS
62
4
100
AcDbCircle
10
7676.580000000000
20
21396.180000000000
30
0.0
40
299.999997209656
100
AcDbArc
50
30.795440673828
51
171.853012084961
0
ARC
5
6f7
100
AcDbEntity
8
1-0
6
CONTINUOUS
62
4
100
AcDbCircle
10
9338.590000000000
20
21729.009999999998
30
0.0
40
299.999997209656
100
AcDbArc
50
30.795440673828
51
171.853012084961
0
ARC
5
6f8
100
AcDbEntity
8
1-0
6
CONTINUOUS
62
4
100
AcDbCircle
10
7436.410000000000
20
21144.099999999999
30
0.0
40
299.999997209656
100
AcDbArc
50
30.795440673828
51
171.853012084961
0
ARC
5
6f9
100
AcDbEntity
8
1-0
6
CONTINUOUS
62
4
100
AcDbCircle
10
10004.980000000000
20
24591.360000000001
30
0.0
40
299.999997209656
100
AcDbArc
50
196.291824340820
51
337.349441528320
0
ARC
5
6fa
100
AcDbEntity
8
1-0
6
CONTINUOUS
62
4
100
AcDbCircle
10
14154.639999999999
20
24150.650000000001
30
0.0
40
299.999997209656
100
AcDbArc
50
191.089569091797
51
332.147186279297
0
ARC
5
6fb
100
AcDbEntity
8
1-0
6
CONTINUOUS
62
4
100
AcDbCircle
10
10300.639999999999
20
24775.250000000000
30
0.0
40
299.999997209656
100
AcDbArc
50
196.291824340820
51
337.349441528320
0
ARC
5
6fc
100
AcDbEntity
8
1-0
6
CONTINUOUS
62
4
100
AcDbCircle
10
8784.580000000000
20
21618.060000000001
30
0.0
40
299.999997209656
100
AcDbArc
50
30.795440673828
51
171.853012084961
0
ARC
5
6fd
100
AcDbEntity
8
1-0
6
CONTINUOUS
62
4
100
AcDbCircle
10
72876.919999999998
20
1582.110000000000
30
0.0
40
299.999997209656
100
AcDbArc
50
102.484283447266
51
243.541839599609
0
ARC
5
6fe
100
AcDbEntity
8
1-0
6
CONTINUOUS
62
4
100
AcDbCircle
10
11133.250000000000
20
24528.680000000000
30
0.0
40
299.999997209656
100
AcDbArc
50
196.291824340820
51
337.349441528320
0
ARC
5
6ff
100
AcDbEntity
8
1-0
6
CONTINUOUS
62
4
100
AcDbCircle
10
5115.850000000000
20
23650.240000000002
30
0.0
40
299.999997209656
100
AcDbArc
50
214.539794921875
51
355.597412109375
0
ARC
5
700
100
AcDbEntity
8
1-0
6
CONTINUOUS
62
4
100
AcDbCircle
10
10569.110000000001
20
24560.020000000000
30
0.0
40
299.999997209656
100
AcDbArc
50
196.291824340820
51
337.349441528320
0
CIRCLE
5
701
100
AcDbEntity
8
1-0
6
CONTINUOUS
62
4
100
AcDbCircle
10
53247.419999999998
20
43582.480000000003
30
0.0
40
299.999997209656
0
ARC
5
702
100
AcDbEntity
8
1-0
6
CONTINUOUS
62
4
100
AcDbCircle
10
76651.750000000000
20
13827.110000000001
30
0.0
40
299.999997209656
100
AcDbArc
50
198.013092041016
51
339.070693969727
0
ARC
5
703
100
AcDbEntity
8
1-0
6
CONTINUOUS
62
4
100
AcDbCircle
10
67082.039999999994
20
14290.100000000000
30
0.0
40
299.999997209656
100
AcDbArc
50
187.876510620117
51
328.934127807617
0
ARC
5
704
100
AcDbEntity
8
1-0
6
CONTINUOUS
62
4
100
AcDbCircle
10
8230.580000000000
20
21507.119999999999
30
0.0
40
299.999997209656
100
AcDbArc
50
30.795440673828
51
171.853012084961
0
ARC
5
705
100
AcDbEntity
8
1-0
6
CONTINUOUS
62
4
100
AcDbCircle
10
78911.009999999995
20
13769.600000000000
30
0.0
40
299.999997209656
100
AcDbArc
50
198.013092041016
51
339.070693969727
0
ARC
5
706
100
AcDbEntity
8
1-0
6
CONTINUOUS
62
4
100
AcDbCircle
10
72313.220000000001
20
13737.480000000000
30
0.0
40
299.999997209656
100
AcDbArc
50
198.013092041016
51
339.070693969727
0
ARC
5
707
100
AcDbEntity
8
1-0
6
CONTINUOUS
62
4
100
AcDbCircle
10
77781.380000000005
20
13798.350000000000
30
0.0
40
299.999997209656
100
AcDbArc
50
198.013092041016
51
339.070693969727
0
CIRCLE
5
708
100
AcDbEntity
8
1-0
6
CONTINUOUS
62
4
100
AcDbCircle
10
56788.489999999998
20
24917.590000000000
30
0.0
40
299.999997209656
0
ARC
5
709
100
AcDbEntity
8
1-0
6
CONTINUOUS
62
4
100
AcDbCircle
10
71473.580000000002
20
13958.910000000000
30
0.0
40
299.999997209656
100
AcDbArc
50
198.013092041016
51
339.070693969727
0
ARC
5
70a
100
AcDbEntity
8
1-0
6
CONTINUOUS
62
4
100
AcDbCircle
10
77491.380000000005
20
13605.670000000000
30
0.0
40
299.999997209656
100
AcDbArc
50
198.013092041016
51
339.070693969727
0
ARC
5
70b
100
AcDbEntity
8
1-0
6
CONTINUOUS
62
4
100
AcDbCircle
10
73442.860000000001
20
13708.719999999999
30
0.0
40
299.999997209656
100
AcDbArc
50
198.013092041016
51
339.070693969727
0
ARC
5
70c
100
AcDbEntity
8
1-0
6
CONTINUOUS
62
4
100
AcDbCircle
10
76926.570000000007
20
13620.049999999999
30
0.0
40
299.999997209656
100
AcDbArc
50
198.013092041016
51
339.070693969727
0
ARC
5
70d
100
AcDbEntity
8
1-0
6
CONTINUOUS
62
4
100
AcDbCircle
10
72603.220000000001
20
13930.160000000000
30
0.0
40
299.999997209656
100
AcDbArc
50
198.013092041016
51
339.070693969727
0
ARC
5
70e
100
AcDbEntity
8
1-0
6
CONTINUOUS
62
4
100
AcDbCircle
10
72878.039999999994
20
13723.110000000001
30
0.0
40
299.999997209656
100
AcDbArc
50
198.013092041016
51
339.070693969727
0
ARC
5
70f
100
AcDbEntity
8
1-0
6
CONTINUOUS
62
4
100
AcDbCircle
10
71748.410000000003
20
13751.860000000001
30
0.0
40
299.999997209656
100
AcDbArc
50
198.013092041016
51
339.070693969727
0
ARC
5
710
100
AcDbEntity
8
1-0
6
CONTINUOUS
62
4
100
AcDbCircle
10
73732.850000000006
20
13901.400000000000
30
0.0
40
299.999997209656
100
AcDbArc
50
198.013092041016
51
339.070693969727
0
ARC
5
711
100
AcDbEntity
8
1-0
6
CONTINUOUS
62
4
100
AcDbCircle
10
72038.399999999994
20
13944.540000000001
30
0.0
40
299.999997209656
100
AcDbArc
50
198.013092041016
51
339.070693969727
0
CIRCLE
5
712
100
AcDbEntity
8
1-0
6
CONTINUOUS
62
2
100
AcDbCircle
10
7895.210000000000
20
64814.110000000001
30
0.0
40
1.999999914867
0
ARC
5
713
100
AcDbEntity
8
1-0
6
CONTINUOUS
62
4
100
AcDbCircle
10
73168.029999999999
20
13915.790000000001
30
0.0
40
299.999997209656
100
AcDbArc
50
198.013092041016
51
339.070693969727
0
CIRCLE
5
714
100
AcDbEntity
8
1-0
6
CONTINUOUS
62
4
100
AcDbCircle
10
56788.489999999998
20
24917.590000000000
30
0.0
40
99.999999069885
0
CIRCLE
5
715
100
AcDbEntity
8
1-0
6
CONTINUOUS
62
4
100
AcDbCircle
10
53247.419999999998
20
43582.480000000003
30
0.0
40
99.999999069885
0
TEXT
5
716
100
AcDbEntity
8
1-0
62
6
100
AcDbText
10
43991.010
20
15552.160
30
0.0
40
585.000
1
有　栖　川
41
1.083
50
351.227
100
AcDbText
0
TEXT
5
717
100
AcDbEntity
8
1-0
62
3
100
AcDbText
10
74211.270
20
3707.070
30
0.0
40
292.500
1
調
41
1.000
50
0.000
100
AcDbText
0
TEXT
5
718
100
AcDbEntity
8
1-0
62
3
100
AcDbText
10
75381.270
20
3707.070
30
0.0
40
292.500
1
製
41
1.000
50
0.000
100
AcDbText
0
TEXT
5
719
100
AcDbEntity
8
1-0
62
3
100
AcDbText
10
74211.270
20
3144.580
30
0.0
40
292.500
1
作
41
1.000
50
0.000
100
AcDbText
0
TEXT
5
71a
100
AcDbEntity
8
1-0
62
3
100
AcDbText
10
74601.270
20
3144.580
30
0.0
40
292.500
1
業
41
1.000
50
0.000
100
AcDbText
0
TEXT
5
71b
100
AcDbEntity
8
1-0
62
3
100
AcDbText
10
74991.270
20
3144.580
30
0.0
40
292.500
1
機
41
1.000
50
0.000
100
AcDbText
0
TEXT
5
71c
100
AcDbEntity
8
1-0
62
3
100
AcDbText
10
75381.270
20
3144.580
30
0.0
40
292.500
1
関
41
1.000
50
0.000
100
AcDbText
0
TEXT
5
71d
100
AcDbEntity
8
1-0
62
3
100
AcDbText
10
76287.220
20
4810.470
30
0.0
40
292.500
1
1/
41
1.000
50
0.000
100
AcDbText
0
TEXT
5
71e
100
AcDbEntity
8
1-0
62
3
100
AcDbText
10
76258.380
20
5910.100
30
0.0
40
292.500
1
大沢の池環境管理プロジェクト
41
1.000
50
0.000
100
AcDbText
0
TEXT
5
71f
100
AcDbEntity
8
1-0
62
3
100
AcDbText
10
74211.270
20
5946.650
30
0.0
40
292.500
1
事
41
1.000
50
0.000
100
AcDbText
0
TEXT
5
720
100
AcDbEntity
8
1-0
62
3
100
AcDbText
10
74796.270
20
5946.650
30
0.0
40
292.500
1
業
41
1.000
50
0.000
100
AcDbText
0
TEXT
5
721
100
AcDbEntity
8
1-0
62
3
100
AcDbText
10
75381.270
20
5946.650
30
0.0
40
292.500
1
名
41
1.000
50
0.000
100
AcDbText
0
TEXT
5
722
100
AcDbEntity
8
1-0
62
3
100
AcDbText
10
76606.670
20
4810.470
30
0.0
40
292.500
1
100
41
1.000
50
0.000
100
AcDbText
0
TEXT
5
723
100
AcDbEntity
8
1-0
62
3
100
AcDbText
10
76705.400
20
3122.660
30
0.0
40
292.500
1
ソウギョ・バスターズ
41
1.000
50
0.000
100
AcDbText
0
TEXT
5
724
100
AcDbEntity
8
1-0
62
3
100
AcDbText
10
75941.500
20
4247.670
30
0.0
40
292.500
1
平成13年8月17日～平成17年11月6日
41
1.000
50
0.000
100
AcDbText
0
TEXT
5
725
100
AcDbEntity
8
1-0
62
3
100
AcDbText
10
77122.050
20
3685.170
30
0.0
40
292.500
1
平成17年12月1日
41
1.000
50
0.000
100
AcDbText
0
TEXT
5
726
100
AcDbEntity
8
1-0
62
2
100
AcDbText
10
76682.370
20
28158.690
30
0.0
40
390.000
1
T-37
41
1.050
50
90.000
100
AcDbText
0
TEXT
5
727
100
AcDbEntity
8
1-0
62
3
100
AcDbText
10
77945.220
20
4810.470
30
0.0
40
292.500
1
図面番号
41
1.000
50
0.000
100
AcDbText
0
TEXT
5
728
100
AcDbEntity
8
1-0
62
3
100
AcDbText
10
76983.170
20
5362.250
30
0.0
40
292.500
1
本堂舞台現況平面図
41
1.000
50
0.000
100
AcDbText
0
TEXT
5
729
100
AcDbEntity
8
1-0
62
3
100
AcDbText
10
74211.270
20
5384.160
30
0.0
40
292.500
1
図
41
1.000
50
0.000
100
AcDbText
0
TEXT
5
72a
100
AcDbEntity
8
1-0
62
3
100
AcDbText
10
74796.270
20
5384.160
30
0.0
40
292.500
1
面
41
1.000
50
0.000
100
AcDbText
0
TEXT
5
72b
100
AcDbEntity
8
1-0
62
3
100
AcDbText
10
75381.270
20
5384.160
30
0.0
40
292.500
1
名
41
1.000
50
0.000
100
AcDbText
0
TEXT
5
72c
100
AcDbEntity
8
1-0
62
3
100
AcDbText
10
74211.270
20
4826.870
30
0.0
40
292.500
1
縮
41
1.000
50
0.000
100
AcDbText
0
TEXT
5
72d
100
AcDbEntity
8
1-0
62
3
100
AcDbText
10
75381.270
20
4826.870
30
0.0
40
292.500
1
尺
41
1.000
50
0.000
100
AcDbText
0
TEXT
5
72e
100
AcDbEntity
8
1-0
62
6
100
AcDbText
10
46335.570
20
50224.660
30
0.0
40
585.000
1
大　沢　池
41
1.083
50
0.000
100
AcDbText
0
TEXT
5
72f
100
AcDbEntity
8
1-0
62
6
100
AcDbText
10
10203.130
20
50379.990
30
0.0
40
585.000
1
大覚寺本堂舞台現況平面図
41
1.083
50
0.000
100
AcDbText
0
TEXT
5
730
100
AcDbEntity
8
1-0
62
7
100
AcDbText
10
19117.760
20
45955.680
30
0.0
40
195.000
1
4 m
41
1.000
50
0.000
100
AcDbText
0
TEXT
5
731
100
AcDbEntity
8
1-0
62
7
100
AcDbText
10
18118.430
20
45955.680
30
0.0
40
195.000
1
3
41
1.000
50
0.000
100
AcDbText
0
TEXT
5
732
100
AcDbEntity
8
1-0
62
7
100
AcDbText
10
14123.490
20
45968.500
30
0.0
40
195.000
1
1
41
1.000
50
0.000
100
AcDbText
0
TEXT
5
733
100
AcDbEntity
8
1-0
62
7
100
AcDbText
10
17118.090
20
45949.260
30
0.0
40
195.000
1
2
41
1.000
50
0.000
100
AcDbText
0
TEXT
5
734
100
AcDbEntity
8
1-0
62
6
100
AcDbText
10
13523.100
20
48300.180
30
0.0
40
585.000
1
縮尺 壱百分之壱
41
1.083
50
0.000
100
AcDbText
0
TEXT
5
735
100
AcDbEntity
8
1-0
62
2
100
AcDbText
10
11084.070
20
38008.690
30
0.0
40
390.000
1
T-44
41
1.050
50
90.000
100
AcDbText
0
TEXT
5
736
100
AcDbEntity
8
1-0
62
7
100
AcDbText
10
15157.320
20
45977.210
30
0.0
40
195.000
1
0
41
1.000
50
0.000
100
AcDbText
0
TEXT
5
737
100
AcDbEntity
8
1-0
62
3
100
AcDbText
10
15555.430
20
46480.960
30
0.0
40
341.250
1
Scale　1/100
41
1.000
50
0.000
100
AcDbText
0
TEXT
5
738
100
AcDbEntity
8
1-0
62
3
100
AcDbText
10
74211.270
20
4269.580
30
0.0
40
292.500
1
測
41
1.000
50
0.000
100
AcDbText
0
TEXT
5
739
100
AcDbEntity
8
1-0
62
3
100
AcDbText
10
75381.270
20
4269.580
30
0.0
40
292.500
1
量
41
1.000
50
0.000
100
AcDbText
0
TEXT
5
73a
100
AcDbEntity
8
1-0
62
7
100
AcDbText
10
16117.760
20
45955.680
30
0.0
40
195.000
1
1
41
1.000
50
0.000
100
AcDbText
0
TEXT
5
73b
100
AcDbEntity
8
1-0
62
2
100
AcDbText
10
5669.520
20
46217.360
30
0.0
40
390.000
1
T-45
41
1.050
50
90.000
100
AcDbText
0
TEXT
5
73c
100
AcDbEntity
8
1-0
62
2
100
AcDbText
10
56578.320
20
23973.370
30
0.0
40
390.000
1
No.8
41
1.050
50
11.310
100
AcDbText
0
TEXT
5
73d
100
AcDbEntity
8
1-0
62
6
100
AcDbText
10
74270.300
20
54231.300
30
0.0
40
585.000
1
8.0
41
1.083
50
135.000
100
AcDbText
0
TEXT
5
73e
100
AcDbEntity
8
1-0
62
2
100
AcDbText
10
28152.600
20
29577.140
30
0.0
40
390.000
1
T-42
41
1.050
50
90.000
100
AcDbText
0
TEXT
5
73f
100
AcDbEntity
8
1-0
62
2
100
AcDbText
10
48143.510
20
24418.720
30
0.0
40
390.000
1
T-40
41
1.050
50
90.000
100
AcDbText
0
TEXT
5
740
100
AcDbEntity
8
1-0
62
2
100
AcDbText
10
71292.050
20
46947.520
30
0.0
40
390.000
1
（7.89）
41
1.050
50
90.000
100
AcDbText
0
TEXT
5
741
100
AcDbEntity
8
1-0
62
2
100
AcDbText
10
70754.780
20
47361.480
30
0.0
40
390.000
1
8.43
41
1.050
50
90.000
100
AcDbText
0
TEXT
5
742
100
AcDbEntity
8
1-0
62
2
100
AcDbText
10
80529.130
20
49165.740
30
0.0
40
390.000
1
8.56
41
1.050
50
90.000
100
AcDbText
0
TEXT
5
743
100
AcDbEntity
8
1-0
62
2
100
AcDbText
10
61417.060
20
45076.100
30
0.0
40
390.000
1
（8.05）
41
1.050
50
90.000
100
AcDbText
0
TEXT
5
744
100
AcDbEntity
8
1-0
62
2
100
AcDbText
10
81045.040
20
48744.300
30
0.0
40
390.000
1
（8.27）
41
1.050
50
90.000
100
AcDbText
0
TEXT
5
745
100
AcDbEntity
8
1-0
62
2
100
AcDbText
10
31936.320
20
39390.070
30
0.0
40
390.000
1
（8.51）
41
1.050
50
90.000
100
AcDbText
0
TEXT
5
746
100
AcDbEntity
8
1-0
62
2
100
AcDbText
10
18209.290
20
31355.670
30
0.0
40
390.000
1
T-43
41
1.050
50
90.000
100
AcDbText
0
TEXT
5
747
100
AcDbEntity
8
1-0
62
2
100
AcDbText
10
69305.140
20
21581.530
30
0.0
40
390.000
1
T-38
41
1.050
50
90.000
100
AcDbText
0
TEXT
5
748
100
AcDbEntity
8
1-0
62
2
100
AcDbText
10
83652.060
20
34147.790
30
0.0
40
390.000
1
T-36
41
1.050
50
90.000
100
AcDbText
0
TEXT
5
749
100
AcDbEntity
8
1-0
62
2
100
AcDbText
10
38277.540
20
26406.620
30
0.0
40
390.000
1
T-41
41
1.050
50
90.000
100
AcDbText
0
TEXT
5
74a
100
AcDbEntity
8
1-0
62
2
100
AcDbText
10
3664.010
20
24436.990
30
0.0
40
390.000
1
T-105
41
1.050
50
90.000
100
AcDbText
0
TEXT
5
74b
100
AcDbEntity
8
1-0
62
2
100
AcDbText
10
51604.050
20
43185.860
30
0.0
40
390.000
1
（8.07）
41
1.050
50
90.000
100
AcDbText
0
TEXT
5
74c
100
AcDbEntity
8
1-0
62
2
100
AcDbText
10
53801.470
20
43457.690
30
0.0
40
390.000
1
No.7
41
1.050
50
11.310
100
AcDbText
0
TEXT
5
74d
100
AcDbEntity
8
1-0
62
2
100
AcDbText
10
31389.360
20
39678.740
30
0.0
40
390.000
1
8.51
41
1.050
50
90.000
100
AcDbText
0
TEXT
5
74e
100
AcDbEntity
8
1-0
62
2
100
AcDbText
10
22117.270
20
37600.110
30
0.0
40
390.000
1
(8.70）
41
1.050
50
90.000
100
AcDbText
0
TEXT
5
74f
100
AcDbEntity
8
1-0
62
2
100
AcDbText
10
41786.650
20
41162.610
30
0.0
40
390.000
1
（8.15）
41
1.050
50
90.000
100
AcDbText
0
TEXT
5
750
100
AcDbEntity
8
1-0
62
2
100
AcDbText
10
51072.290
20
43591.010
30
0.0
40
390.000
1
8.33
41
1.050
50
90.000
100
AcDbText
0
TEXT
5
751
100
AcDbEntity
8
1-0
62
2
100
AcDbText
10
60909.950
20
45475.310
30
0.0
40
390.000
1
8.35
41
1.050
50
90.000
100
AcDbText
0
TEXT
5
752
100
AcDbEntity
8
1-0
62
2
100
AcDbText
10
21556.210
20
37737.520
30
0.0
40
390.000
1
8.82
41
1.050
50
90.000
100
AcDbText
0
TEXT
5
753
100
AcDbEntity
8
1-0
62
2
100
AcDbText
10
5106.710
20
34348.090
30
0.0
40
390.000
1
T-97
41
1.050
50
90.000
100
AcDbText
0
TEXT
5
754
100
AcDbEntity
8
1-0
62
4
100
AcDbText
10
19220.100
20
65069.960
30
0.0
40
146.250
1
（8.75）
41
1.000
50
90.000
100
AcDbText
0
TEXT
5
755
100
AcDbEntity
8
1-0
62
4
100
AcDbText
10
28999.280
20
66915.060
30
0.0
40
146.250
1
（8.59）
41
1.000
50
90.000
100
AcDbText
0
TEXT
5
756
100
AcDbEntity
8
1-0
62
4
100
AcDbText
10
28167.900
20
67677.190
30
0.0
40
146.250
1
8.64
41
1.000
50
90.000
100
AcDbText
0
TEXT
5
757
100
AcDbEntity
8
1-0
62
2
100
AcDbText
10
41249.820
20
41527.250
30
0.0
40
390.000
1
8.35
41
1.050
50
90.000
100
AcDbText
0
TEXT
5
758
100
AcDbEntity
8
1-0
62
2
100
AcDbText
10
59595.620
20
23840.050
30
0.0
40
390.000
1
T-39
41
1.050
50
90.000
100
AcDbText
0
TEXT
5
759
100
AcDbEntity
8
1-0
62
4
100
AcDbText
10
8568.210
20
63946.730
30
0.0
40
146.250
1
8.93
41
1.000
50
90.000
100
AcDbText
0
TEXT
5
75a
100
AcDbEntity
8
1-0
62
4
100
AcDbText
10
9499.640
20
63170.550
30
0.0
40
146.250
1
（8.93）
41
1.000
50
90.000
100
AcDbText
0
TEXT
5
75b
100
AcDbEntity
8
1-0
62
4
100
AcDbText
10
18285.480
20
65846.620
30
0.0
40
146.250
1
8.80
41
1.000
50
90.000
100
AcDbText
0
POINT
5
75c
100
AcDbEntity
8
1-0
62
7
100
AcDbPoint
10
27953.990000000002
20
29419.419999999998
30
0.0
0
POINT
5
75d
100
AcDbEntity
8
1-0
62
7
100
AcDbPoint
10
17986.029999999999
20
31150.919999999998
30
0.0
0
POINT
5
75e
100
AcDbEntity
8
1-0
62
7
100
AcDbPoint
10
47939.839999999997
20
24146.750000000000
30
0.0
0
POINT
5
75f
100
AcDbEntity
8
1-0
62
7
100
AcDbPoint
10
59382.230000000003
20
23607.919999999998
30
0.0
0
POINT
5
760
100
AcDbEntity
8
1-0
62
7
100
AcDbPoint
10
76480.729999999996
20
27954.150000000001
30
0.0
0
POINT
5
761
100
AcDbEntity
8
1-0
62
7
100
AcDbPoint
10
69107.210000000006
20
21290.639999999999
30
0.0
0
POINT
5
762
100
AcDbEntity
8
1-0
62
7
100
AcDbPoint
10
38077.800000000003
20
26154.220000000001
30
0.0
0
POINT
5
763
100
AcDbEntity
8
1-0
62
7
100
AcDbPoint
10
3464.070000000000
20
24222.080000000002
30
0.0
0
POINT
5
764
100
AcDbEntity
8
1-0
62
7
100
AcDbPoint
10
4908.030000000000
20
34117.279999999999
30
0.0
0
POINT
5
765
100
AcDbEntity
8
1-0
62
7
100
AcDbPoint
10
5475.350000000000
20
46009.550000000003
30
0.0
0
POINT
5
766
100
AcDbEntity
8
1-0
62
7
100
AcDbPoint
10
10883.700000000001
20
37773.760000000002
30
0.0
0
POINT
5
767
100
AcDbEntity
8
1-0
62
7
100
AcDbPoint
10
60905.220000000001
20
45035.300000000003
30
0.0
0
POINT
5
768
100
AcDbEntity
8
1-0
62
7
100
AcDbPoint
10
37949.190000000002
20
68833.800000000003
30
0.0
0
POINT
5
769
100
AcDbEntity
8
1-0
62
7
100
AcDbPoint
10
51080.470000000001
20
43171.370000000003
30
0.0
0
POINT
5
76a
100
AcDbEntity
8
1-0
62
7
100
AcDbPoint
10
21606.189999999999
20
37579.550000000003
30
0.0
0
POINT
5
76b
100
AcDbEntity
8
1-0
62
7
100
AcDbPoint
10
41255.720000000001
20
41307.430000000000
30
0.0
0
POINT
5
76c
100
AcDbEntity
8
1-0
62
7
100
AcDbPoint
10
83464.699999999997
20
35181.970000000001
30
0.0
0
POINT
5
76d
100
AcDbEntity
8
1-0
62
7
100
AcDbPoint
10
80554.720000000001
20
48763.180000000000
30
0.0
0
POINT
5
76e
100
AcDbEntity
8
1-0
62
7
100
AcDbPoint
10
31430.959999999999
20
39443.489999999998
30
0.0
0
POINT
5
76f
100
AcDbEntity
8
1-0
62
7
100
AcDbPoint
10
8474.930000000000
20
63241.980000000003
30
0.0
0
POINT
5
770
100
AcDbEntity
8
1-0
62
7
100
AcDbPoint
10
70729.970000000001
20
46899.250000000000
30
0.0
0
POINT
5
771
100
AcDbEntity
8
1-0
62
7
100
AcDbPoint
10
56788.489999999998
20
24917.590000000000
30
0.0
0
POINT
5
772
100
AcDbEntity
8
1-0
62
7
100
AcDbPoint
10
53247.419999999998
20
43582.480000000003
30
0.0
0
POINT
5
773
100
AcDbEntity
8
1-0
62
7
100
AcDbPoint
10
18299.680000000000
20
65105.919999999998
30
0.0
0
POINT
5
774
100
AcDbEntity
8
1-0
62
7
100
AcDbPoint
10
28124.439999999999
20
66969.860000000001
30
0.0
0
ENDSEC
0
EOF
