0
SECTION
2
HEADER
9
$ACADVER
1
AC1009
9
$EXTMIN
10
0.000
20
0.000
30
0.0
9
$EXTMAX
10
84100.000
20
59400.000
30
0.0
9
$LTSCALE
40
100.000
9
$PDMODE
70
0
9
$PDSIZE
40
40.0
0
ENDSEC
0
SECTION
2
TABLES
0
TABLE
2
LTYPE
70
9
0
LTYPE
5
1f4
2
CONTINUOUS
70
64
3
SolidLine
72
65
73
0
40
0.0
0
LTYPE
5
1f5
2
DOT
70
64
3
--  --  --  --  --  --  --  --     
72
65
73
2
40
3.000
49
1.000
49
-2.000
0
LTYPE
5
1f6
2
DASHED
70
64
3
----    ----    ----    ----    
72
65
73
2
40
5.000
49
2.000
49
-3.000
0
LTYPE
5
1f7
2
DASHED2
70
64
3
------  ------  ------  ------ 
72
65
73
2
40
10.000
49
4.000
49
-6.000
0
LTYPE
5
1f8
2
CENTER
70
64
3
----- - ----- - ----- - ----- - 
72
65
73
4
40
10.000
49
6.000
49
-3.000
49
1.000
49
-3.000
0
LTYPE
5
1f9
2
CENTER2
70
64
3
----------  --  ----------  -- 
72
65
73
4
40
17.000
49
12.000
49
-5.000
49
2.000
49
-5.000
0
LTYPE
5
1fa
2
PHANTOM
70
64
3
--- - - --- - - --- - - --- - -
72
65
73
6
40
13.000
49
5.000
49
-3.000
49
1.000
49
-3.000
49
1.000
49
-3.000
0
LTYPE
5
1fb
2
PHANTOM2
70
64
3
--------  -  -  --------  -  -
72
65
73
6
40
20.000
49
6.000
49
-5.000
49
2.000
49
-5.000
49
2.000
49
-5.000
0
LTYPE
5
1fc
2
HIDDEN
70
64
3
-   -   -   -   -   -   -   -   
72
65
73
2
40
3.000
49
0.500
49
-2.500
0
ENDTAB
0
TABLE
2
STYLE
70
1
0
STYLE
5
1fd
100
AcDbSymbolTableRecord
100
AcDbTextStyleTableRecord
2
STANDARD
70
0
40
0.0
41
1.0
50
0.0
71
0
42
0.0
3
txt.shx
4
extfont.shx
0
STYLE
5
1fe
100
AcDbSymbolTableRecord
100
AcDbTextStyleTableRecord
2
TATEGAKI
70
4
40
0.0
41
1.0
50
0.0
71
0
42
0.0
3
txt.shx
4
extfont.shx
0
STYLE
5
1ff
100
AcDbSymbolTableRecord
100
AcDbTextStyleTableRecord
2
DIM
70
0
40
0.0
41
0.75
50
0.0
71
0
42
0.0
3
txt.shx
4
extfont.shx
0
STYLE
5
200
100
AcDbSymbolTableRecord
100
AcDbTextStyleTableRecord
2
_Gothic_
70
0
40
0.0
41
1.0
50
0.0
71
0
42
0.0
3
MS Gothic
4

0
STYLE
5
201
100
AcDbSymbolTableRecord
100
AcDbTextStyleTableRecord
2
_TateGothic_
70
4
40
0.0
41
1.0
50
0.0
71
0
42
0.0
3
@MS Gothic
4

0
ENDTAB
0
TABLE
2
LAYER
5
403
100
AcDbSymbolTable
70
10
0
LAYER
5
404
100
AcDbSymbolTableRecord
100
AcDbLayerTableRecord
2
1-0
70
0
62
7
6
CONTINUOUS
0
LAYER
5
405
100
AcDbSymbolTableRecord
100
AcDbLayerTableRecord
2
2-0
70
0
62
-7
6
CONTINUOUS
0
ENDTAB
0
ENDSEC
0
SECTION
2
ENTITIES
0
LINE
5
406
100
AcDbEntity
8
1-0
6
CONTINUOUS
62
4
100
AcDbLine
10
12756.879999999999
20
44603.660000000003
30
0.0
11
12756.879999999999
21
44703.660000000003
31
0.0
0
LINE
5
407
100
AcDbEntity
8
1-0
6
CONTINUOUS
62
4
100
AcDbLine
10
13756.879999999999
20
44603.660000000003
30
0.0
11
13756.879999999999
21
44703.650000000001
31
0.0
0
LINE
5
408
100
AcDbEntity
8
1-0
6
CONTINUOUS
62
4
100
AcDbLine
10
9756.879999999999
20
44603.660000000003
30
0.0
11
9756.879999999999
21
44703.660000000003
31
0.0
0
LINE
5
409
100
AcDbEntity
8
1-0
6
CONTINUOUS
62
4
100
AcDbLine
10
8756.879999999999
20
44663.660000000003
30
0.0
11
13756.879999999999
21
44663.660000000003
31
0.0
0
LINE
5
40a
100
AcDbEntity
8
1-0
6
CONTINUOUS
62
4
100
AcDbLine
10
9356.879999999999
20
44603.660000000003
30
0.0
11
9356.879999999999
21
44660.160000000003
31
0.0
0
LINE
5
40b
100
AcDbEntity
8
1-0
6
CONTINUOUS
62
4
100
AcDbLine
10
11756.879999999999
20
44603.660000000003
30
0.0
11
11756.879999999999
21
44703.660000000003
31
0.0
0
LINE
5
40c
100
AcDbEntity
8
1-0
6
CONTINUOUS
62
4
100
AcDbLine
10
8756.879999999999
20
44603.660000000003
30
0.0
11
8756.879999999999
21
44703.660000000003
31
0.0
0
LINE
5
40d
100
AcDbEntity
8
1-0
6
CONTINUOUS
62
4
100
AcDbLine
10
11256.879999999999
20
44603.660000000003
30
0.0
11
11256.879999999999
21
44684.370000000003
31
0.0
0
LINE
5
40e
100
AcDbEntity
8
1-0
6
CONTINUOUS
62
4
100
AcDbLine
10
80507.899999999994
20
6417.330000000000
30
0.0
11
80507.899999999994
21
3052.750000000000
31
0.0
0
LINE
5
40f
100
AcDbEntity
8
1-0
6
CONTINUOUS
62
4
100
AcDbLine
10
48060.629999999997
20
41942.690000000002
30
0.0
11
47919.629999999997
21
40873.440000000002
31
0.0
0
LINE
5
410
100
AcDbEntity
8
1-0
6
CONTINUOUS
62
4
100
AcDbLine
10
74778.729999999996
20
6417.330000000000
30
0.0
11
74778.729999999996
21
3052.750000000000
31
0.0
0
LINE
5
411
100
AcDbEntity
8
1-0
6
CONTINUOUS
62
4
100
AcDbLine
10
73226.660000000003
20
4740.250000000000
30
0.0
11
80507.899999999994
21
4740.250000000000
31
0.0
0
LINE
5
412
100
AcDbEntity
8
1-0
6
CONTINUOUS
62
4
100
AcDbLine
10
8956.879999999999
20
44603.660000000003
30
0.0
11
8956.879999999999
21
44661.769999999997
31
0.0
0
LINE
5
413
100
AcDbEntity
8
1-0
6
CONTINUOUS
62
4
100
AcDbLine
10
73226.660000000003
20
4177.750000000000
30
0.0
11
80507.899999999994
21
4177.750000000000
31
0.0
0
LINE
5
414
100
AcDbEntity
8
1-0
6
CONTINUOUS
62
4
100
AcDbLine
10
73226.660000000003
20
5292.330000000000
30
0.0
11
80507.899999999994
21
5292.330000000000
31
0.0
0
LINE
5
415
100
AcDbEntity
8
1-0
6
CONTINUOUS
62
4
100
AcDbLine
10
9156.879999999999
20
44603.660000000003
30
0.0
11
9156.879999999999
21
44661.769999999997
31
0.0
0
LINE
5
416
100
AcDbEntity
8
1-0
6
CONTINUOUS
62
4
100
AcDbLine
10
69000.619999999995
20
52423.330000000002
30
0.0
11
68700.699999999997
21
52430.650000000001
31
0.0
0
LINE
5
417
100
AcDbEntity
8
1-0
6
CONTINUOUS
62
4
100
AcDbLine
10
69015.240000000005
20
44484.379999999997
30
0.0
11
68656.369999999995
21
44474.440000000002
31
0.0
0
LINE
5
418
100
AcDbEntity
8
1-0
6
CONTINUOUS
62
4
100
AcDbLine
10
69065.880000000005
20
45365.500000000000
30
0.0
11
69045.110000000001
21
46115.190000000002
31
0.0
0
LINE
5
419
100
AcDbEntity
8
1-0
6
CONTINUOUS
62
4
100
AcDbLine
10
69030.190000000002
20
50559.459999999999
30
0.0
11
69048.460000000006
21
51309.220000000001
31
0.0
0
LINE
5
41a
100
AcDbEntity
8
1-0
6
CONTINUOUS
62
4
100
AcDbLine
10
66508.869999999995
20
9681.180000000000
30
0.0
11
66159.850000000006
21
9737.670000000000
31
0.0
0
LINE
5
41b
100
AcDbEntity
8
1-0
6
CONTINUOUS
62
4
100
AcDbLine
10
62896.400000000001
20
1730.990000000000
30
0.0
11
62773.760000000002
21
2062.590000000000
31
0.0
0
LINE
5
41c
100
AcDbEntity
8
1-0
6
CONTINUOUS
62
4
100
AcDbLine
10
63000.879999999997
20
1958.100000000000
30
0.0
11
62669.279999999999
21
1835.450000000000
31
0.0
0
LINE
5
41d
100
AcDbEntity
8
1-0
6
CONTINUOUS
62
4
100
AcDbLine
10
60251.910000000003
20
10480.650000000000
30
0.0
11
58092.980000000003
21
10461.790000000001
31
0.0
0
LINE
5
41e
100
AcDbEntity
8
1-0
6
CONTINUOUS
62
4
100
AcDbLine
10
13256.879999999999
20
44603.660000000003
30
0.0
11
13256.879999999999
21
44684.370000000003
31
0.0
0
LINE
5
41f
100
AcDbEntity
8
1-0
6
CONTINUOUS
62
4
100
AcDbLine
10
8756.879999999999
20
44603.660000000003
30
0.0
11
13756.879999999999
21
44603.660000000003
31
0.0
0
LINE
5
420
100
AcDbEntity
8
1-0
6
CONTINUOUS
62
4
100
AcDbLine
10
8856.879999999999
20
44603.660000000003
30
0.0
11
8856.879999999999
21
44661.769999999997
31
0.0
0
LINE
5
421
100
AcDbEntity
8
1-0
6
CONTINUOUS
62
4
100
AcDbLine
10
9056.879999999999
20
44603.660000000003
30
0.0
11
9056.879999999999
21
44663.389999999999
31
0.0
0
LINE
5
422
100
AcDbEntity
8
1-0
6
CONTINUOUS
62
4
100
AcDbLine
10
68980.509999999995
20
45738.269999999997
30
0.0
11
68655.869999999995
21
45729.309999999998
31
0.0
0
LINE
5
423
100
AcDbEntity
8
1-0
6
CONTINUOUS
62
4
100
AcDbLine
10
68983.979999999996
20
45613.300000000003
30
0.0
11
68977.070000000007
21
45863.209999999999
31
0.0
0
LINE
5
424
100
AcDbEntity
8
1-0
6
CONTINUOUS
62
4
100
AcDbLine
10
11756.879999999999
20
44603.660000000003
30
0.0
11
11756.879999999999
21
44703.660000000003
31
0.0
0
LINE
5
425
100
AcDbEntity
8
1-0
6
CONTINUOUS
62
4
100
AcDbLine
10
59600.739999999998
20
6574.220000000000
30
0.0
11
59459.980000000003
21
6249.910000000000
31
0.0
0
LINE
5
426
100
AcDbEntity
8
1-0
6
CONTINUOUS
62
4
100
AcDbLine
10
7318.830000000000
20
53924.900000000001
30
0.0
11
8984.129999999999
21
53798.199999999997
31
0.0
0
LINE
5
427
100
AcDbEntity
8
1-0
6
CONTINUOUS
62
4
100
AcDbLine
10
58259.599999999999
20
5200.040000000000
30
0.0
11
58256.510000000002
21
5553.560000000000
31
0.0
0
LINE
5
428
100
AcDbEntity
8
1-0
6
CONTINUOUS
62
4
100
AcDbLine
10
58782.190000000002
20
6088.500000000000
30
0.0
11
59135.739999999998
21
6091.590000000000
31
0.0
0
LINE
5
429
100
AcDbEntity
8
1-0
6
CONTINUOUS
62
4
100
AcDbLine
10
9744.480000000000
20
53291.239999999998
30
0.0
11
8477.180000000000
21
54558.550000000003
31
0.0
0
LINE
5
42a
100
AcDbEntity
8
1-0
6
CONTINUOUS
62
4
100
AcDbLine
10
60277.019999999997
20
3221.190000000000
30
0.0
11
60253.190000000002
21
3573.920000000000
31
0.0
0
LINE
5
42b
100
AcDbEntity
8
1-0
6
CONTINUOUS
62
4
100
AcDbLine
10
58960.510000000002
20
5913.270000000000
30
0.0
11
58957.430000000000
21
6266.810000000000
31
0.0
0
LINE
5
42c
100
AcDbEntity
8
1-0
6
CONTINUOUS
62
4
100
AcDbLine
10
58081.279999999999
20
5375.240000000000
30
0.0
11
58434.830000000002
21
5378.360000000000
31
0.0
0
LINE
5
42d
100
AcDbEntity
8
1-0
6
CONTINUOUS
62
4
100
AcDbLine
10
9556.879999999999
20
44603.660000000003
30
0.0
11
9556.879999999999
21
44663.389999999999
31
0.0
0
LINE
5
42e
100
AcDbEntity
8
1-0
6
CONTINUOUS
62
4
100
AcDbLine
10
9656.879999999999
20
44603.660000000003
30
0.0
11
9656.879999999999
21
44665.000000000000
31
0.0
0
LINE
5
42f
100
AcDbEntity
8
1-0
6
CONTINUOUS
62
4
100
AcDbLine
10
9456.879999999999
20
44603.660000000003
30
0.0
11
9456.879999999999
21
44661.769999999997
31
0.0
0
LINE
5
430
100
AcDbEntity
8
1-0
6
CONTINUOUS
62
4
100
AcDbLine
10
9617.610000000001
20
53418.110000000001
30
0.0
11
9386.250000000000
21
53803.570000000000
31
0.0
0
LINE
5
431
100
AcDbEntity
8
1-0
6
CONTINUOUS
62
4
100
AcDbLine
10
9110.830000000000
20
52580.910000000003
30
0.0
11
9237.530000000001
21
53798.199999999997
31
0.0
0
LINE
5
432
100
AcDbEntity
8
1-0
6
CONTINUOUS
62
4
100
AcDbLine
10
9744.480000000000
20
54558.550000000003
30
0.0
11
8477.180000000000
21
53291.239999999998
31
0.0
0
LINE
5
433
100
AcDbEntity
8
1-0
6
CONTINUOUS
62
4
100
AcDbLine
10
9110.830000000000
20
55268.889999999999
30
0.0
11
8984.129999999999
21
54051.599999999999
31
0.0
0
LINE
5
434
100
AcDbEntity
8
1-0
6
CONTINUOUS
62
4
100
AcDbLine
10
10256.879999999999
20
44603.660000000003
30
0.0
11
10256.879999999999
21
44684.370000000003
31
0.0
0
LINE
5
435
100
AcDbEntity
8
1-0
6
CONTINUOUS
62
4
100
AcDbLine
10
12256.879999999999
20
44603.660000000003
30
0.0
11
12256.879999999999
21
44684.370000000003
31
0.0
0
LINE
5
436
100
AcDbEntity
8
1-0
6
CONTINUOUS
62
4
100
AcDbLine
10
73226.660000000003
20
6417.330000000000
30
0.0
11
73226.660000000003
21
3052.750000000000
31
0.0
0
LINE
5
437
100
AcDbEntity
8
1-0
6
CONTINUOUS
62
4
100
AcDbLine
10
76737.059999999998
20
5292.330000000000
30
0.0
11
76737.059999999998
21
4740.250000000000
31
0.0
0
LINE
5
438
100
AcDbEntity
8
1-0
6
CONTINUOUS
62
4
100
AcDbLine
10
11256.879999999999
20
44603.660000000003
30
0.0
11
11256.879999999999
21
44684.370000000003
31
0.0
0
LINE
5
439
100
AcDbEntity
8
1-0
6
CONTINUOUS
62
4
100
AcDbLine
10
73226.660000000003
20
3615.250000000000
30
0.0
11
80507.899999999994
21
3615.250000000000
31
0.0
0
LINE
5
43a
100
AcDbEntity
8
1-0
6
CONTINUOUS
62
4
100
AcDbLine
10
78622.490000000005
20
5292.330000000000
30
0.0
11
78622.490000000005
21
4740.250000000000
31
0.0
0
LINE
5
43b
100
AcDbEntity
8
1-0
6
CONTINUOUS
62
4
100
AcDbLine
10
73226.660000000003
20
6417.330000000000
30
0.0
11
80507.899999999994
21
6417.330000000000
31
0.0
0
LINE
5
43c
100
AcDbEntity
8
1-0
6
CONTINUOUS
62
4
100
AcDbLine
10
73226.660000000003
20
5854.830000000000
30
0.0
11
80507.899999999994
21
5854.830000000000
31
0.0
0
LINE
5
43d
100
AcDbEntity
8
1-0
6
CONTINUOUS
62
4
100
AcDbLine
10
9256.879999999999
20
44603.660000000003
30
0.0
11
9256.879999999999
21
44684.370000000003
31
0.0
0
LINE
5
43e
100
AcDbEntity
8
1-0
6
CONTINUOUS
62
4
100
AcDbLine
10
11256.879999999999
20
44603.660000000003
30
0.0
11
11256.879999999999
21
44684.370000000003
31
0.0
0
LINE
5
43f
100
AcDbEntity
8
1-0
6
CONTINUOUS
62
4
100
AcDbLine
10
14486.830000000000
20
54014.510000000002
30
0.0
11
14128.430000000000
21
53835.300000000003
31
0.0
0
LINE
5
440
100
AcDbEntity
8
1-0
6
CONTINUOUS
62
4
100
AcDbLine
10
73226.660000000003
20
3052.750000000000
30
0.0
11
80507.899999999994
21
3052.750000000000
31
0.0
0
LINE
5
441
100
AcDbEntity
8
1-0
6
CONTINUOUS
62
4
100
AcDbLine
10
15382.830000000000
20
53924.900000000001
30
0.0
11
6422.830000000000
21
53924.900000000001
31
0.0
0
LINE
5
442
100
AcDbEntity
8
1-0
6
CONTINUOUS
62
4
100
AcDbLine
10
9110.830000000000
20
55716.889999999999
30
0.0
11
9110.830000000000
21
52132.900000000001
31
0.0
0
LINE
5
443
100
AcDbEntity
8
1-0
6
CONTINUOUS
62
4
100
AcDbLine
10
67173.580000000002
20
10468.990000000000
30
0.0
11
67117.089999999997
21
10119.990000000000
31
0.0
0
LINE
5
444
100
AcDbEntity
8
1-0
6
CONTINUOUS
62
4
100
AcDbLine
10
67319.839999999997
20
10266.270000000000
30
0.0
11
66970.839999999997
21
10322.719999999999
31
0.0
0
LINE
5
445
100
AcDbEntity
8
1-0
6
CONTINUOUS
62
4
100
AcDbLine
10
65697.880000000005
20
9096.129999999999
30
0.0
11
65348.860000000001
21
9152.590000000000
31
0.0
0
LINE
5
446
100
AcDbEntity
8
1-0
6
CONTINUOUS
62
4
100
AcDbLine
10
64886.879999999997
20
8511.049999999999
30
0.0
11
64537.870000000003
21
8567.540000000001
31
0.0
0
LINE
5
447
100
AcDbEntity
8
1-0
6
CONTINUOUS
62
4
100
AcDbLine
10
59523.849999999999
20
3878.990000000000
30
0.0
11
59500.000000000000
21
4231.750000000000
31
0.0
0
LINE
5
448
100
AcDbEntity
8
1-0
6
CONTINUOUS
62
4
100
AcDbLine
10
60441.480000000003
20
3409.480000000000
30
0.0
11
60088.720000000001
21
3385.620000000000
31
0.0
0
LINE
5
449
100
AcDbEntity
8
1-0
6
CONTINUOUS
62
4
100
AcDbLine
10
62451.339999999997
20
1916.170000000000
30
0.0
11
62362.589999999997
21
2258.400000000000
31
0.0
0
LINE
5
44a
100
AcDbEntity
8
1-0
6
CONTINUOUS
62
4
100
AcDbLine
10
65551.600000000006
20
9298.860000000001
30
0.0
11
65495.139999999999
21
8949.860000000001
31
0.0
0
LINE
5
44b
100
AcDbEntity
8
1-0
6
CONTINUOUS
62
4
100
AcDbLine
10
60622.680000000000
20
6708.800000000000
30
0.0
11
60298.370000000003
21
6849.580000000000
31
0.0
0
LINE
5
44c
100
AcDbEntity
8
1-0
6
CONTINUOUS
62
4
100
AcDbLine
10
61461.080000000002
20
7308.470000000000
30
0.0
11
61320.309999999998
21
6984.130000000000
31
0.0
0
LINE
5
44d
100
AcDbEntity
8
1-0
6
CONTINUOUS
62
4
100
AcDbLine
10
62483.029999999999
20
7443.060000000000
30
0.0
11
62158.709999999999
21
7583.800000000000
31
0.0
0
LINE
5
44e
100
AcDbEntity
8
1-0
6
CONTINUOUS
62
4
100
AcDbLine
10
60530.900000000001
20
6941.340000000000
30
0.0
11
60390.150000000001
21
6617.040000000000
31
0.0
0
LINE
5
44f
100
AcDbEntity
8
1-0
6
CONTINUOUS
62
4
100
AcDbLine
10
63321.430000000000
20
8042.720000000000
30
0.0
11
63180.660000000003
21
7718.380000000000
31
0.0
0
LINE
5
450
100
AcDbEntity
8
1-0
6
CONTINUOUS
62
4
100
AcDbLine
10
63413.209999999999
20
7810.180000000000
30
0.0
11
63088.879999999997
21
7950.930000000000
31
0.0
0
LINE
5
451
100
AcDbEntity
8
1-0
6
CONTINUOUS
62
4
100
AcDbLine
10
64251.580000000002
20
8409.850000000000
30
0.0
11
64110.839999999997
21
8085.510000000000
31
0.0
0
LINE
5
452
100
AcDbEntity
8
1-0
6
CONTINUOUS
62
4
100
AcDbLine
10
58935.120000000003
20
4725.100000000000
30
0.0
11
58582.370000000003
21
4701.270000000000
31
0.0
0
LINE
5
453
100
AcDbEntity
8
1-0
6
CONTINUOUS
62
3
100
AcDbLine
10
72594.720000000001
20
47145.879999999997
30
0.0
11
73165.250000000000
21
58855.209999999999
31
0.0
0
LINE
5
454
100
AcDbEntity
8
1-0
6
DASHED2
62
3
100
AcDbLine
10
69056.380000000005
20
48556.040000000001
30
0.0
11
72623.720000000001
21
47740.650000000001
31
0.0
0
LINE
5
455
100
AcDbEntity
8
1-0
6
CONTINUOUS
62
3
100
AcDbLine
10
69056.380000000005
20
48556.040000000001
30
0.0
11
69069.250000000000
21
47951.690000000002
31
0.0
0
LINE
5
456
100
AcDbEntity
8
1-0
6
CONTINUOUS
62
3
100
AcDbLine
10
67381.649999999994
20
10464.969999999999
30
0.0
11
71734.210000000006
21
19090.150000000001
31
0.0
0
LINE
5
457
100
AcDbEntity
8
1-0
6
CONTINUOUS
62
3
100
AcDbLine
10
68719.160000000003
20
58365.800000000003
30
0.0
11
68552.880000000005
21
48908.559999999998
31
0.0
0
LINE
5
458
100
AcDbEntity
8
1-0
6
CONTINUOUS
62
3
100
AcDbLine
10
72594.720000000001
20
47145.879999999997
30
0.0
11
79375.080000000002
21
45596.089999999997
31
0.0
0
LINE
5
459
100
AcDbEntity
8
1-0
6
DASHED2
62
3
100
AcDbLine
10
69069.250000000000
20
47951.690000000002
30
0.0
11
72594.720000000001
21
47145.879999999997
31
0.0
0
LINE
5
45a
100
AcDbEntity
8
1-0
6
CONTINUOUS
62
3
100
AcDbLine
10
68627.119999999995
20
40399.900000000001
30
0.0
11
68680.320000000007
21
34304.129999999997
31
0.0
0
LINE
5
45b
100
AcDbEntity
8
1-0
6
CONTINUOUS
62
4
100
AcDbLine
10
58770.660000000003
20
4536.810000000000
30
0.0
11
58746.830000000002
21
4889.560000000000
31
0.0
0
LINE
5
45c
100
AcDbEntity
8
1-0
6
CONTINUOUS
62
4
100
AcDbLine
10
64343.360000000001
20
8177.310000000000
30
0.0
11
64019.059999999998
21
8318.049999999999
31
0.0
0
LINE
5
45d
100
AcDbEntity
8
1-0
6
CONTINUOUS
62
4
100
AcDbLine
10
64740.620000000003
20
8713.810000000000
30
0.0
11
64684.139999999999
21
8364.780000000001
31
0.0
0
LINE
5
45e
100
AcDbEntity
8
1-0
6
CONTINUOUS
62
3
100
AcDbLine
10
69440.080000000002
20
34564.769999999997
30
0.0
11
69221.960000000006
21
32936.610000000001
31
0.0
0
LINE
5
45f
100
AcDbEntity
8
1-0
6
CONTINUOUS
62
3
100
AcDbLine
10
68563.949999999997
20
47638.599999999999
30
0.0
11
68627.119999999995
21
40399.900000000001
31
0.0
0
LINE
5
460
100
AcDbEntity
8
1-0
6
CONTINUOUS
62
3
100
AcDbLine
10
69069.250000000000
20
47951.690000000002
30
0.0
11
68563.949999999997
21
47638.599999999999
31
0.0
0
LINE
5
461
100
AcDbEntity
8
1-0
6
CONTINUOUS
62
3
100
AcDbLine
10
68525.130000000005
20
32787.000000000000
30
0.0
11
68680.320000000007
21
34304.129999999997
31
0.0
0
LINE
5
462
100
AcDbEntity
8
1-0
6
CONTINUOUS
62
4
100
AcDbLine
10
68949.009999999995
20
46875.629999999997
30
0.0
11
68942.089999999997
21
47125.559999999998
31
0.0
0
LINE
5
463
100
AcDbEntity
8
1-0
6
CONTINUOUS
62
4
100
AcDbLine
10
69100.600000000006
20
44111.620000000003
30
0.0
11
69079.830000000002
21
44861.290000000001
31
0.0
0
LINE
5
464
100
AcDbEntity
8
1-0
6
CONTINUOUS
62
4
100
AcDbLine
10
69035.169999999998
20
53841.269999999997
30
0.0
11
68735.259999999995
21
53848.559999999998
31
0.0
0
LINE
5
465
100
AcDbEntity
8
1-0
6
CONTINUOUS
62
4
100
AcDbLine
10
68945.539999999994
20
47000.610000000001
30
0.0
11
68645.660000000003
21
46992.320000000000
31
0.0
0
LINE
5
466
100
AcDbEntity
8
1-0
6
CONTINUOUS
62
4
100
AcDbLine
10
68924.600000000006
20
49305.389999999999
30
0.0
11
68624.699999999997
21
49312.680000000000
31
0.0
0
LINE
5
467
100
AcDbEntity
8
1-0
6
CONTINUOUS
62
4
100
AcDbLine
10
69050.029999999999
20
43228.489999999998
30
0.0
11
68664.210000000006
21
43217.809999999998
31
0.0
0
LINE
5
468
100
AcDbEntity
8
1-0
6
CONTINUOUS
62
4
100
AcDbLine
10
69066.460000000006
20
52046.620000000003
30
0.0
11
69084.720000000001
21
52796.379999999997
31
0.0
0
LINE
5
469
100
AcDbEntity
8
1-0
6
CONTINUOUS
62
4
100
AcDbLine
10
69129.190000000002
20
57698.750000000000
30
0.0
11
69135.289999999994
21
57948.690000000002
31
0.0
0
LINE
5
46a
100
AcDbEntity
8
1-0
6
CONTINUOUS
62
4
100
AcDbLine
10
65537.699999999997
20
590.450000000000
30
0.0
11
65395.610000000001
21
914.180000000000
31
0.0
0
LINE
5
46b
100
AcDbEntity
8
1-0
6
CONTINUOUS
62
4
100
AcDbLine
10
63909.379999999997
20
1540.230000000000
30
0.0
11
63577.790000000001
21
1417.570000000000
31
0.0
0
LINE
5
46c
100
AcDbEntity
8
1-0
6
CONTINUOUS
62
4
100
AcDbLine
10
66362.589999999997
20
9883.940000000001
30
0.0
11
66306.119999999995
21
9534.910000000000
31
0.0
0
LINE
5
46d
100
AcDbEntity
8
1-0
6
CONTINUOUS
62
4
100
AcDbLine
10
65628.520000000004
20
823.360000000000
30
0.0
11
65304.790000000001
21
681.280000000000
31
0.0
0
LINE
5
46e
100
AcDbEntity
8
1-0
6
CONTINUOUS
62
4
100
AcDbLine
10
69198.089999999997
20
57447.019999999997
30
0.0
11
69216.350000000006
21
58196.779999999999
31
0.0
0
LINE
5
46f
100
AcDbEntity
8
1-0
6
CONTINUOUS
62
4
100
AcDbLine
10
69082.389999999999
20
55778.559999999998
30
0.0
11
68782.490000000005
21
55785.849999999999
31
0.0
0
LINE
5
470
100
AcDbEntity
8
1-0
6
CONTINUOUS
62
4
100
AcDbLine
10
63804.910000000003
20
1313.110000000000
30
0.0
11
63682.269999999997
21
1644.680000000000
31
0.0
0
LINE
5
471
100
AcDbEntity
8
1-0
6
CONTINUOUS
62
4
100
AcDbLine
10
69018.710000000006
20
44359.400000000001
30
0.0
11
69011.800000000003
21
44609.300000000003
31
0.0
0
LINE
5
472
100
AcDbEntity
8
1-0
6
CONTINUOUS
62
4
100
AcDbLine
10
60854.180000000000
20
3145.630000000000
30
0.0
11
60511.940000000002
21
3056.880000000000
31
0.0
0
LINE
5
473
100
AcDbEntity
8
1-0
6
CONTINUOUS
62
4
100
AcDbLine
10
62578.080000000002
20
2131.660000000000
30
0.0
11
62235.860000000001
21
2042.910000000000
31
0.0
0
LINE
5
474
100
AcDbEntity
8
1-0
6
CONTINUOUS
62
4
100
AcDbLine
10
59688.290000000001
20
4067.290000000000
30
0.0
11
59335.550000000003
21
4043.460000000000
31
0.0
0
LINE
5
475
100
AcDbEntity
8
1-0
6
CONTINUOUS
62
4
100
AcDbLine
10
60727.430000000000
20
2930.150000000000
30
0.0
11
60638.699999999997
21
3272.400000000000
31
0.0
0
LINE
5
476
100
AcDbEntity
8
1-0
6
CONTINUOUS
62
4
100
AcDbLine
10
59692.519999999997
20
6341.670000000000
30
0.0
11
59368.190000000002
21
6482.450000000000
31
0.0
0
LINE
5
477
100
AcDbEntity
8
1-0
6
CONTINUOUS
62
4
100
AcDbLine
10
61552.849999999999
20
7075.930000000000
30
0.0
11
61228.529999999999
21
7216.680000000000
31
0.0
0
LINE
5
478
100
AcDbEntity
8
1-0
6
CONTINUOUS
62
4
100
AcDbLine
10
62391.250000000000
20
7675.600000000000
30
0.0
11
62250.489999999998
21
7351.260000000000
31
0.0
0
LINE
5
479
100
AcDbEntity
8
1-0
6
CONTINUOUS
62
4
100
AcDbLine
10
64713.410000000003
20
895.210000000000
30
0.0
11
64590.760000000002
21
1226.810000000000
31
0.0
0
LINE
5
47a
100
AcDbEntity
8
1-0
6
CONTINUOUS
62
4
100
AcDbLine
10
69101.020000000004
20
53464.559999999998
30
0.0
11
69119.289999999994
21
54214.309999999998
31
0.0
0
LINE
5
47b
100
AcDbEntity
8
1-0
6
CONTINUOUS
62
4
100
AcDbLine
10
68997.570000000007
20
52298.360000000001
30
0.0
11
69003.639999999999
21
52548.300000000003
31
0.0
0
LINE
5
47c
100
AcDbEntity
8
1-0
6
CONTINUOUS
62
4
100
AcDbLine
10
69053.490000000005
20
43103.510000000002
30
0.0
11
69046.589999999997
21
43353.419999999998
31
0.0
0
LINE
5
47d
100
AcDbEntity
8
1-0
6
CONTINUOUS
62
4
100
AcDbLine
10
69032.119999999995
20
53716.309999999998
30
0.0
11
69038.210000000006
21
53966.260000000002
31
0.0
0
LINE
5
47e
100
AcDbEntity
8
1-0
6
CONTINUOUS
62
4
100
AcDbLine
10
61716.139999999999
20
2638.640000000000
30
0.0
11
61373.900000000001
21
2549.900000000000
31
0.0
0
LINE
5
47f
100
AcDbEntity
8
1-0
6
CONTINUOUS
62
4
100
AcDbLine
10
61589.389999999999
20
2423.160000000000
30
0.0
11
61500.639999999999
21
2765.380000000000
31
0.0
0
LINE
5
480
100
AcDbEntity
8
1-0
6
CONTINUOUS
62
4
100
AcDbLine
10
64817.889999999999
20
1122.340000000000
30
0.0
11
64486.279999999999
21
999.700000000000
31
0.0
0
LINE
5
481
100
AcDbEntity
8
1-0
6
CONTINUOUS
62
4
100
AcDbLine
10
69030.899999999994
20
46627.839999999997
30
0.0
11
69010.130000000005
21
47377.540000000001
31
0.0
0
LINE
5
482
100
AcDbEntity
8
1-0
6
CONTINUOUS
62
4
100
AcDbLine
10
68990.449999999997
20
48928.680000000000
30
0.0
11
69008.710000000006
21
49678.440000000002
31
0.0
0
LINE
5
483
100
AcDbEntity
8
1-0
6
CONTINUOUS
62
4
100
AcDbLine
10
69135.389999999999
20
42855.709999999999
30
0.0
11
69114.630000000005
21
43605.389999999999
31
0.0
0
LINE
5
484
100
AcDbEntity
8
1-0
6
CONTINUOUS
62
4
100
AcDbLine
10
69148.229999999996
20
55401.870000000003
30
0.0
11
69166.500000000000
21
56151.620000000003
31
0.0
0
LINE
5
485
100
AcDbEntity
8
1-0
6
CONTINUOUS
62
4
100
AcDbLine
10
69194.369999999995
20
38017.629999999997
30
0.0
11
68791.550000000003
21
38006.480000000003
31
0.0
0
LINE
5
486
100
AcDbEntity
8
1-0
6
CONTINUOUS
62
4
100
AcDbLine
10
68961.300000000003
20
50811.199999999997
30
0.0
11
68967.399999999994
21
51061.110000000001
31
0.0
0
LINE
5
487
100
AcDbEntity
8
1-0
6
CONTINUOUS
62
4
100
AcDbLine
10
69079.350000000006
20
55653.589999999997
30
0.0
11
69085.429999999993
21
55903.540000000001
31
0.0
0
LINE
5
488
100
AcDbEntity
8
1-0
6
CONTINUOUS
62
4
100
AcDbLine
10
68964.360000000001
20
50936.150000000001
30
0.0
11
68664.449999999997
21
50943.459999999999
31
0.0
0
LINE
5
489
100
AcDbEntity
8
1-0
6
CONTINUOUS
62
4
100
AcDbLine
10
69226.720000000001
20
36849.660000000003
30
0.0
11
68766.600000000006
21
36836.959999999999
31
0.0
0
LINE
5
48a
100
AcDbEntity
8
1-0
6
CONTINUOUS
62
4
100
AcDbLine
10
69091.539999999994
20
41730.029999999999
30
0.0
11
69084.619999999995
21
41979.949999999997
31
0.0
0
LINE
5
48b
100
AcDbEntity
8
1-0
6
CONTINUOUS
62
4
100
AcDbLine
10
69262.389999999999
20
35561.900000000001
30
0.0
11
69255.470000000001
21
35811.790000000001
31
0.0
0
LINE
5
48c
100
AcDbEntity
8
1-0
6
CONTINUOUS
62
4
100
AcDbLine
10
69160.429999999993
20
39243.110000000001
30
0.0
11
68732.119999999995
21
39231.250000000000
31
0.0
0
LINE
5
48d
100
AcDbEntity
8
1-0
6
CONTINUOUS
62
4
100
AcDbLine
10
69132.240000000005
20
57823.739999999998
30
0.0
11
68832.339999999997
21
57831.019999999997
31
0.0
0
LINE
5
48e
100
AcDbEntity
8
1-0
6
CONTINUOUS
62
4
100
AcDbLine
10
69206.949999999997
20
40272.260000000002
30
0.0
11
69186.190000000002
21
41021.940000000002
31
0.0
0
LINE
5
48f
100
AcDbEntity
8
1-0
6
CONTINUOUS
62
4
100
AcDbLine
10
69088.070000000007
20
41855.000000000000
30
0.0
11
68697.660000000003
21
41844.209999999999
31
0.0
0
LINE
5
490
100
AcDbEntity
8
1-0
6
CONTINUOUS
62
4
100
AcDbLine
10
61340.839999999997
20
10615.180000000000
30
0.0
11
62090.800000000003
21
10621.730000000000
31
0.0
0
LINE
5
491
100
AcDbEntity
8
1-0
6
CONTINUOUS
62
4
100
AcDbLine
10
69312.089999999997
20
36476.889999999999
30
0.0
11
69291.320000000007
21
37226.589999999997
31
0.0
0
LINE
5
492
100
AcDbEntity
8
1-0
6
CONTINUOUS
62
4
100
AcDbLine
10
69121.610000000001
20
40645.010000000002
30
0.0
11
68732.210000000006
21
40634.250000000000
31
0.0
0
LINE
5
493
100
AcDbEntity
8
1-0
6
CONTINUOUS
62
4
100
AcDbLine
10
69142.910000000003
20
33476.230000000003
30
0.0
11
68705.360000000001
21
33534.809999999998
31
0.0
0
LINE
5
494
100
AcDbEntity
8
1-0
6
CONTINUOUS
62
4
100
AcDbLine
10
65098.769999999997
20
12675.020000000000
30
0.0
11
65188.349999999999
21
12908.389999999999
31
0.0
0
LINE
5
495
100
AcDbEntity
8
1-0
6
CONTINUOUS
62
4
100
AcDbLine
10
53387.330000000002
20
10794.250000000000
30
0.0
11
53391.470000000001
21
11394.230000000000
31
0.0
0
LINE
5
496
100
AcDbEntity
8
1-0
6
CONTINUOUS
62
4
100
AcDbLine
10
56460.010000000002
20
10773.070000000000
30
0.0
11
56809.980000000003
21
10770.660000000000
31
0.0
0
LINE
5
497
100
AcDbEntity
8
1-0
6
CONTINUOUS
62
4
100
AcDbLine
10
65143.570000000000
20
12791.680000000000
30
0.0
11
64956.849999999999
21
12863.370000000001
31
0.0
0
LINE
5
498
100
AcDbEntity
8
1-0
6
CONTINUOUS
62
4
100
AcDbLine
10
69230.190000000002
20
36724.690000000002
30
0.0
11
69223.289999999994
21
36974.599999999999
31
0.0
0
LINE
5
499
100
AcDbEntity
8
1-0
6
CONTINUOUS
62
4
100
AcDbLine
10
69197.830000000002
20
37892.669999999998
30
0.0
11
69190.919999999998
21
38142.589999999997
31
0.0
0
LINE
5
49a
100
AcDbEntity
8
1-0
6
CONTINUOUS
62
4
100
AcDbLine
10
69258.929999999993
20
35686.870000000003
30
0.0
11
68781.979999999996
21
35673.639999999999
31
0.0
0
LINE
5
49b
100
AcDbEntity
8
1-0
6
CONTINUOUS
62
4
100
AcDbLine
10
63832.370000000003
20
11326.110000000001
30
0.0
11
64059.180000000000
21
11431.209999999999
31
0.0
0
LINE
5
49c
100
AcDbEntity
8
1-0
6
CONTINUOUS
62
4
100
AcDbLine
10
69344.279999999999
20
35314.070000000000
30
0.0
11
69323.509999999995
21
36063.769999999997
31
0.0
0
LINE
5
49d
100
AcDbEntity
8
1-0
6
CONTINUOUS
62
4
100
AcDbLine
10
69245.789999999994
20
38870.339999999997
30
0.0
11
69225.020000000004
21
39620.010000000002
31
0.0
0
LINE
5
49e
100
AcDbEntity
8
1-0
6
CONTINUOUS
62
4
100
AcDbLine
10
63945.779999999999
20
11378.660000000000
30
0.0
11
63830.809999999998
21
11626.799999999999
31
0.0
0
LINE
5
49f
100
AcDbEntity
8
1-0
6
CONTINUOUS
62
4
100
AcDbLine
10
69163.899999999994
20
39118.150000000001
30
0.0
11
69156.979999999996
21
39368.050000000003
31
0.0
0
LINE
5
4a0
100
AcDbEntity
8
1-0
6
CONTINUOUS
62
4
100
AcDbLine
10
69324.369999999995
20
34265.970000000001
30
0.0
11
69423.970000000001
21
35009.330000000002
31
0.0
0
LINE
5
4a1
100
AcDbEntity
8
1-0
6
CONTINUOUS
62
4
100
AcDbLine
10
68373.089999999997
20
24284.520000000000
30
0.0
11
68435.339999999997
21
25031.950000000001
31
0.0
0
LINE
5
4a2
100
AcDbEntity
8
1-0
6
CONTINUOUS
62
4
100
AcDbLine
10
69167.449999999997
20
33094.580000000002
30
0.0
11
69267.050000000003
21
33837.959999999999
31
0.0
0
LINE
5
4a3
100
AcDbEntity
8
1-0
6
CONTINUOUS
62
4
100
AcDbLine
10
63626.550000000003
20
11175.660000000000
30
0.0
11
64307.050000000003
21
11490.959999999999
31
0.0
0
LINE
5
4a4
100
AcDbEntity
8
1-0
6
CONTINUOUS
62
4
100
AcDbLine
10
68319.110000000001
20
24539.880000000001
30
0.0
11
68339.860000000001
21
24789.029999999999
31
0.0
0
LINE
5
4a5
100
AcDbEntity
8
1-0
6
CONTINUOUS
62
4
100
AcDbLine
10
69126.309999999998
20
33352.309999999998
30
0.0
11
69159.509999999995
21
33600.089999999997
31
0.0
0
LINE
5
4a6
100
AcDbEntity
8
1-0
6
CONTINUOUS
62
4
100
AcDbLine
10
68212.110000000001
20
23255.680000000000
30
0.0
11
67809.649999999994
21
23289.220000000001
31
0.0
0
LINE
5
4a7
100
AcDbEntity
8
1-0
6
CONTINUOUS
62
4
100
AcDbLine
10
66018.210000000006
20
14930.510000000000
30
0.0
11
66287.000000000000
21
15630.680000000000
31
0.0
0
LINE
5
4a8
100
AcDbEntity
8
1-0
6
CONTINUOUS
62
4
100
AcDbLine
10
69125.059999999998
20
40520.050000000003
30
0.0
11
69118.139999999999
21
40769.959999999999
31
0.0
0
LINE
5
4a9
100
AcDbEntity
8
1-0
6
CONTINUOUS
62
4
100
AcDbLine
10
69173.429999999993
20
41482.239999999998
30
0.0
11
69152.669999999998
21
42231.949999999997
31
0.0
0
LINE
5
4aa
100
AcDbEntity
8
1-0
6
CONTINUOUS
62
3
100
AcDbLine
10
67759.660000000003
20
23373.660000000000
30
0.0
11
67485.169999999998
21
22233.549999999999
31
0.0
0
LINE
5
4ab
100
AcDbEntity
8
1-0
6
CONTINUOUS
62
4
100
AcDbLine
10
69299.839999999997
20
34647.599999999999
30
0.0
11
68775.029999999999
21
34717.879999999997
31
0.0
0
LINE
5
4ac
100
AcDbEntity
8
1-0
6
CONTINUOUS
62
4
100
AcDbLine
10
66990.809999999998
20
17867.919999999998
30
0.0
11
67072.839999999997
21
18104.090000000000
31
0.0
0
LINE
5
4ad
100
AcDbEntity
8
1-0
6
CONTINUOUS
62
4
100
AcDbLine
10
66979.639999999999
20
17607.150000000001
30
0.0
11
67213.679999999993
21
18281.029999999999
31
0.0
0
LINE
5
4ae
100
AcDbEntity
8
1-0
6
CONTINUOUS
62
4
100
AcDbLine
10
66061.119999999995
20
15181.820000000000
30
0.0
11
66150.710000000006
21
15415.190000000001
31
0.0
0
LINE
5
4af
100
AcDbEntity
8
1-0
6
CONTINUOUS
62
4
100
AcDbLine
10
69283.229999999996
20
34523.720000000001
30
0.0
11
69316.429999999993
21
34771.489999999998
31
0.0
0
LINE
5
4b0
100
AcDbEntity
8
1-0
6
CONTINUOUS
62
4
100
AcDbLine
10
60232.480000000003
20
10730.500000000000
30
0.0
11
60482.480000000003
21
10732.670000000000
31
0.0
0
LINE
5
4b1
100
AcDbEntity
8
1-0
6
CONTINUOUS
62
4
100
AcDbLine
10
66105.929999999993
20
15298.490000000000
30
0.0
11
65919.210000000006
21
15370.180000000000
31
0.0
0
LINE
5
4b2
100
AcDbEntity
8
1-0
6
CONTINUOUS
62
4
100
AcDbLine
10
60357.480000000003
20
10731.600000000000
30
0.0
11
60353.120000000003
21
11231.570000000000
31
0.0
0
LINE
5
4b3
100
AcDbEntity
8
1-0
6
CONTINUOUS
62
4
100
AcDbLine
10
62518.410000000003
20
10662.230000000000
30
0.0
11
63198.910000000003
21
10977.540000000001
31
0.0
0
LINE
5
4b4
100
AcDbEntity
8
1-0
6
CONTINUOUS
62
4
100
AcDbLine
10
69279.720000000001
20
37644.870000000003
30
0.0
11
69258.949999999997
21
38394.570000000000
31
0.0
0
LINE
5
4b5
100
AcDbEntity
8
1-0
6
CONTINUOUS
62
4
100
AcDbLine
10
62837.639999999999
20
10865.240000000000
30
0.0
11
62634.349999999999
21
11303.980000000000
31
0.0
0
LINE
5
4b6
100
AcDbEntity
8
1-0
6
CONTINUOUS
62
4
100
AcDbLine
10
62724.220000000001
20
10812.680000000000
30
0.0
11
62951.050000000003
21
10917.780000000001
31
0.0
0
LINE
5
4b7
100
AcDbEntity
8
1-0
6
CONTINUOUS
62
4
100
AcDbLine
10
65516.989999999998
20
13764.410000000000
30
0.0
11
65606.570000000007
21
13997.770000000000
31
0.0
0
LINE
5
4b8
100
AcDbEntity
8
1-0
6
CONTINUOUS
62
4
100
AcDbLine
10
65474.059999999998
20
13513.100000000000
30
0.0
11
65742.860000000001
21
14213.260000000000
31
0.0
0
LINE
5
4b9
100
AcDbEntity
8
1-0
6
CONTINUOUS
62
4
100
AcDbLine
10
59983.580000000002
20
10603.340000000000
30
0.0
11
60733.559999999998
21
10609.860000000001
31
0.0
0
LINE
5
4ba
100
AcDbEntity
8
1-0
6
CONTINUOUS
62
4
100
AcDbLine
10
61714.739999999998
20
10743.469999999999
30
0.0
11
61710.370000000003
21
11243.440000000001
31
0.0
0
LINE
5
4bb
100
AcDbEntity
8
1-0
6
CONTINUOUS
62
4
100
AcDbLine
10
61589.739999999998
20
10742.370000000001
30
0.0
11
61839.739999999998
21
10744.540000000001
31
0.0
0
LINE
5
4bc
100
AcDbEntity
8
1-0
6
CONTINUOUS
62
4
100
AcDbLine
10
65561.789999999994
20
13881.070000000000
30
0.0
11
65375.059999999998
21
13952.760000000000
31
0.0
0
LINE
5
4bd
100
AcDbEntity
8
1-0
6
CONTINUOUS
62
4
100
AcDbLine
10
68201.740000000005
20
23131.099999999999
30
0.0
11
68222.490000000005
21
23380.250000000000
31
0.0
0
LINE
5
4be
100
AcDbEntity
8
1-0
6
CONTINUOUS
62
4
100
AcDbLine
10
68255.720000000001
20
22875.730000000000
30
0.0
11
68317.979999999996
21
23623.169999999998
31
0.0
0
LINE
5
4bf
100
AcDbEntity
8
1-0
6
CONTINUOUS
62
4
100
AcDbLine
10
44776.860000000001
20
11106.930000000000
30
0.0
11
45823.120000000003
21
11018.469999999999
31
0.0
0
LINE
5
4c0
100
AcDbEntity
8
1-0
6
CONTINUOUS
62
4
100
AcDbLine
10
50383.489999999998
20
10665.010000000000
30
0.0
11
51433.459999999999
21
10657.750000000000
31
0.0
0
LINE
5
4c1
100
AcDbEntity
8
1-0
6
CONTINUOUS
62
4
100
AcDbLine
10
36280.400000000001
20
12355.650000000000
30
0.0
11
36625.120000000003
21
12295.260000000000
31
0.0
0
LINE
5
4c2
100
AcDbEntity
8
1-0
6
CONTINUOUS
62
4
100
AcDbLine
10
36452.760000000002
20
12325.440000000001
30
0.0
11
36594.129999999997
21
13132.330000000000
31
0.0
0
LINE
5
4c3
100
AcDbEntity
8
1-0
6
CONTINUOUS
62
4
100
AcDbLine
10
45138.260000000002
20
11226.930000000000
30
0.0
11
45487.000000000000
21
11197.450000000001
31
0.0
0
LINE
5
4c4
100
AcDbEntity
8
1-0
6
CONTINUOUS
62
4
100
AcDbLine
10
47995.459999999999
20
10985.379999999999
30
0.0
11
48046.010000000002
21
11583.250000000000
31
0.0
0
LINE
5
4c5
100
AcDbEntity
8
1-0
6
CONTINUOUS
62
4
100
AcDbLine
10
38592.269999999997
20
11798.280000000001
30
0.0
11
39626.529999999999
21
11617.070000000000
31
0.0
0
LINE
5
4c6
100
AcDbEntity
8
1-0
6
CONTINUOUS
62
4
100
AcDbLine
10
50734.529999999999
20
10812.590000000000
30
0.0
11
51084.510000000002
21
10810.180000000000
31
0.0
0
LINE
5
4c7
100
AcDbEntity
8
1-0
6
CONTINUOUS
62
4
100
AcDbLine
10
65055.849999999999
20
12423.709999999999
30
0.0
11
65324.650000000001
21
13123.870000000001
31
0.0
0
LINE
5
4c8
100
AcDbEntity
8
1-0
6
CONTINUOUS
62
4
100
AcDbLine
10
39135.290000000001
20
11855.440000000001
30
0.0
11
39265.699999999997
21
12599.790000000001
31
0.0
0
LINE
5
4c9
100
AcDbEntity
8
1-0
6
CONTINUOUS
62
4
100
AcDbLine
10
56634.989999999998
20
10771.860000000001
30
0.0
11
56639.129999999997
21
11371.830000000000
31
0.0
0
LINE
5
4ca
100
AcDbEntity
8
1-0
6
CONTINUOUS
62
4
100
AcDbLine
10
66445.190000000002
20
16321.780000000001
30
0.0
11
66534.789999999994
21
16555.180000000000
31
0.0
0
LINE
5
4cb
100
AcDbEntity
8
1-0
6
CONTINUOUS
62
4
100
AcDbLine
10
66489.990000000005
20
16438.480000000000
30
0.0
11
66319.789999999994
21
16503.810000000001
31
0.0
0
LINE
5
4cc
100
AcDbEntity
8
1-0
6
CONTINUOUS
62
4
100
AcDbLine
10
66425.619999999995
20
16061.490000000000
30
0.0
11
66694.389999999999
21
16761.660000000000
31
0.0
0
LINE
5
4cd
100
AcDbEntity
8
1-0
6
CONTINUOUS
62
4
100
AcDbLine
10
68329.479999999996
20
24664.459999999999
30
0.0
11
67891.970000000001
21
24700.900000000001
31
0.0
0
LINE
5
4ce
100
AcDbEntity
8
1-0
6
CONTINUOUS
62
4
100
AcDbLine
10
53212.339999999997
20
10795.469999999999
30
0.0
11
53562.320000000000
21
10793.059999999999
31
0.0
0
LINE
5
4cf
100
AcDbEntity
8
1-0
6
CONTINUOUS
62
4
100
AcDbLine
10
8604.049999999999
20
53418.120000000003
30
0.0
11
8999.010000000000
21
53655.029999999999
31
0.0
0
LINE
5
4d0
100
AcDbEntity
8
1-0
6
CONTINUOUS
62
4
100
AcDbLine
10
14128.430000000000
20
53835.300000000003
30
0.0
11
13770.030000000001
21
53924.900000000001
31
0.0
0
LINE
5
4d1
100
AcDbEntity
8
1-0
6
CONTINUOUS
62
4
100
AcDbLine
10
12694.820000000000
20
53924.900000000001
30
0.0
11
9237.530000000001
21
54051.599999999999
31
0.0
0
LINE
5
4d2
100
AcDbEntity
8
1-0
6
CONTINUOUS
62
4
100
AcDbLine
10
11256.879999999999
20
44603.660000000003
30
0.0
11
11256.879999999999
21
44684.370000000003
31
0.0
0
LINE
5
4d3
100
AcDbEntity
8
1-0
6
CONTINUOUS
62
4
100
AcDbLine
10
9617.600000000000
20
54431.669999999998
30
0.0
11
9222.650000000000
21
54194.790000000001
31
0.0
0
LINE
5
4d4
100
AcDbEntity
8
1-0
6
CONTINUOUS
62
4
100
AcDbLine
10
15382.830000000000
20
53924.900000000001
30
0.0
11
14486.830000000000
21
54014.510000000002
31
0.0
0
LINE
5
4d5
100
AcDbEntity
8
1-0
6
CONTINUOUS
62
4
100
AcDbLine
10
10756.879999999999
20
44603.660000000003
30
0.0
11
10756.879999999999
21
44703.660000000003
31
0.0
0
LINE
5
4d6
100
AcDbEntity
8
1-0
6
CONTINUOUS
62
4
100
AcDbLine
10
8604.049999999999
20
54431.669999999998
30
0.0
11
8838.620000000001
21
54040.489999999998
31
0.0
0
LINE
5
4d7
100
AcDbEntity
8
1-0
6
CONTINUOUS
62
4
100
AcDbLine
10
52861.300000000003
20
10647.889999999999
30
0.0
11
53911.260000000002
21
10640.620000000001
31
0.0
0
LINE
5
4d8
100
AcDbEntity
8
1-0
6
CONTINUOUS
62
4
100
AcDbLine
10
47821.089999999997
20
11000.150000000000
30
0.0
11
48169.830000000002
21
10970.670000000000
31
0.0
0
LINE
5
4d9
100
AcDbEntity
8
1-0
6
CONTINUOUS
62
4
100
AcDbLine
10
41633.639999999999
20
11372.650000000000
30
0.0
11
42679.900000000001
21
11284.180000000000
31
0.0
0
LINE
5
4da
100
AcDbEntity
8
1-0
6
CONTINUOUS
62
4
100
AcDbLine
10
45312.629999999997
20
11212.160000000000
30
0.0
11
45363.180000000000
21
11810.030000000001
31
0.0
0
LINE
5
4db
100
AcDbEntity
8
1-0
6
CONTINUOUS
62
4
100
AcDbLine
10
68921.550000000003
20
49180.419999999998
30
0.0
11
68927.649999999994
21
49430.339999999997
31
0.0
0
LINE
5
4dc
100
AcDbEntity
8
1-0
6
CONTINUOUS
62
4
100
AcDbLine
10
50909.519999999997
20
10811.370000000001
30
0.0
11
50913.650000000001
21
11411.379999999999
31
0.0
0
LINE
5
4dd
100
AcDbEntity
8
1-0
6
CONTINUOUS
62
4
100
AcDbLine
10
41995.040000000001
20
11492.650000000000
30
0.0
11
42343.779999999999
21
11463.170000000000
31
0.0
0
LINE
5
4de
100
AcDbEntity
8
1-0
6
CONTINUOUS
62
4
100
AcDbLine
10
3933.020000000000
20
27632.599999999999
30
0.0
11
6385.300000000000
21
26281.189999999999
31
0.0
0
LINE
5
4df
100
AcDbEntity
8
1-0
6
CONTINUOUS
62
4
100
AcDbLine
10
16162.580000000000
20
22375.000000000000
30
0.0
11
16470.919999999998
21
22209.410000000000
31
0.0
0
LINE
5
4e0
100
AcDbEntity
8
1-0
6
CONTINUOUS
62
4
100
AcDbLine
10
1359.930000000000
20
30196.200000000001
30
0.0
11
1979.830000000000
21
31135.230000000000
31
0.0
0
LINE
5
4e1
100
AcDbEntity
8
1-0
6
CONTINUOUS
62
4
100
AcDbLine
10
4844.150000000000
20
27473.029999999999
30
0.0
11
5763.750000000000
21
26966.279999999999
31
0.0
0
LINE
5
4e2
100
AcDbEntity
8
1-0
6
CONTINUOUS
62
4
100
AcDbLine
10
8140.840000000000
20
10867.459999999999
30
0.0
11
4443.450000000000
21
5846.840000000000
31
0.0
0
LINE
5
4e3
100
AcDbEntity
8
1-0
6
CONTINUOUS
62
4
100
AcDbLine
10
18272.220000000001
20
9668.740000000000
30
0.0
11
18016.310000000001
21
9430.020000000000
31
0.0
0
LINE
5
4e4
100
AcDbEntity
8
1-0
6
CONTINUOUS
62
4
100
AcDbLine
10
15712.299999999999
20
22276.340000000000
30
0.0
11
16637.320000000000
21
21779.509999999998
31
0.0
0
LINE
5
4e5
100
AcDbEntity
8
1-0
6
CONTINUOUS
62
4
100
AcDbLine
10
9102.459999999999
20
25418.639999999999
30
0.0
11
9472.459999999999
21
26239.080000000002
31
0.0
0
LINE
5
4e6
100
AcDbEntity
8
1-0
6
CONTINUOUS
62
4
100
AcDbLine
10
5295.490000000000
20
27566.830000000002
30
0.0
11
5601.990000000000
21
27397.919999999998
31
0.0
0
LINE
5
4e7
100
AcDbEntity
8
1-0
6
CONTINUOUS
62
4
100
AcDbLine
10
56108.970000000001
20
10625.490000000000
30
0.0
11
57158.930000000000
21
10618.230000000000
31
0.0
0
LINE
5
4e8
100
AcDbEntity
8
1-0
6
CONTINUOUS
62
4
100
AcDbLine
10
14799.490000000000
20
22426.060000000001
30
0.0
11
17266.220000000001
21
21101.200000000001
31
0.0
0
LINE
5
4e9
100
AcDbEntity
8
1-0
6
CONTINUOUS
62
4
100
AcDbLine
10
5448.730000000000
20
27482.389999999999
30
0.0
11
6053.480000000000
21
28579.779999999999
31
0.0
0
LINE
5
4ea
100
AcDbEntity
8
1-0
6
CONTINUOUS
62
4
100
AcDbLine
10
8942.950000000001
20
25490.570000000000
30
0.0
11
9261.990000000000
21
25346.709999999999
31
0.0
0
LINE
5
4eb
100
AcDbEntity
8
1-0
6
CONTINUOUS
62
4
100
AcDbLine
10
8500.570000000000
20
25361.000000000000
30
0.0
11
9457.719999999999
21
24929.360000000001
31
0.0
0
LINE
5
4ec
100
AcDbEntity
8
1-0
6
CONTINUOUS
62
4
100
AcDbLine
10
7579.590000000000
20
25447.209999999999
30
0.0
11
10132.049999999999
21
24296.139999999999
31
0.0
0
LINE
5
4ed
100
AcDbEntity
8
1-0
6
CONTINUOUS
62
4
100
AcDbLine
10
18690.490000000002
20
11016.209999999999
30
0.0
11
16643.049999999999
21
9106.270000000000
31
0.0
0
LINE
5
4ee
100
AcDbEntity
8
1-0
6
CONTINUOUS
62
4
100
AcDbLine
10
10890.260000000000
20
8842.620000000001
30
0.0
11
10608.450000000001
21
9050.170000000000
31
0.0
0
LINE
5
4ef
100
AcDbEntity
8
1-0
6
CONTINUOUS
62
4
100
AcDbLine
10
11379.620000000001
20
8916.900000000000
30
0.0
11
10534.160000000000
21
9539.549999999999
31
0.0
0
LINE
5
4f0
100
AcDbEntity
8
1-0
6
CONTINUOUS
62
4
100
AcDbLine
10
12291.730000000000
20
8679.840000000000
30
0.0
11
10037.160000000000
21
10340.240000000000
31
0.0
0
LINE
5
4f1
100
AcDbEntity
8
1-0
6
CONTINUOUS
62
4
100
AcDbLine
10
14396.549999999999
20
7543.800000000000
30
0.0
11
14047.010000000000
21
7561.310000000000
31
0.0
0
LINE
5
4f2
100
AcDbEntity
8
1-0
6
CONTINUOUS
62
4
100
AcDbLine
10
42169.400000000001
20
11477.870000000001
30
0.0
11
42219.959999999999
21
12075.750000000000
31
0.0
0
LINE
5
4f3
100
AcDbEntity
8
1-0
6
CONTINUOUS
62
4
100
AcDbLine
10
34415.209999999999
20
9176.549999999999
30
0.0
11
31672.360000000001
21
9739.350000000000
31
0.0
0
LINE
5
4f4
100
AcDbEntity
8
1-0
6
CONTINUOUS
62
4
100
AcDbLine
10
67031.830000000002
20
17986.020000000000
30
0.0
11
66676.720000000001
21
18109.340000000000
31
0.0
0
LINE
5
4f5
100
AcDbEntity
8
1-0
6
CONTINUOUS
62
4
100
AcDbLine
10
557.910000000000
20
30006.720000000001
30
0.0
11
2197.770000000000
21
28924.200000000001
31
0.0
0
LINE
5
4f6
100
AcDbEntity
8
1-0
6
CONTINUOUS
62
4
100
AcDbLine
10
18289.410000000000
20
10163.420000000000
30
0.0
11
17521.619999999999
21
9447.209999999999
31
0.0
0
LINE
5
4f7
100
AcDbEntity
8
1-0
6
CONTINUOUS
62
4
100
AcDbLine
10
50689.269999999997
20
5766.840000000000
30
0.0
11
47891.160000000003
21
5869.600000000000
31
0.0
0
LINE
5
4f8
100
AcDbEntity
8
1-0
6
CONTINUOUS
62
4
100
AcDbLine
10
14221.790000000001
20
7552.550000000000
30
0.0
11
13995.250000000000
21
3030.550000000000
31
0.0
0
LINE
5
4f9
100
AcDbEntity
8
1-0
6
CONTINUOUS
62
4
100
AcDbLine
10
9683.209999999999
20
10600.889999999999
30
0.0
11
7428.640000000000
21
12261.290000000001
31
0.0
0
LINE
5
4fa
100
AcDbEntity
8
1-0
6
CONTINUOUS
62
4
100
AcDbLine
10
47459.690000000002
20
10880.160000000000
30
0.0
11
48505.949999999997
21
10791.690000000001
31
0.0
0
LINE
5
4fb
100
AcDbEntity
8
1-0
6
CONTINUOUS
62
4
100
AcDbLine
10
10749.360000000001
20
8946.410000000000
30
0.0
11
7099.280000000000
21
3990.020000000000
31
0.0
0
LINE
5
4fc
100
AcDbEntity
8
1-0
6
CONTINUOUS
62
4
100
AcDbLine
10
8281.740000000000
20
10763.680000000000
30
0.0
11
7999.920000000000
21
10971.219999999999
31
0.0
0
LINE
5
4fd
100
AcDbEntity
8
1-0
6
CONTINUOUS
62
3
100
AcDbLine
10
72623.720000000001
20
47740.650000000001
30
0.0
11
79505.720000000001
21
46167.660000000003
31
0.0
0
LINE
5
4fe
100
AcDbEntity
8
1-0
6
CONTINUOUS
62
3
100
AcDbLine
10
16458.029999999999
20
54104.099999999999
30
0.0
11
15920.430000000000
21
53745.699999999997
31
0.0
0
LINE
5
4ff
100
AcDbEntity
8
1-0
6
CONTINUOUS
62
3
100
AcDbLine
10
15382.830000000000
20
53924.900000000001
30
0.0
11
14486.830000000000
21
53835.300000000003
31
0.0
0
LINE
5
500
100
AcDbEntity
8
1-0
6
CONTINUOUS
62
3
100
AcDbLine
10
7318.830000000000
20
53924.900000000001
30
0.0
11
8984.129999999999
21
54051.599999999999
31
0.0
0
LINE
5
501
100
AcDbEntity
8
1-0
6
CONTINUOUS
62
3
100
AcDbLine
10
8604.049999999999
20
53418.120000000003
30
0.0
11
8838.620000000001
21
53809.309999999998
31
0.0
0
LINE
5
502
100
AcDbEntity
8
1-0
6
CONTINUOUS
62
3
100
AcDbLine
10
64819.339999999997
20
11673.219999999999
30
0.0
11
64304.639999999999
21
11786.070000000000
31
0.0
0
LINE
5
503
100
AcDbEntity
8
1-0
6
CONTINUOUS
62
3
100
AcDbLine
10
67381.649999999994
20
10464.969999999999
30
0.0
11
64461.559999999998
21
8358.340000000000
31
0.0
0
LINE
5
504
100
AcDbEntity
8
1-0
6
CONTINUOUS
62
3
100
AcDbLine
10
12694.820000000000
20
53924.900000000001
30
0.0
11
9237.530000000001
21
53798.199999999997
31
0.0
0
LINE
5
505
100
AcDbEntity
8
1-0
6
CONTINUOUS
62
3
100
AcDbLine
10
14486.830000000000
20
53835.300000000003
30
0.0
11
14128.430000000000
21
54014.500000000000
31
0.0
0
LINE
5
506
100
AcDbEntity
8
1-0
6
CONTINUOUS
62
4
100
AcDbLine
10
14763.639999999999
20
7875.830000000000
30
0.0
11
13714.950000000001
21
7928.380000000000
31
0.0
0
LINE
5
507
100
AcDbEntity
8
1-0
6
CONTINUOUS
62
4
100
AcDbLine
10
4393.420000000000
20
19316.810000000001
30
0.0
11
3413.500000000000
21
18939.639999999999
31
0.0
0
LINE
5
508
100
AcDbEntity
8
1-0
6
CONTINUOUS
62
4
100
AcDbLine
10
9075.700000000001
20
18189.330000000002
30
0.0
11
7546.970000000000
21
17920.779999999999
31
0.0
0
LINE
5
509
100
AcDbEntity
8
1-0
6
CONTINUOUS
62
4
100
AcDbLine
10
5084.290000000000
20
19957.770000000000
30
0.0
11
2471.180000000000
21
18951.939999999999
31
0.0
0
LINE
5
50a
100
AcDbEntity
8
1-0
6
CONTINUOUS
62
4
100
AcDbLine
10
18144.259999999998
20
9549.379999999999
30
0.0
11
19841.389999999999
21
7730.110000000000
31
0.0
0
LINE
5
50b
100
AcDbEntity
8
1-0
6
CONTINUOUS
62
4
100
AcDbLine
10
4192.490000000000
20
18864.439999999999
30
0.0
11
3865.880000000000
21
18738.709999999999
31
0.0
0
LINE
5
50c
100
AcDbEntity
8
1-0
6
DOT
62
2
100
AcDbLine
10
7675.160000000000
20
21267.730000000000
30
0.0
11
2598.960000000000
21
24202.090000000000
31
0.0
0
LINE
5
50d
100
AcDbEntity
8
1-0
6
CONTINUOUS
62
3
100
AcDbLine
10
65062.209999999999
20
12300.719999999999
30
0.0
11
65037.019999999997
21
12134.730000000000
31
0.0
0
LINE
5
50e
100
AcDbEntity
8
1-0
6
CONTINUOUS
62
3
100
AcDbLine
10
8604.049999999999
20
54431.669999999998
30
0.0
11
8999.010000000000
21
54194.779999999999
31
0.0
0
LINE
5
50f
100
AcDbEntity
8
1-0
6
CONTINUOUS
62
3
100
AcDbLine
10
9110.830000000000
20
55268.889999999999
30
0.0
11
9237.530000000001
21
54051.599999999999
31
0.0
0
LINE
5
510
100
AcDbEntity
8
1-0
6
CONTINUOUS
62
3
100
AcDbLine
10
9617.600000000000
20
54431.669999999998
30
0.0
11
9386.250000000000
21
54046.220000000001
31
0.0
0
LINE
5
511
100
AcDbEntity
8
1-0
6
CONTINUOUS
62
3
100
AcDbLine
10
15920.430000000000
20
54104.099999999999
30
0.0
11
16458.029999999999
21
54104.099999999999
31
0.0
0
LINE
5
512
100
AcDbEntity
8
1-0
6
CONTINUOUS
62
4
100
AcDbLine
10
33090.900000000001
20
13149.260000000000
30
0.0
11
33286.199999999997
21
13882.139999999999
31
0.0
0
LINE
5
513
100
AcDbEntity
8
1-0
6
CONTINUOUS
62
4
100
AcDbLine
10
38962.919999999998
20
11885.650000000000
30
0.0
11
39307.650000000001
21
11825.260000000000
31
0.0
0
LINE
5
514
100
AcDbEntity
8
1-0
6
CONTINUOUS
62
4
100
AcDbLine
10
32544.970000000001
20
13139.500000000000
30
0.0
11
33559.559999999998
21
12869.110000000001
31
0.0
0
LINE
5
515
100
AcDbEntity
8
1-0
6
CONTINUOUS
62
3
100
AcDbLine
10
15920.430000000000
20
53745.699999999997
30
0.0
11
16458.029999999999
21
53745.699999999997
31
0.0
0
LINE
5
516
100
AcDbEntity
8
1-0
6
CONTINUOUS
62
3
100
AcDbLine
10
59019.610000000001
20
6151.730000000000
30
0.0
11
58138.389999999999
21
5255.010000000000
31
0.0
0
LINE
5
517
100
AcDbEntity
8
1-0
6
CONTINUOUS
62
3
100
AcDbLine
10
66676.559999999998
20
16505.919999999998
30
0.0
11
65062.209999999999
21
12300.719999999999
31
0.0
0
LINE
5
518
100
AcDbEntity
8
1-0
6
CONTINUOUS
62
3
100
AcDbLine
10
64819.339999999997
20
11673.219999999999
30
0.0
11
62283.790000000001
21
10498.410000000000
31
0.0
0
LINE
5
519
100
AcDbEntity
8
1-0
6
CONTINUOUS
62
3
100
AcDbLine
10
62283.790000000001
20
10498.410000000000
30
0.0
11
58092.980000000003
21
10461.790000000001
31
0.0
0
LINE
5
51a
100
AcDbEntity
8
1-0
6
CONTINUOUS
62
3
100
AcDbLine
10
9110.830000000000
20
52580.910000000003
30
0.0
11
8984.129999999999
21
53798.199999999997
31
0.0
0
LINE
5
51b
100
AcDbEntity
8
1-0
6
CONTINUOUS
62
3
100
AcDbLine
10
9617.610000000001
20
53418.110000000001
30
0.0
11
9222.650000000000
21
53655.029999999999
31
0.0
0
LINE
5
51c
100
AcDbEntity
8
1-0
6
CONTINUOUS
62
3
100
AcDbLine
10
14128.430000000000
20
54014.500000000000
30
0.0
11
13770.030000000001
21
53924.900000000001
31
0.0
0
LINE
5
51d
100
AcDbEntity
8
1-0
6
CONTINUOUS
62
4
100
AcDbLine
10
57689.839999999997
20
4984.310000000000
30
0.0
11
54939.529999999999
21
5509.430000000000
31
0.0
0
LINE
5
51e
100
AcDbEntity
8
1-0
6
CONTINUOUS
62
4
100
AcDbLine
10
7840.550000000000
20
13943.850000000000
30
0.0
11
9570.560000000000
21
16145.450000000001
31
0.0
0
LINE
5
51f
100
AcDbEntity
8
1-0
6
CONTINUOUS
62
4
100
AcDbLine
10
10007.340000000000
20
16931.520000000000
30
0.0
11
9522.940000000001
21
19689.299999999999
31
0.0
0
LINE
5
520
100
AcDbEntity
8
1-0
6
CONTINUOUS
62
4
100
AcDbLine
10
8105.990000000000
20
14848.120000000001
30
0.0
11
8754.730000000000
21
15673.709999999999
31
0.0
0
LINE
5
521
100
AcDbEntity
8
1-0
6
CONTINUOUS
62
4
100
AcDbLine
10
22132.049999999999
20
11103.370000000001
30
0.0
11
21790.450000000001
21
11179.440000000001
31
0.0
0
LINE
5
522
100
AcDbEntity
8
1-0
6
CONTINUOUS
62
4
100
AcDbLine
10
15655.059999999999
20
8181.610000000000
30
0.0
11
12858.559999999999
21
8321.719999999999
31
0.0
0
LINE
5
523
100
AcDbEntity
8
1-0
6
CONTINUOUS
62
4
100
AcDbLine
10
21961.240000000002
20
11141.389999999999
30
0.0
11
21445.380000000001
21
8824.950000000001
31
0.0
0
LINE
5
524
100
AcDbEntity
8
1-0
6
CONTINUOUS
62
4
100
AcDbLine
10
38631.040000000001
20
7608.610000000000
30
0.0
11
38288.029999999999
21
7678.040000000000
31
0.0
0
LINE
5
525
100
AcDbEntity
8
1-0
6
CONTINUOUS
62
4
100
AcDbLine
10
38459.540000000001
20
7643.350000000000
30
0.0
11
38251.209999999999
21
6614.200000000000
31
0.0
0
LINE
5
526
100
AcDbEntity
8
1-0
6
CONTINUOUS
62
4
100
AcDbLine
10
39043.529999999999
20
7882.200000000000
30
0.0
11
38014.419999999998
21
8090.550000000000
31
0.0
0
LINE
5
527
100
AcDbEntity
8
1-0
6
CONTINUOUS
62
4
100
AcDbLine
10
29475.880000000001
20
14292.750000000000
30
0.0
11
29807.439999999999
21
14180.700000000001
31
0.0
0
LINE
5
528
100
AcDbEntity
8
1-0
6
CONTINUOUS
62
4
100
AcDbLine
10
22549.779999999999
20
11368.900000000000
30
0.0
11
21524.889999999999
21
11597.139999999999
31
0.0
0
LINE
5
529
100
AcDbEntity
8
1-0
6
CONTINUOUS
62
4
100
AcDbLine
10
1213.900000000000
20
30292.599999999999
30
0.0
11
1505.970000000000
21
30099.799999999999
31
0.0
0
LINE
5
52a
100
AcDbEntity
8
1-0
6
CONTINUOUS
62
4
100
AcDbLine
10
23445.160000000000
20
18147.529999999999
30
0.0
11
23913.599999999999
21
18916.020000000000
31
0.0
0
LINE
5
52b
100
AcDbEntity
8
1-0
6
CONTINUOUS
62
4
100
AcDbLine
10
45546.629999999997
20
6902.340000000000
30
0.0
11
42804.809999999998
21
7470.180000000000
31
0.0
0
LINE
5
52c
100
AcDbEntity
8
1-0
6
CONTINUOUS
62
4
100
AcDbLine
10
56764.730000000003
20
4804.630000000000
30
0.0
11
55733.370000000003
21
5001.560000000000
31
0.0
0
LINE
5
52d
100
AcDbEntity
8
1-0
6
CONTINUOUS
62
4
100
AcDbLine
10
32903.089999999997
20
8772.250000000000
30
0.0
11
32692.049999999999
21
7743.650000000000
31
0.0
0
LINE
5
52e
100
AcDbEntity
8
1-0
6
CONTINUOUS
62
4
100
AcDbLine
10
58928.540000000001
20
10719.110000000001
30
0.0
11
59178.540000000001
21
10721.280000000001
31
0.0
0
LINE
5
52f
100
AcDbEntity
8
1-0
6
CONTINUOUS
62
4
100
AcDbLine
10
59053.550000000003
20
10720.219999999999
30
0.0
11
59049.180000000000
21
11220.180000000000
31
0.0
0
LINE
5
530
100
AcDbEntity
8
1-0
6
CONTINUOUS
62
4
100
AcDbLine
10
33487.720000000001
20
9009.580000000000
30
0.0
11
32459.160000000000
21
9220.620000000001
31
0.0
0
LINE
5
531
100
AcDbEntity
8
1-0
6
DOT
62
2
100
AcDbLine
10
337.050000000000
20
25718.009999999998
30
0.0
11
2598.960000000000
21
24202.090000000000
31
0.0
0
LINE
5
532
100
AcDbEntity
8
1-0
6
CONTINUOUS
62
4
100
AcDbLine
10
26210.040000000001
20
10195.129999999999
30
0.0
11
25981.799999999999
21
9170.260000000000
31
0.0
0
LINE
5
533
100
AcDbEntity
8
1-0
6
CONTINUOUS
62
4
100
AcDbLine
10
23479.939999999999
20
11520.330000000000
30
0.0
11
20746.889999999999
21
12129.000000000000
31
0.0
0
LINE
5
534
100
AcDbEntity
8
1-0
6
CONTINUOUS
62
4
100
AcDbLine
10
27728.730000000000
20
10574.070000000000
30
0.0
11
24995.680000000000
21
11182.740000000000
31
0.0
0
LINE
5
535
100
AcDbEntity
8
1-0
6
CONTINUOUS
62
4
100
AcDbLine
10
8155.150000000000
20
15477.150000000000
30
0.0
11
6109.410000000000
21
17084.750000000000
31
0.0
0
LINE
5
536
100
AcDbEntity
8
1-0
6
CONTINUOUS
62
4
100
AcDbLine
10
7101.000000000000
20
12641.629999999999
30
0.0
11
7222.150000000000
21
13684.629999999999
31
0.0
0
LINE
5
537
100
AcDbEntity
8
1-0
6
CONTINUOUS
62
4
100
AcDbLine
10
9105.969999999999
20
18016.970000000001
30
0.0
11
9045.430000000000
21
18361.669999999998
31
0.0
0
LINE
5
538
100
AcDbEntity
8
1-0
6
CONTINUOUS
62
4
100
AcDbLine
10
4029.190000000000
20
18801.580000000002
30
0.0
11
4291.230000000000
21
18120.759999999998
31
0.0
0
LINE
5
539
100
AcDbEntity
8
1-0
6
CONTINUOUS
62
4
100
AcDbLine
10
7347.720000000000
20
11732.090000000000
30
0.0
11
7670.760000000000
21
14513.400000000000
31
0.0
0
LINE
5
53a
100
AcDbEntity
8
1-0
6
CONTINUOUS
62
4
100
AcDbLine
10
8047.040000000000
20
15339.570000000000
30
0.0
11
8263.280000000001
21
15614.750000000000
31
0.0
0
LINE
5
53b
100
AcDbEntity
8
1-0
6
CONTINUOUS
62
4
100
AcDbLine
10
6793.720000000000
20
13029.700000000001
30
0.0
11
6834.110000000000
21
13377.320000000000
31
0.0
0
LINE
5
53c
100
AcDbEntity
8
1-0
6
CONTINUOUS
62
6
100
AcDbLine
10
224016.660000000000
20
284535.669999999980
30
0.0
11
223907.079999999990
21
284508.280000000030
31
0.0
0
LINE
5
53d
100
AcDbEntity
8
1-0
6
CONTINUOUS
62
6
100
AcDbLine
10
224455.220000000000
20
284946.729999999980
30
0.0
11
224044.140000000010
21
284946.729999999980
31
0.0
0
LINE
5
53e
100
AcDbEntity
8
1-0
6
CONTINUOUS
62
6
100
AcDbLine
10
224889.929999999990
20
285057.560000000000
30
0.0
11
224455.220000000000
21
284946.729999999980
31
0.0
0
LINE
5
53f
100
AcDbEntity
8
1-0
6
CONTINUOUS
62
6
100
AcDbLine
10
223907.079999999990
20
284508.280000000030
30
0.0
11
223468.570000000010
21
284398.640000000010
31
0.0
0
LINE
5
540
100
AcDbEntity
8
1-0
6
CONTINUOUS
62
6
100
AcDbLine
10
224940.570000000010
20
284842.090000000030
30
0.0
11
224537.370000000000
21
284645.289999999980
31
0.0
0
LINE
5
541
100
AcDbEntity
8
1-0
6
CONTINUOUS
62
6
100
AcDbLine
10
224044.140000000010
20
284946.729999999980
30
0.0
11
223523.470000000000
21
284782.270000000020
31
0.0
0
LINE
5
542
100
AcDbEntity
8
1-0
6
CONTINUOUS
62
6
100
AcDbLine
10
224537.370000000000
20
284645.289999999980
30
0.0
11
224016.660000000000
21
284535.669999999980
31
0.0
0
LINE
5
543
100
AcDbEntity
8
1-0
6
DOT
62
4
100
AcDbLine
10
81092.199999999997
20
72987.059999999998
30
0.0
11
79433.839999999997
21
70478.360000000001
31
0.0
0
LINE
5
544
100
AcDbEntity
8
1-0
6
DOT
62
4
100
AcDbLine
10
75092.649999999994
20
49806.889999999999
30
0.0
11
74988.429999999993
21
47200.010000000002
31
0.0
0
LINE
5
545
100
AcDbEntity
8
1-0
6
DOT
62
4
100
AcDbLine
10
75300.250000000000
20
55000.269999999997
30
0.0
11
75092.649999999994
21
49806.889999999999
31
0.0
0
LINE
5
546
100
AcDbEntity
8
1-0
6
CONTINUOUS
62
4
100
AcDbLine
10
68936.889999999999
20
30916.380000000001
30
0.0
11
69009.440000000002
21
31713.070000000000
31
0.0
0
LINE
5
547
100
AcDbEntity
8
1-0
6
DOT
62
4
100
AcDbLine
10
75673.880000000005
20
59517.330000000002
30
0.0
11
75300.250000000000
21
55000.269999999997
31
0.0
0
LINE
5
548
100
AcDbEntity
8
1-0
6
DOT
62
4
100
AcDbLine
10
83314.449999999997
20
76722.169999999998
30
0.0
11
81092.199999999997
21
72987.059999999998
31
0.0
0
LINE
5
549
100
AcDbEntity
8
1-0
6
DOT
62
4
100
AcDbLine
10
79433.839999999997
20
70478.360000000001
30
0.0
11
77465.750000000000
21
67621.520000000004
31
0.0
0
LINE
5
54a
100
AcDbEntity
8
1-0
6
DOT
62
4
100
AcDbLine
10
77465.750000000000
20
67621.520000000004
30
0.0
11
74096.339999999997
21
66657.710000000006
31
0.0
0
LINE
5
54b
100
AcDbEntity
8
1-0
6
DOT
62
4
100
AcDbLine
10
77375.839999999997
20
42827.360000000001
30
0.0
11
78372.350000000006
21
38770.540000000001
31
0.0
0
LINE
5
54c
100
AcDbEntity
8
1-0
6
DOT
62
4
100
AcDbLine
10
114801.460000000010
20
60154.790000000001
30
0.0
11
103808.620000000000
21
61830.250000000000
31
0.0
0
LINE
5
54d
100
AcDbEntity
8
1-0
6
DOT
62
4
100
AcDbLine
10
103808.620000000000
20
61830.250000000000
30
0.0
11
101924.060000000000
21
62356.190000000002
31
0.0
0
LINE
5
54e
100
AcDbEntity
8
1-0
6
DOT
62
4
100
AcDbLine
10
101270.060000000000
20
60489.680000000000
30
0.0
11
104688.990000000010
21
60661.980000000003
31
0.0
0
LINE
5
54f
100
AcDbEntity
8
1-0
6
DOT
62
4
100
AcDbLine
10
116874.170000000000
20
57252.120000000003
30
0.0
11
118248.660000000000
21
55883.959999999999
31
0.0
0
LINE
5
550
100
AcDbEntity
8
1-0
6
DOT
62
4
100
AcDbLine
10
114455.350000000010
20
59550.599999999999
30
0.0
11
115463.800000000000
21
58364.339999999997
31
0.0
0
LINE
5
551
100
AcDbEntity
8
1-0
6
DOT
62
4
100
AcDbLine
10
104688.990000000010
20
60661.980000000003
30
0.0
11
114455.350000000010
21
59550.599999999999
31
0.0
0
LINE
5
552
100
AcDbEntity
8
1-0
6
DOT
62
4
100
AcDbLine
10
115463.800000000000
20
58364.339999999997
30
0.0
11
116874.170000000000
21
57252.120000000003
31
0.0
0
LINE
5
553
100
AcDbEntity
8
1-0
6
DOT
62
4
100
AcDbLine
10
101924.060000000000
20
62356.190000000002
30
0.0
11
101270.060000000000
21
60489.680000000000
31
0.0
0
LINE
5
554
100
AcDbEntity
8
1-0
6
CONTINUOUS
62
3
100
AcDbLine
10
68525.119999999995
20
32787.019999999997
30
0.0
11
67832.449999999997
21
25468.689999999999
31
0.0
0
LINE
5
555
100
AcDbEntity
8
1-0
6
CONTINUOUS
62
4
100
AcDbLine
10
72591.020000000004
20
22780.820000000000
30
0.0
11
68277.600000000006
21
22235.169999999998
31
0.0
0
LINE
5
556
100
AcDbEntity
8
1-0
6
CONTINUOUS
62
4
100
AcDbLine
10
67296.009999999995
20
18289.430000000000
30
0.0
11
71734.210000000006
21
19090.150000000001
31
0.0
0
LINE
5
557
100
AcDbEntity
8
1-0
6
CONTINUOUS
62
3
100
AcDbLine
10
72592.690000000002
20
33630.160000000003
30
0.0
11
72591.940000000002
21
28734.040000000001
31
0.0
0
LINE
5
558
100
AcDbEntity
8
1-0
6
CONTINUOUS
62
7
100
AcDbLine
10
67296.009999999995
20
18289.430000000000
30
0.0
11
66659.929999999993
21
18410.889999999999
31
0.0
0
LINE
5
559
100
AcDbEntity
8
1-0
6
CONTINUOUS
62
7
100
AcDbLine
10
67485.570000000007
20
22235.169999999998
30
0.0
11
68277.600000000006
21
22235.169999999998
31
0.0
0
LINE
5
55a
100
AcDbEntity
8
1-0
6
CONTINUOUS
62
3
100
AcDbLine
10
69219.820000000007
20
32920.650000000001
30
0.0
11
68608.990000000005
21
26212.799999999999
31
0.0
0
LINE
5
55b
100
AcDbEntity
8
1-0
6
DOT
62
4
100
AcDbLine
10
77413.130000000005
20
50525.209999999999
30
0.0
11
77394.369999999995
21
46650.239999999998
31
0.0
0
LINE
5
55c
100
AcDbEntity
8
1-0
6
CONTINUOUS
62
4
100
AcDbLine
10
35909.750000000000
20
12268.280000000001
30
0.0
11
36944.000000000000
21
12087.070000000000
31
0.0
0
LINE
5
55d
100
AcDbEntity
8
1-0
6
CONTINUOUS
62
4
100
AcDbLine
10
29641.650000000001
20
14236.719999999999
30
0.0
11
29872.840000000000
21
14920.600000000000
31
0.0
0
LINE
5
55e
100
AcDbEntity
8
1-0
6
DOT
62
4
100
AcDbLine
10
77391.440000000002
20
46046.540000000001
30
0.0
11
77375.839999999997
21
42827.360000000001
31
0.0
0
LINE
5
55f
100
AcDbEntity
8
1-0
6
CONTINUOUS
62
4
100
AcDbLine
10
68491.160000000003
20
27124.209999999999
30
0.0
11
68518.350000000006
21
27422.970000000001
31
0.0
0
LINE
5
560
100
AcDbEntity
8
1-0
6
CONTINUOUS
62
4
100
AcDbLine
10
68400.630000000005
20
27232.880000000001
30
0.0
11
68409.699999999997
21
27332.459999999999
31
0.0
0
LINE
5
561
100
AcDbEntity
8
1-0
6
CONTINUOUS
62
4
100
AcDbLine
10
68405.169999999998
20
27282.650000000001
30
0.0
11
68106.399999999994
21
27309.869999999999
31
0.0
0
LINE
5
562
100
AcDbEntity
8
1-0
6
CONTINUOUS
62
4
100
AcDbLine
10
19862.049999999999
20
20331.759999999998
30
0.0
11
20160.889999999999
21
20149.599999999999
31
0.0
0
LINE
5
563
100
AcDbEntity
8
1-0
6
CONTINUOUS
62
4
100
AcDbLine
10
19407.049999999999
20
20257.779999999999
30
0.0
11
20303.590000000000
21
19711.279999999999
31
0.0
0
LINE
5
564
100
AcDbEntity
8
1-0
6
CONTINUOUS
62
4
100
AcDbLine
10
23295.730000000000
20
18238.619999999999
30
0.0
11
23594.580000000002
21
18056.459999999999
31
0.0
0
LINE
5
565
100
AcDbEntity
8
1-0
6
CONTINUOUS
62
4
100
AcDbLine
10
58679.650000000001
20
10591.950000000001
30
0.0
11
59429.629999999997
21
10598.480000000000
31
0.0
0
LINE
5
566
100
AcDbEntity
8
1-0
6
CONTINUOUS
62
4
100
AcDbLine
10
20011.480000000000
20
20240.660000000000
30
0.0
11
20524.830000000002
21
21082.830000000002
31
0.0
0
LINE
5
567
100
AcDbEntity
8
1-0
6
CONTINUOUS
62
4
100
AcDbLine
10
29096.270000000000
20
14262.760000000000
30
0.0
11
30090.959999999999
21
13926.480000000000
31
0.0
0
LINE
5
568
100
AcDbEntity
8
1-0
6
CONTINUOUS
62
4
100
AcDbLine
10
16316.740000000000
20
22292.209999999999
30
0.0
11
16742.599999999999
21
23085.080000000002
31
0.0
0
LINE
5
569
100
AcDbEntity
8
1-0
6
CONTINUOUS
62
4
100
AcDbLine
10
756.520000000000
20
30235.080000000002
30
0.0
11
1632.800000000000
21
29656.619999999999
31
0.0
0
LINE
5
56a
100
AcDbEntity
8
1-0
6
CONTINUOUS
62
4
100
AcDbLine
10
68568.070000000007
20
26866.180000000000
30
0.0
11
68640.610000000001
21
27662.869999999999
31
0.0
0
LINE
5
56b
100
AcDbEntity
8
1-0
6
CONTINUOUS
62
4
100
AcDbLine
10
68772.460000000006
20
30213.380000000001
30
0.0
11
68799.669999999998
21
30512.150000000001
31
0.0
0
LINE
5
56c
100
AcDbEntity
8
1-0
6
CONTINUOUS
62
4
100
AcDbLine
10
68681.949999999997
20
30322.049999999999
30
0.0
11
68691.009999999995
21
30421.630000000001
31
0.0
0
LINE
5
56d
100
AcDbEntity
8
1-0
6
CONTINUOUS
62
4
100
AcDbLine
10
68686.479999999996
20
30371.820000000000
30
0.0
11
68387.710000000006
21
30399.049999999999
31
0.0
0
LINE
5
56e
100
AcDbEntity
8
1-0
6
CONTINUOUS
62
4
100
AcDbLine
10
68849.380000000005
20
29955.349999999999
30
0.0
11
68921.929999999993
21
30752.049999999999
31
0.0
0
LINE
5
56f
100
AcDbEntity
8
1-0
6
CONTINUOUS
62
4
100
AcDbLine
10
68859.979999999996
20
31174.410000000000
30
0.0
11
68887.179999999993
21
31473.180000000000
31
0.0
0
LINE
5
570
100
AcDbEntity
8
1-0
6
CONTINUOUS
62
4
100
AcDbLine
10
68769.460000000006
20
31283.080000000002
30
0.0
11
68778.520000000004
21
31382.660000000000
31
0.0
0
LINE
5
571
100
AcDbEntity
8
1-0
6
CONTINUOUS
62
4
100
AcDbLine
10
68773.990000000005
20
31332.849999999999
30
0.0
11
68475.220000000001
21
31360.080000000002
31
0.0
0
LINE
5
572
100
AcDbEntity
8
1-0
6
CONTINUOUS
62
4
100
AcDbLine
10
68756.320000000007
20
28933.320000000000
30
0.0
11
68828.860000000001
21
29730.009999999998
31
0.0
0
LINE
5
573
100
AcDbEntity
8
1-0
6
CONTINUOUS
62
4
100
AcDbLine
10
68590.690000000002
20
28217.130000000001
30
0.0
11
68617.889999999999
21
28515.900000000001
31
0.0
0
LINE
5
574
100
AcDbEntity
8
1-0
6
CONTINUOUS
62
4
100
AcDbLine
10
68500.169999999998
20
28325.799999999999
30
0.0
11
68509.240000000005
21
28425.380000000001
31
0.0
0
LINE
5
575
100
AcDbEntity
8
1-0
6
CONTINUOUS
62
4
100
AcDbLine
10
68504.699999999997
20
28375.580000000002
30
0.0
11
68205.940000000002
21
28402.799999999999
31
0.0
0
LINE
5
576
100
AcDbEntity
8
1-0
6
CONTINUOUS
62
4
100
AcDbLine
10
68667.610000000001
20
27959.099999999999
30
0.0
11
68740.139999999999
21
28755.799999999999
31
0.0
0
LINE
5
577
100
AcDbEntity
8
1-0
6
CONTINUOUS
62
4
100
AcDbLine
10
68679.399999999994
20
29191.349999999999
30
0.0
11
68706.600000000006
21
29490.110000000001
31
0.0
0
LINE
5
578
100
AcDbEntity
8
1-0
6
CONTINUOUS
62
4
100
AcDbLine
10
68588.880000000005
20
29300.020000000000
30
0.0
11
68597.949999999997
21
29399.599999999999
31
0.0
0
LINE
5
579
100
AcDbEntity
8
1-0
6
CONTINUOUS
62
4
100
AcDbLine
10
68593.419999999998
20
29349.790000000001
30
0.0
11
68294.649999999994
21
29377.009999999998
31
0.0
0
LINE
5
57a
100
AcDbEntity
8
1-0
6
CONTINUOUS
62
3
100
AcDbLine
10
68781.460000000006
20
10086.969999999999
30
0.0
11
69391.820000000007
21
9917.360000000001
31
0.0
0
LINE
5
57b
100
AcDbEntity
8
1-0
6
CONTINUOUS
62
3
100
AcDbLine
10
64804.889999999999
20
12679.440000000001
30
0.0
11
65037.019999999997
21
12134.730000000000
31
0.0
0
LINE
5
57c
100
AcDbEntity
8
1-0
6
CONTINUOUS
62
3
100
AcDbLine
10
77728.000000000000
20
46273.290000000001
30
0.0
11
78257.850000000006
21
46249.430000000000
31
0.0
0
LINE
5
57d
100
AcDbEntity
8
1-0
6
CONTINUOUS
62
3
100
AcDbLine
10
12894.879999999999
20
8670.350000000000
30
0.0
11
7781.810000000000
21
12435.860000000001
31
0.0
0
LINE
5
57e
100
AcDbEntity
8
1-0
6
CONTINUOUS
62
3
100
AcDbLine
10
17760.580000000002
20
4140.630000000000
30
0.0
11
14218.000000000000
21
2585.640000000000
31
0.0
0
LINE
5
57f
100
AcDbEntity
8
1-0
6
CONTINUOUS
62
3
100
AcDbLine
10
41221.449999999997
20
8155.520000000000
30
0.0
11
34605.489999999998
21
9494.810000000000
31
0.0
0
LINE
5
580
100
AcDbEntity
8
1-0
6
CONTINUOUS
62
3
100
AcDbLine
10
14218.000000000000
20
2585.640000000000
30
0.0
11
8632.469999999999
21
2282.900000000000
31
0.0
0
LINE
5
581
100
AcDbEntity
8
1-0
6
CONTINUOUS
62
3
100
AcDbLine
10
70901.220000000001
20
9087.400000000000
30
0.0
11
68781.460000000006
21
10086.969999999999
31
0.0
0
LINE
5
582
100
AcDbEntity
8
1-0
6
CONTINUOUS
62
3
100
AcDbLine
10
69069.250000000000
20
47951.690000000002
30
0.0
11
69440.080000000002
21
34564.769999999997
31
0.0
0
LINE
5
583
100
AcDbEntity
8
1-0
6
CONTINUOUS
62
3
100
AcDbLine
10
66659.929999999993
20
18410.889999999999
30
0.0
11
66420.360000000001
21
16757.750000000000
31
0.0
0
LINE
5
584
100
AcDbEntity
8
1-0
6
CONTINUOUS
62
3
100
AcDbLine
10
66420.360000000001
20
16757.750000000000
30
0.0
11
64804.889999999999
21
12679.440000000001
31
0.0
0
LINE
5
585
100
AcDbEntity
8
1-0
6
CONTINUOUS
62
3
100
AcDbLine
10
68552.880000000005
20
48908.559999999998
30
0.0
11
69056.380000000005
21
48556.040000000001
31
0.0
0
LINE
5
586
100
AcDbEntity
8
1-0
6
CONTINUOUS
62
3
100
AcDbLine
10
67381.649999999994
20
10464.969999999999
30
0.0
11
70795.910000000003
21
8854.980000000000
31
0.0
0
LINE
5
587
100
AcDbEntity
8
1-0
6
CONTINUOUS
62
3
100
AcDbLine
10
62530.010000000002
20
11389.590000000000
30
0.0
11
64304.639999999999
21
11786.070000000000
31
0.0
0
LINE
5
588
100
AcDbEntity
8
1-0
6
CONTINUOUS
62
3
100
AcDbLine
10
60442.029999999999
20
3243.040000000000
30
0.0
11
62356.949999999997
21
2116.700000000000
31
0.0
0
LINE
5
589
100
AcDbEntity
8
1-0
6
CONTINUOUS
62
3
100
AcDbLine
10
11003.459999999999
20
25451.540000000001
30
0.0
11
519.670000000000
21
32296.669999999998
31
0.0
0
LINE
5
58a
100
AcDbEntity
8
1-0
6
CONTINUOUS
62
3
100
AcDbLine
10
58339.190000000002
20
11353.030000000001
30
0.0
11
49066.330000000002
21
11526.059999999999
31
0.0
0
LINE
5
58b
100
AcDbEntity
8
1-0
6
CONTINUOUS
62
3
100
AcDbLine
10
47607.779999999999
20
4020.080000000000
30
0.0
11
36913.559999999998
21
6974.850000000000
31
0.0
0
LINE
5
58c
100
AcDbEntity
8
1-0
6
CONTINUOUS
62
3
100
AcDbLine
10
27754.410000000000
20
8672.980000000000
30
0.0
11
21406.869999999999
21
8363.590000000000
31
0.0
0
LINE
5
58d
100
AcDbEntity
8
1-0
6
CONTINUOUS
62
3
100
AcDbLine
10
49964.160000000003
20
10517.879999999999
30
0.0
11
40431.750000000000
21
11323.730000000000
31
0.0
0
LINE
5
58e
100
AcDbEntity
8
1-0
6
CONTINUOUS
62
3
100
AcDbLine
10
72591.940000000002
20
28742.259999999998
30
0.0
11
72591.020000000004
21
22780.820000000000
31
0.0
0
LINE
5
58f
100
AcDbEntity
8
1-0
6
CONTINUOUS
62
3
100
AcDbLine
10
3076.140000000000
20
17653.080000000002
30
0.0
11
1264.050000000000
21
17078.130000000001
31
0.0
0
LINE
5
590
100
AcDbEntity
8
1-0
6
CONTINUOUS
62
3
100
AcDbLine
10
6718.140000000000
20
18391.509999999998
30
0.0
11
6203.570000000000
21
18645.330000000002
31
0.0
0
LINE
5
591
100
AcDbEntity
8
1-0
6
CONTINUOUS
62
3
100
AcDbLine
10
20481.340000000000
20
12546.700000000001
30
0.0
11
18712.259999999998
21
11515.200000000001
31
0.0
0
LINE
5
592
100
AcDbEntity
8
1-0
6
CONTINUOUS
62
3
100
AcDbLine
10
1478.590000000000
20
7046.630000000000
30
0.0
11
1910.110000000000
21
15813.719999999999
31
0.0
0
LINE
5
593
100
AcDbEntity
8
1-0
6
CONTINUOUS
62
3
100
AcDbLine
10
36913.559999999998
20
6974.850000000000
30
0.0
11
27754.410000000000
21
8672.980000000000
31
0.0
0
LINE
5
594
100
AcDbEntity
8
1-0
6
CONTINUOUS
62
3
100
AcDbLine
10
48731.889999999999
20
6188.970000000000
30
0.0
11
47461.930000000000
21
6177.860000000000
31
0.0
0
LINE
5
595
100
AcDbEntity
8
1-0
6
DASHED2
62
3
100
AcDbLine
10
6718.140000000000
20
18391.509999999998
30
0.0
11
13828.360000000001
21
25719.669999999998
31
0.0
0
LINE
5
596
100
AcDbEntity
8
1-0
6
CONTINUOUS
62
3
100
AcDbLine
10
34605.489999999998
20
9494.810000000000
30
0.0
11
29261.730000000000
21
10591.250000000000
31
0.0
0
LINE
5
597
100
AcDbEntity
8
1-0
6
CONTINUOUS
62
3
100
AcDbLine
10
6933.440000000000
20
18182.619999999999
30
0.0
11
6846.300000000000
21
17761.900000000001
31
0.0
0
LINE
5
598
100
AcDbEntity
8
1-0
6
CONTINUOUS
62
3
100
AcDbLine
10
5299.090000000000
20
20415.470000000001
30
0.0
11
1172.200000000000
21
18827.000000000000
31
0.0
0
LINE
5
599
100
AcDbEntity
8
1-0
6
CONTINUOUS
62
3
100
AcDbLine
10
67832.429999999993
20
25468.660000000000
30
0.0
11
67759.660000000003
21
23373.660000000000
31
0.0
0
LINE
5
59a
100
AcDbEntity
8
1-0
6
CONTINUOUS
62
3
100
AcDbLine
10
51546.860000000001
20
3800.420000000000
30
0.0
11
47607.779999999999
21
4020.080000000000
31
0.0
0
LINE
5
59b
100
AcDbEntity
8
1-0
6
CONTINUOUS
62
3
100
AcDbLine
10
7200.700000000000
20
20813.110000000001
30
0.0
11
6440.930000000000
21
20552.430000000000
31
0.0
0
LINE
5
59c
100
AcDbEntity
8
1-0
6
CONTINUOUS
62
3
100
AcDbLine
10
15054.889999999999
20
8562.139999999999
30
0.0
11
12894.879999999999
21
8670.350000000000
31
0.0
0
LINE
5
59d
100
AcDbEntity
8
1-0
6
CONTINUOUS
62
3
100
AcDbLine
10
7675.160000000000
20
21267.730000000000
30
0.0
11
7200.700000000000
21
20813.110000000001
31
0.0
0
LINE
5
59e
100
AcDbEntity
8
1-0
6
CONTINUOUS
62
3
100
AcDbLine
10
7899.950000000000
20
13452.940000000001
30
0.0
11
10412.160000000000
21
16649.970000000001
31
0.0
0
LINE
5
59f
100
AcDbEntity
8
1-0
6
CONTINUOUS
62
3
100
AcDbLine
10
1172.200000000000
20
18827.000000000000
30
0.0
11
453.130000000000
21
19414.779999999999
31
0.0
0
LINE
5
5a0
100
AcDbEntity
8
1-0
6
CONTINUOUS
62
3
100
AcDbLine
10
9877.580000000000
20
19693.419999999998
30
0.0
11
7675.160000000000
21
21267.730000000000
31
0.0
0
LINE
5
5a1
100
AcDbEntity
8
1-0
6
CONTINUOUS
62
3
100
AcDbLine
10
5117.780000000000
20
26637.150000000001
30
0.0
11
9201.590000000000
21
24386.660000000000
31
0.0
0
LINE
5
5a2
100
AcDbEntity
8
1-0
6
CONTINUOUS
62
3
100
AcDbLine
10
14038.500000000000
20
23158.880000000001
30
0.0
11
14040.700000000001
21
22904.910000000000
31
0.0
0
LINE
5
5a3
100
AcDbEntity
8
1-0
6
CONTINUOUS
62
3
100
AcDbLine
10
25131.400000000001
20
18175.480000000000
30
0.0
11
20404.860000000001
21
21309.389999999999
31
0.0
0
LINE
5
5a4
100
AcDbEntity
8
1-0
6
CONTINUOUS
62
3
100
AcDbLine
10
15155.240000000000
20
24077.270000000000
30
0.0
11
20404.860000000001
21
21309.389999999999
31
0.0
0
LINE
5
5a5
100
AcDbEntity
8
1-0
6
CONTINUOUS
62
3
100
AcDbLine
10
609.050000000000
20
29613.480000000000
30
0.0
11
5117.780000000000
21
26637.150000000001
31
0.0
0
LINE
5
5a6
100
AcDbEntity
8
1-0
6
CONTINUOUS
62
3
100
AcDbLine
10
15155.240000000000
20
24077.270000000000
30
0.0
11
15223.879999999999
21
24771.459999999999
31
0.0
0
LINE
5
5a7
100
AcDbEntity
8
1-0
6
CONTINUOUS
62
3
100
AcDbLine
10
15223.879999999999
20
24771.459999999999
30
0.0
11
12761.250000000000
21
26444.730000000000
31
0.0
0
LINE
5
5a8
100
AcDbEntity
8
1-0
6
CONTINUOUS
62
3
100
AcDbLine
10
79421.669999999998
20
45886.160000000003
30
0.0
11
77728.000000000000
21
46273.290000000001
31
0.0
0
LINE
5
5a9
100
AcDbEntity
8
1-0
6
CONTINUOUS
62
3
100
AcDbLine
10
62356.949999999997
20
2116.700000000000
30
0.0
11
64524.739999999998
21
1119.570000000000
31
0.0
0
LINE
5
5aa
100
AcDbEntity
8
1-0
6
CONTINUOUS
62
3
100
AcDbLine
10
61170.760000000002
20
7059.510000000000
30
0.0
11
59019.610000000001
21
6151.730000000000
31
0.0
0
LINE
5
5ab
100
AcDbEntity
8
1-0
6
CONTINUOUS
62
3
100
AcDbLine
10
58138.389999999999
20
5255.010000000000
30
0.0
11
60442.029999999999
21
3243.040000000000
31
0.0
0
LINE
5
5ac
100
AcDbEntity
8
1-0
6
CONTINUOUS
62
3
100
AcDbLine
10
54321.879999999997
20
5983.700000000000
30
0.0
11
48731.889999999999
21
6188.970000000000
31
0.0
0
LINE
5
5ad
100
AcDbEntity
8
1-0
6
CONTINUOUS
62
3
100
AcDbLine
10
72594.720000000001
20
47145.879999999997
30
0.0
11
72592.679999999993
21
33636.839999999997
31
0.0
0
LINE
5
5ae
100
AcDbEntity
8
1-0
6
CONTINUOUS
62
3
100
AcDbLine
10
69056.380000000005
20
48556.040000000001
30
0.0
11
69294.619999999995
21
58329.809999999998
31
0.0
0
LINE
5
5af
100
AcDbEntity
8
1-0
6
CONTINUOUS
62
3
100
AcDbLine
10
58138.389999999999
20
5255.010000000000
30
0.0
11
54321.879999999997
21
5983.700000000000
31
0.0
0
LINE
5
5b0
100
AcDbEntity
8
1-0
6
CONTINUOUS
62
3
100
AcDbLine
10
64461.559999999998
20
8358.340000000000
30
0.0
11
61170.760000000002
21
7059.510000000000
31
0.0
0
LINE
5
5b1
100
AcDbEntity
8
1-0
6
CONTINUOUS
62
3
100
AcDbLine
10
64819.339999999997
20
11673.219999999999
30
0.0
11
65037.019999999997
21
12134.730000000000
31
0.0
0
LINE
5
5b2
100
AcDbEntity
8
1-0
6
CONTINUOUS
62
3
100
AcDbLine
10
56632.180000000000
20
3209.770000000000
30
0.0
11
51546.860000000001
21
3800.420000000000
31
0.0
0
LINE
5
5b3
100
AcDbEntity
8
1-0
6
CONTINUOUS
62
3
100
AcDbLine
10
57143.470000000001
20
2833.250000000000
30
0.0
11
56632.180000000000
21
3209.770000000000
31
0.0
0
LINE
5
5b4
100
AcDbEntity
8
1-0
6
CONTINUOUS
62
3
100
AcDbLine
10
67296.000000000000
20
18289.430000000000
30
0.0
11
66676.559999999998
21
16505.919999999998
31
0.0
0
LINE
5
5b5
100
AcDbEntity
8
1-0
6
CONTINUOUS
62
3
100
AcDbLine
10
64524.739999999998
20
1119.570000000000
30
0.0
11
65799.119999999995
21
622.680000000000
31
0.0
0
LINE
5
5b6
100
AcDbEntity
8
1-0
6
DASHED2
62
3
100
AcDbLine
10
65037.019999999997
20
12134.730000000000
30
0.0
11
67611.649999999994
21
10920.680000000000
31
0.0
0
LINE
5
5b7
100
AcDbEntity
8
1-0
6
DASHED2
62
3
100
AcDbLine
10
64819.339999999997
20
11673.219999999999
30
0.0
11
67381.649999999994
21
10464.969999999999
31
0.0
0
LINE
5
5b8
100
AcDbEntity
8
1-0
6
CONTINUOUS
62
4
100
AcDbLine
10
49439.400000000001
20
5112.280000000000
30
0.0
11
49089.660000000003
21
5125.120000000000
31
0.0
0
LINE
5
5b9
100
AcDbEntity
8
1-0
6
CONTINUOUS
62
4
100
AcDbLine
10
39970.580000000002
20
8051.640000000000
30
0.0
11
37226.260000000002
21
8607.180000000000
31
0.0
0
LINE
5
5ba
100
AcDbEntity
8
1-0
6
CONTINUOUS
62
3
100
AcDbLine
10
67611.649999999994
20
10920.680000000000
30
0.0
11
71013.550000000003
21
9316.530000000001
31
0.0
0
LINE
5
5bb
100
AcDbEntity
8
1-0
6
CONTINUOUS
62
4
100
AcDbLine
10
6813.920000000000
20
13203.520000000000
30
0.0
11
2470.640000000000
21
13707.920000000000
31
0.0
0
LINE
5
5bc
100
AcDbEntity
8
1-0
6
CONTINUOUS
62
4
100
AcDbLine
10
44033.769999999997
20
6500.830000000000
30
0.0
11
43820.830000000002
21
5472.630000000000
31
0.0
0
LINE
5
5bd
100
AcDbEntity
8
1-0
6
CONTINUOUS
62
4
100
AcDbLine
10
44205.110000000001
20
6465.330000000000
30
0.0
11
43862.410000000003
21
6536.290000000000
31
0.0
0
LINE
5
5be
100
AcDbEntity
8
1-0
6
CONTINUOUS
62
4
100
AcDbLine
10
44618.839999999997
20
6737.060000000000
30
0.0
11
43590.650000000001
21
6950.020000000000
31
0.0
0
LINE
5
5bf
100
AcDbEntity
8
1-0
6
CONTINUOUS
62
3
100
AcDbLine
10
28976.700000000001
20
14144.840000000000
30
0.0
11
25788.529999999999
21
15641.110000000001
31
0.0
0
LINE
5
5c0
100
AcDbEntity
8
1-0
6
CONTINUOUS
62
3
100
AcDbLine
10
47461.930000000000
20
6177.860000000000
30
0.0
11
45929.120000000003
21
7180.540000000000
31
0.0
0
LINE
5
5c1
100
AcDbEntity
8
1-0
6
CONTINUOUS
62
3
100
AcDbLine
10
6340.530000000000
20
17503.480000000000
30
0.0
11
2161.880000000000
21
16069.950000000001
31
0.0
0
LINE
5
5c2
100
AcDbEntity
8
1-0
6
CONTINUOUS
62
3
100
AcDbLine
10
21406.869999999999
20
8363.590000000000
30
0.0
11
17760.580000000002
21
4140.630000000000
31
0.0
0
LINE
5
5c3
100
AcDbEntity
8
1-0
6
CONTINUOUS
62
3
100
AcDbLine
10
8632.469999999999
20
2282.900000000000
30
0.0
11
1478.590000000000
21
7046.630000000000
31
0.0
0
LINE
5
5c4
100
AcDbEntity
8
1-0
6
CONTINUOUS
62
3
100
AcDbLine
10
25788.529999999999
20
15641.110000000001
30
0.0
11
23362.320000000000
21
17143.990000000002
31
0.0
0
LINE
5
5c5
100
AcDbEntity
8
1-0
6
CONTINUOUS
62
3
100
AcDbLine
10
10412.160000000000
20
16649.970000000001
30
0.0
11
9877.580000000000
21
19693.419999999998
31
0.0
0
LINE
5
5c6
100
AcDbEntity
8
1-0
6
CONTINUOUS
62
3
100
AcDbLine
10
18638.020000000000
20
20023.869999999999
30
0.0
11
14682.330000000000
21
22148.439999999999
31
0.0
0
LINE
5
5c7
100
AcDbEntity
8
1-0
6
CONTINUOUS
62
4
100
AcDbLine
10
49264.529999999999
20
5118.720000000000
30
0.0
11
49226.000000000000
21
4069.420000000000
31
0.0
0
LINE
5
5c8
100
AcDbEntity
8
1-0
6
CONTINUOUS
62
4
100
AcDbLine
10
22840.730000000000
20
18164.639999999999
30
0.0
11
23737.270000000000
21
17618.139999999999
31
0.0
0
LINE
5
5c9
100
AcDbEntity
8
1-0
6
CONTINUOUS
62
4
100
AcDbLine
10
18503.770000000000
20
20457.060000000001
30
0.0
11
20894.580000000002
21
18999.669999999998
31
0.0
0
LINE
5
5ca
100
AcDbEntity
8
1-0
6
CONTINUOUS
62
4
100
AcDbLine
10
32921.820000000000
20
13194.340000000000
30
0.0
11
33259.980000000003
21
13104.219999999999
31
0.0
0
LINE
5
5cb
100
AcDbEntity
8
1-0
6
CONTINUOUS
62
4
100
AcDbLine
10
26235.189999999999
20
15597.170000000000
30
0.0
11
27185.700000000001
21
15151.059999999999
31
0.0
0
LINE
5
5cc
100
AcDbEntity
8
1-0
6
CONTINUOUS
62
4
100
AcDbLine
10
21937.450000000001
20
18363.919999999998
30
0.0
11
24328.259999999998
21
16906.520000000000
31
0.0
0
LINE
5
5cd
100
AcDbEntity
8
1-0
6
CONTINUOUS
62
4
100
AcDbLine
10
26774.169999999998
20
15509.920000000000
30
0.0
11
27170.000000000000
21
16353.330000000000
31
0.0
0
LINE
5
5ce
100
AcDbEntity
8
1-0
6
CONTINUOUS
62
4
100
AcDbLine
10
26615.770000000000
20
15584.260000000000
30
0.0
11
26932.590000000000
21
15435.580000000000
31
0.0
0
LINE
5
5cf
100
AcDbEntity
8
1-0
6
CONTINUOUS
62
4
100
AcDbLine
10
49802.010000000002
20
5449.220000000000
30
0.0
11
48752.730000000003
21
5487.730000000000
31
0.0
0
LINE
5
5d0
100
AcDbEntity
8
1-0
6
CONTINUOUS
62
4
100
AcDbLine
10
26798.570000000000
20
10422.639999999999
30
0.0
11
25773.680000000000
21
10650.879999999999
31
0.0
0
LINE
5
5d1
100
AcDbEntity
8
1-0
6
CONTINUOUS
62
4
100
AcDbLine
10
33074.510000000002
20
8737.060000000000
30
0.0
11
32731.680000000000
21
8807.410000000000
31
0.0
0
LINE
5
5d2
100
AcDbEntity
8
1-0
6
CONTINUOUS
62
4
100
AcDbLine
10
56183.389999999999
20
4559.300000000000
30
0.0
11
55986.480000000003
21
3527.920000000000
31
0.0
0
LINE
5
5d3
100
AcDbEntity
8
1-0
6
CONTINUOUS
62
4
100
AcDbLine
10
26380.840000000000
20
10157.100000000000
30
0.0
11
26039.250000000000
21
10233.180000000000
31
0.0
0
LINE
5
5d4
100
AcDbEntity
8
1-0
6
CONTINUOUS
62
4
100
AcDbLine
10
9511.250000000000
20
17732.790000000001
30
0.0
11
9329.590000000000
21
18766.970000000001
31
0.0
0
LINE
5
5d5
100
AcDbEntity
8
1-0
6
CONTINUOUS
62
4
100
AcDbLine
10
56355.279999999999
20
4526.490000000000
30
0.0
11
56011.519999999997
21
4592.100000000000
31
0.0
0
LINE
5
5d6
100
AcDbEntity
8
1-0
6
CONTINUOUS
62
4
100
AcDbLine
10
8771.110000000001
20
10837.950000000001
30
0.0
11
7925.640000000000
21
11460.600000000000
31
0.0
0
LINE
5
5d7
100
AcDbEntity
8
1-0
6
CONTINUOUS
62
3
100
AcDbLine
10
31514.389999999999
20
14421.020000000000
30
0.0
11
28711.630000000001
21
15412.600000000000
31
0.0
0
LINE
5
5d8
100
AcDbEntity
8
1-0
6
CONTINUOUS
62
3
100
AcDbLine
10
23362.320000000000
20
17143.990000000002
30
0.0
11
18638.020000000000
21
20023.869999999999
31
0.0
0
LINE
5
5d9
100
AcDbEntity
8
1-0
6
CONTINUOUS
62
3
100
AcDbLine
10
1264.050000000000
20
17078.130000000001
30
0.0
11
401.020000000000
21
16934.130000000001
31
0.0
0
LINE
5
5da
100
AcDbEntity
8
1-0
6
CONTINUOUS
62
3
100
AcDbLine
10
49066.330000000002
20
11526.059999999999
30
0.0
11
41185.989999999998
21
12219.360000000001
31
0.0
0
LINE
5
5db
100
AcDbEntity
8
1-0
6
CONTINUOUS
62
3
100
AcDbLine
10
45929.120000000003
20
7180.540000000000
30
0.0
11
41221.449999999997
21
8155.520000000000
31
0.0
0
LINE
5
5dc
100
AcDbEntity
8
1-0
6
CONTINUOUS
62
3
100
AcDbLine
10
35078.019999999997
20
13563.110000000001
30
0.0
11
31514.389999999999
21
14421.020000000000
31
0.0
0
LINE
5
5dd
100
AcDbEntity
8
1-0
6
CONTINUOUS
62
3
100
AcDbLine
10
37749.349999999999
20
13078.370000000001
30
0.0
11
35078.019999999997
21
13563.110000000001
31
0.0
0
LINE
5
5de
100
AcDbEntity
8
1-0
6
CONTINUOUS
62
3
100
AcDbLine
10
6846.300000000000
20
17761.900000000001
30
0.0
11
6340.530000000000
21
17503.480000000000
31
0.0
0
LINE
5
5df
100
AcDbEntity
8
1-0
6
CONTINUOUS
62
3
100
AcDbLine
10
35598.190000000002
20
12170.590000000000
30
0.0
11
31906.480000000000
21
13154.420000000000
31
0.0
0
LINE
5
5e0
100
AcDbEntity
8
1-0
6
CONTINUOUS
62
3
100
AcDbLine
10
58339.190000000002
20
11353.030000000001
30
0.0
11
62530.010000000002
21
11389.590000000000
31
0.0
0
LINE
5
5e1
100
AcDbEntity
8
1-0
6
CONTINUOUS
62
3
100
AcDbLine
10
68609.119999999995
20
26214.290000000001
30
0.0
11
68277.600000000006
21
22235.169999999998
31
0.0
0
LINE
5
5e2
100
AcDbEntity
8
1-0
6
CONTINUOUS
62
3
100
AcDbLine
10
40431.750000000000
20
11323.730000000000
30
0.0
11
35598.190000000002
21
12170.590000000000
31
0.0
0
LINE
5
5e3
100
AcDbEntity
8
1-0
6
CONTINUOUS
62
3
100
AcDbLine
10
6203.570000000000
20
18645.330000000002
30
0.0
11
3076.140000000000
21
17653.080000000002
31
0.0
0
LINE
5
5e4
100
AcDbEntity
8
1-0
6
CONTINUOUS
62
3
100
AcDbLine
10
58092.980000000003
20
10461.790000000001
30
0.0
11
49964.160000000003
21
10517.879999999999
31
0.0
0
LINE
5
5e5
100
AcDbEntity
8
1-0
6
CONTINUOUS
62
3
100
AcDbLine
10
31906.480000000000
20
13154.420000000000
30
0.0
11
28976.700000000001
21
14144.840000000000
31
0.0
0
LINE
5
5e6
100
AcDbEntity
8
1-0
6
CONTINUOUS
62
3
100
AcDbLine
10
29261.730000000000
20
10591.250000000000
30
0.0
11
20481.340000000000
21
12546.700000000001
31
0.0
0
LINE
5
5e7
100
AcDbEntity
8
1-0
6
DASHED2
62
3
100
AcDbLine
10
6718.140000000000
20
18391.509999999998
30
0.0
11
6933.440000000000
21
18182.619999999999
31
0.0
0
LINE
5
5e8
100
AcDbEntity
8
1-0
6
CONTINUOUS
62
3
100
AcDbLine
10
18712.259999999998
20
11515.200000000001
30
0.0
11
15688.770000000000
21
8694.700000000001
31
0.0
0
LINE
5
5e9
100
AcDbEntity
8
1-0
6
CONTINUOUS
62
3
100
AcDbLine
10
6440.930000000000
20
20552.430000000000
30
0.0
11
5299.090000000000
21
20415.470000000001
31
0.0
0
LINE
5
5ea
100
AcDbEntity
8
1-0
6
CONTINUOUS
62
3
100
AcDbLine
10
2161.880000000000
20
16069.950000000001
30
0.0
11
1910.110000000000
21
15813.719999999999
31
0.0
0
LINE
5
5eb
100
AcDbEntity
8
1-0
6
CONTINUOUS
62
3
100
AcDbLine
10
15688.770000000000
20
8694.700000000001
30
0.0
11
15054.889999999999
21
8562.139999999999
31
0.0
0
LINE
5
5ec
100
AcDbEntity
8
1-0
6
CONTINUOUS
62
3
100
AcDbLine
10
7781.810000000000
20
12435.860000000001
30
0.0
11
7899.950000000000
21
13452.940000000001
31
0.0
0
LINE
5
5ed
100
AcDbEntity
8
1-0
6
DASHED2
62
3
100
AcDbLine
10
6933.440000000000
20
18182.619999999999
30
0.0
11
14080.260000000000
21
25548.490000000002
31
0.0
0
LINE
5
5ee
100
AcDbEntity
8
1-0
6
CONTINUOUS
62
3
100
AcDbLine
10
10859.150000000000
20
23639.160000000000
30
0.0
11
11742.600000000000
21
24281.860000000001
31
0.0
0
LINE
5
5ef
100
AcDbEntity
8
1-0
6
CONTINUOUS
62
3
100
AcDbLine
10
12377.580000000000
20
24287.419999999998
30
0.0
11
14038.500000000000
21
23158.880000000001
31
0.0
0
LINE
5
5f0
100
AcDbEntity
8
1-0
6
CONTINUOUS
62
3
100
AcDbLine
10
9201.590000000000
20
24386.660000000000
30
0.0
11
10859.150000000000
21
23639.160000000000
31
0.0
0
LINE
5
5f1
100
AcDbEntity
8
1-0
6
CONTINUOUS
62
3
100
AcDbLine
10
41185.989999999998
20
12219.360000000001
30
0.0
11
37749.349999999999
21
13078.370000000001
31
0.0
0
LINE
5
5f2
100
AcDbEntity
8
1-0
6
CONTINUOUS
62
3
100
AcDbLine
10
14040.700000000001
20
22904.910000000000
30
0.0
11
14682.330000000000
21
22148.439999999999
31
0.0
0
LINE
5
5f3
100
AcDbEntity
8
1-0
6
CONTINUOUS
62
3
100
AcDbLine
10
28711.630000000001
20
15412.600000000000
30
0.0
11
25131.400000000001
21
18175.480000000000
31
0.0
0
LINE
5
5f4
100
AcDbEntity
8
1-0
6
CONTINUOUS
62
3
100
AcDbLine
10
11003.459999999999
20
25451.540000000001
30
0.0
11
12761.250000000000
21
26444.730000000000
31
0.0
0
LINE
5
5f5
100
AcDbEntity
8
1-0
6
CONTINUOUS
62
3
100
AcDbLine
10
11742.600000000000
20
24281.860000000001
30
0.0
11
12377.580000000000
21
24287.419999999998
31
0.0
0
LINE
5
5f6
100
AcDbEntity
8
1-0
6
CONTINUOUS
62
3
100
AcDbLine
10
44925.669999999998
20
37994.440000000002
30
0.0
11
44913.500000000000
21
37617.279999999999
31
0.0
0
LINE
5
5f7
100
AcDbEntity
8
1-0
6
CONTINUOUS
62
3
100
AcDbLine
10
44913.500000000000
20
37617.279999999999
30
0.0
11
44901.349999999999
21
37240.110000000001
31
0.0
0
LINE
5
5f8
100
AcDbEntity
8
1-0
6
CONTINUOUS
62
3
100
AcDbLine
10
44901.349999999999
20
37240.110000000001
30
0.0
11
44889.190000000002
21
36862.940000000002
31
0.0
0
LINE
5
5f9
100
AcDbEntity
8
1-0
6
CONTINUOUS
62
3
100
AcDbLine
10
44889.190000000002
20
36862.940000000002
30
0.0
11
44877.029999999999
21
36485.779999999999
31
0.0
0
LINE
5
5fa
100
AcDbEntity
8
1-0
6
CONTINUOUS
62
3
100
AcDbLine
10
44877.029999999999
20
36485.779999999999
30
0.0
11
44864.889999999999
21
36108.610000000001
31
0.0
0
LINE
5
5fb
100
AcDbEntity
8
1-0
6
CONTINUOUS
62
3
100
AcDbLine
10
44864.889999999999
20
36108.610000000001
30
0.0
11
44852.720000000001
21
35731.449999999997
31
0.0
0
LINE
5
5fc
100
AcDbEntity
8
1-0
6
CONTINUOUS
62
3
100
AcDbLine
10
44852.720000000001
20
35731.449999999997
30
0.0
11
44840.559999999998
21
35354.279999999999
31
0.0
0
LINE
5
5fd
100
AcDbEntity
8
1-0
6
CONTINUOUS
62
3
100
AcDbLine
10
44840.559999999998
20
35354.279999999999
30
0.0
11
44828.400000000001
21
34977.110000000001
31
0.0
0
LINE
5
5fe
100
AcDbEntity
8
1-0
6
CONTINUOUS
62
3
100
AcDbLine
10
44828.400000000001
20
34977.110000000001
30
0.0
11
44816.260000000002
21
34599.940000000002
31
0.0
0
LINE
5
5ff
100
AcDbEntity
8
1-0
6
CONTINUOUS
62
3
100
AcDbLine
10
44816.260000000002
20
34599.940000000002
30
0.0
11
44804.089999999997
21
34222.779999999999
31
0.0
0
LINE
5
600
100
AcDbEntity
8
1-0
6
CONTINUOUS
62
3
100
AcDbLine
10
62615.790000000001
20
59779.190000000002
30
0.0
11
62664.099999999999
21
59280.959999999999
31
0.0
0
LINE
5
601
100
AcDbEntity
8
1-0
6
CONTINUOUS
62
3
100
AcDbLine
10
62664.099999999999
20
59280.959999999999
30
0.0
11
62711.339999999997
21
58782.690000000002
31
0.0
0
LINE
5
602
100
AcDbEntity
8
1-0
6
CONTINUOUS
62
3
100
AcDbLine
10
62711.339999999997
20
58782.690000000002
30
0.0
11
62756.459999999999
21
58284.389999999999
31
0.0
0
LINE
5
603
100
AcDbEntity
8
1-0
6
CONTINUOUS
62
3
100
AcDbLine
10
62756.459999999999
20
58284.389999999999
30
0.0
11
62798.320000000000
21
57785.970000000001
31
0.0
0
LINE
5
604
100
AcDbEntity
8
1-0
6
CONTINUOUS
62
3
100
AcDbLine
10
62798.320000000000
20
57785.970000000001
30
0.0
11
62835.919999999998
21
57287.449999999997
31
0.0
0
LINE
5
605
100
AcDbEntity
8
1-0
6
CONTINUOUS
62
3
100
AcDbLine
10
62835.919999999998
20
57287.449999999997
30
0.0
11
62868.160000000003
21
56788.769999999997
31
0.0
0
LINE
5
606
100
AcDbEntity
8
1-0
6
CONTINUOUS
62
3
100
AcDbLine
10
62868.160000000003
20
56788.769999999997
30
0.0
11
62893.959999999999
21
56289.889999999999
31
0.0
0
LINE
5
607
100
AcDbEntity
8
1-0
6
CONTINUOUS
62
3
100
AcDbLine
10
62893.959999999999
20
56289.889999999999
30
0.0
11
62912.330000000002
21
55790.839999999997
31
0.0
0
LINE
5
608
100
AcDbEntity
8
1-0
6
CONTINUOUS
62
3
100
AcDbLine
10
62912.330000000002
20
55790.839999999997
30
0.0
11
62923.180000000000
21
55291.529999999999
31
0.0
0
LINE
5
609
100
AcDbEntity
8
1-0
6
CONTINUOUS
62
3
100
AcDbLine
10
62923.180000000000
20
55291.529999999999
30
0.0
11
62927.070000000000
21
54792.010000000002
31
0.0
0
LINE
5
60a
100
AcDbEntity
8
1-0
6
CONTINUOUS
62
3
100
AcDbLine
10
62927.070000000000
20
54792.010000000002
30
0.0
11
62924.589999999997
21
54292.339999999997
31
0.0
0
LINE
5
60b
100
AcDbEntity
8
1-0
6
CONTINUOUS
62
3
100
AcDbLine
10
62924.589999999997
20
54292.339999999997
30
0.0
11
62916.370000000003
21
53792.480000000003
31
0.0
0
LINE
5
60c
100
AcDbEntity
8
1-0
6
CONTINUOUS
62
3
100
AcDbLine
10
62916.370000000003
20
53792.480000000003
30
0.0
11
62902.970000000001
21
53292.459999999999
31
0.0
0
LINE
5
60d
100
AcDbEntity
8
1-0
6
CONTINUOUS
62
3
100
AcDbLine
10
62902.970000000001
20
53292.459999999999
30
0.0
11
62885.000000000000
21
52792.279999999999
31
0.0
0
LINE
5
60e
100
AcDbEntity
8
1-0
6
CONTINUOUS
62
3
100
AcDbLine
10
62885.000000000000
20
52792.279999999999
30
0.0
11
62863.059999999998
21
52291.940000000002
31
0.0
0
LINE
5
60f
100
AcDbEntity
8
1-0
6
CONTINUOUS
62
3
100
AcDbLine
10
62863.059999999998
20
52291.940000000002
30
0.0
11
62837.750000000000
21
51791.510000000002
31
0.0
0
LINE
5
610
100
AcDbEntity
8
1-0
6
CONTINUOUS
62
3
100
AcDbLine
10
62837.750000000000
20
51791.510000000002
30
0.0
11
62809.660000000003
21
51290.919999999998
31
0.0
0
LINE
5
611
100
AcDbEntity
8
1-0
6
CONTINUOUS
62
3
100
AcDbLine
10
62809.660000000003
20
51290.919999999998
30
0.0
11
62780.000000000000
21
50790.309999999998
31
0.0
0
LINE
5
612
100
AcDbEntity
8
1-0
6
CONTINUOUS
62
3
100
AcDbLine
10
62780.000000000000
20
50790.309999999998
30
0.0
11
62751.309999999998
21
50289.730000000003
31
0.0
0
LINE
5
613
100
AcDbEntity
8
1-0
6
CONTINUOUS
62
3
100
AcDbLine
10
62751.309999999998
20
50289.730000000003
30
0.0
11
62726.290000000001
21
49789.339999999997
31
0.0
0
LINE
5
614
100
AcDbEntity
8
1-0
6
CONTINUOUS
62
3
100
AcDbLine
10
62726.290000000001
20
49789.339999999997
30
0.0
11
62707.639999999999
21
49289.220000000001
31
0.0
0
LINE
5
615
100
AcDbEntity
8
1-0
6
CONTINUOUS
62
3
100
AcDbLine
10
62707.639999999999
20
49289.220000000001
30
0.0
11
62698.080000000002
21
48789.540000000001
31
0.0
0
LINE
5
616
100
AcDbEntity
8
1-0
6
CONTINUOUS
62
3
100
AcDbLine
10
62698.080000000002
20
48789.540000000001
30
0.0
11
62700.290000000001
21
48290.430000000000
31
0.0
0
LINE
5
617
100
AcDbEntity
8
1-0
6
CONTINUOUS
62
3
100
AcDbLine
10
62700.290000000001
20
48290.430000000000
30
0.0
11
62717.000000000000
21
47791.989999999998
31
0.0
0
LINE
5
618
100
AcDbEntity
8
1-0
6
CONTINUOUS
62
3
100
AcDbLine
10
62717.000000000000
20
47791.989999999998
30
0.0
11
62750.190000000002
21
47294.300000000003
31
0.0
0
LINE
5
619
100
AcDbEntity
8
1-0
6
CONTINUOUS
62
3
100
AcDbLine
10
62750.190000000002
20
47294.300000000003
30
0.0
11
62797.440000000002
21
46797.239999999998
31
0.0
0
LINE
5
61a
100
AcDbEntity
8
1-0
6
CONTINUOUS
62
3
100
AcDbLine
10
62797.440000000002
20
46797.239999999998
30
0.0
11
62854.589999999997
21
46300.559999999998
31
0.0
0
LINE
5
61b
100
AcDbEntity
8
1-0
6
CONTINUOUS
62
3
100
AcDbLine
10
62854.589999999997
20
46300.559999999998
30
0.0
11
62917.449999999997
21
45804.089999999997
31
0.0
0
LINE
5
61c
100
AcDbEntity
8
1-0
6
CONTINUOUS
62
3
100
AcDbLine
10
62917.449999999997
20
45804.089999999997
30
0.0
11
62981.849999999999
21
45307.489999999998
31
0.0
0
LINE
5
61d
100
AcDbEntity
8
1-0
6
CONTINUOUS
62
3
100
AcDbLine
10
62981.849999999999
20
45307.489999999998
30
0.0
11
63043.610000000001
21
44810.639999999999
31
0.0
0
LINE
5
61e
100
AcDbEntity
8
1-0
6
CONTINUOUS
62
3
100
AcDbLine
10
63043.610000000001
20
44810.639999999999
30
0.0
11
63098.540000000001
21
44313.199999999997
31
0.0
0
LINE
5
61f
100
AcDbEntity
8
1-0
6
CONTINUOUS
62
3
100
AcDbLine
10
63098.540000000001
20
44313.199999999997
30
0.0
11
63142.470000000001
21
43815.040000000001
31
0.0
0
LINE
5
620
100
AcDbEntity
8
1-0
6
CONTINUOUS
62
3
100
AcDbLine
10
63142.470000000001
20
43815.040000000001
30
0.0
11
63172.809999999998
21
43315.980000000003
31
0.0
0
LINE
5
621
100
AcDbEntity
8
1-0
6
CONTINUOUS
62
3
100
AcDbLine
10
63172.809999999998
20
43315.980000000003
30
0.0
11
63190.550000000003
21
42816.239999999998
31
0.0
0
LINE
5
622
100
AcDbEntity
8
1-0
6
CONTINUOUS
62
3
100
AcDbLine
10
63190.550000000003
20
42816.239999999998
30
0.0
11
63197.239999999998
21
42316.040000000001
31
0.0
0
LINE
5
623
100
AcDbEntity
8
1-0
6
CONTINUOUS
62
3
100
AcDbLine
10
63197.239999999998
20
42316.040000000001
30
0.0
11
63194.400000000001
21
41815.589999999997
31
0.0
0
LINE
5
624
100
AcDbEntity
8
1-0
6
CONTINUOUS
62
3
100
AcDbLine
10
63194.400000000001
20
41815.589999999997
30
0.0
11
63183.580000000002
21
41315.110000000001
31
0.0
0
LINE
5
625
100
AcDbEntity
8
1-0
6
CONTINUOUS
62
3
100
AcDbLine
10
63183.580000000002
20
41315.110000000001
30
0.0
11
63166.300000000003
21
40814.879999999997
31
0.0
0
LINE
5
626
100
AcDbEntity
8
1-0
6
CONTINUOUS
62
3
100
AcDbLine
10
63166.300000000003
20
40814.879999999997
30
0.0
11
63144.199999999997
21
40315.029999999999
31
0.0
0
LINE
5
627
100
AcDbEntity
8
1-0
6
CONTINUOUS
62
3
100
AcDbLine
10
63144.199999999997
20
40315.029999999999
30
0.0
11
63119.339999999997
21
39815.559999999998
31
0.0
0
LINE
5
628
100
AcDbEntity
8
1-0
6
CONTINUOUS
62
3
100
AcDbLine
10
63119.339999999997
20
39815.559999999998
30
0.0
11
63094.070000000000
21
39316.230000000003
31
0.0
0
LINE
5
629
100
AcDbEntity
8
1-0
6
CONTINUOUS
62
3
100
AcDbLine
10
63094.070000000000
20
39316.230000000003
30
0.0
11
63070.720000000001
21
38816.919999999998
31
0.0
0
LINE
5
62a
100
AcDbEntity
8
1-0
6
CONTINUOUS
62
3
100
AcDbLine
10
63070.720000000001
20
38816.919999999998
30
0.0
11
63051.570000000000
21
38317.519999999997
31
0.0
0
LINE
5
62b
100
AcDbEntity
8
1-0
6
CONTINUOUS
62
3
100
AcDbLine
10
63051.570000000000
20
38317.519999999997
30
0.0
11
63037.860000000001
21
37817.879999999997
31
0.0
0
LINE
5
62c
100
AcDbEntity
8
1-0
6
CONTINUOUS
62
3
100
AcDbLine
10
63037.860000000001
20
37817.879999999997
30
0.0
11
63028.620000000003
21
37318.000000000000
31
0.0
0
LINE
5
62d
100
AcDbEntity
8
1-0
6
CONTINUOUS
62
3
100
AcDbLine
10
63028.620000000003
20
37318.000000000000
30
0.0
11
63022.750000000000
21
36818.000000000000
31
0.0
0
LINE
5
62e
100
AcDbEntity
8
1-0
6
CONTINUOUS
62
3
100
AcDbLine
10
63022.750000000000
20
36818.000000000000
30
0.0
11
63019.070000000000
21
36317.910000000003
31
0.0
0
LINE
5
62f
100
AcDbEntity
8
1-0
6
CONTINUOUS
62
3
100
AcDbLine
10
63019.070000000000
20
36317.910000000003
30
0.0
11
63016.430000000000
21
35817.720000000001
31
0.0
0
LINE
5
630
100
AcDbEntity
8
1-0
6
CONTINUOUS
62
3
100
AcDbLine
10
63016.430000000000
20
35817.720000000001
30
0.0
11
63013.669999999998
21
35317.500000000000
31
0.0
0
LINE
5
631
100
AcDbEntity
8
1-0
6
CONTINUOUS
62
3
100
AcDbLine
10
63013.669999999998
20
35317.500000000000
30
0.0
11
63009.660000000003
21
34817.360000000001
31
0.0
0
LINE
5
632
100
AcDbEntity
8
1-0
6
CONTINUOUS
62
3
100
AcDbLine
10
63009.660000000003
20
34817.360000000001
30
0.0
11
63003.220000000001
21
34317.220000000001
31
0.0
0
LINE
5
633
100
AcDbEntity
8
1-0
6
CONTINUOUS
62
3
100
AcDbLine
10
63003.220000000001
20
34317.220000000001
30
0.0
11
62993.220000000001
21
33817.239999999998
31
0.0
0
LINE
5
634
100
AcDbEntity
8
1-0
6
CONTINUOUS
62
3
100
AcDbLine
10
62993.220000000001
20
33817.239999999998
30
0.0
11
62978.500000000000
21
33317.379999999997
31
0.0
0
LINE
5
635
100
AcDbEntity
8
1-0
6
CONTINUOUS
62
3
100
AcDbLine
10
62978.500000000000
20
33317.379999999997
30
0.0
11
62957.910000000003
21
32817.750000000000
31
0.0
0
LINE
5
636
100
AcDbEntity
8
1-0
6
CONTINUOUS
62
3
100
AcDbLine
10
62957.910000000003
20
32817.750000000000
30
0.0
11
62930.300000000003
21
32318.340000000000
31
0.0
0
LINE
5
637
100
AcDbEntity
8
1-0
6
CONTINUOUS
62
3
100
AcDbLine
10
62930.300000000003
20
32318.340000000000
30
0.0
11
62894.500000000000
21
31819.209999999999
31
0.0
0
LINE
5
638
100
AcDbEntity
8
1-0
6
CONTINUOUS
62
3
100
AcDbLine
10
62894.500000000000
20
31819.209999999999
30
0.0
11
62849.400000000001
21
31320.450000000001
31
0.0
0
LINE
5
639
100
AcDbEntity
8
1-0
6
CONTINUOUS
62
3
100
AcDbLine
10
62849.400000000001
20
31320.450000000001
30
0.0
11
62796.430000000000
21
30821.939999999999
31
0.0
0
LINE
5
63a
100
AcDbEntity
8
1-0
6
CONTINUOUS
62
3
100
AcDbLine
10
62796.430000000000
20
30821.939999999999
30
0.0
11
62741.639999999999
21
30323.580000000002
31
0.0
0
LINE
5
63b
100
AcDbEntity
8
1-0
6
CONTINUOUS
62
3
100
AcDbLine
10
62741.639999999999
20
30323.580000000002
30
0.0
11
62691.570000000000
21
29825.189999999999
31
0.0
0
LINE
5
63c
100
AcDbEntity
8
1-0
6
CONTINUOUS
62
3
100
AcDbLine
10
62691.570000000000
20
29825.189999999999
30
0.0
11
62652.739999999998
21
29326.599999999999
31
0.0
0
LINE
5
63d
100
AcDbEntity
8
1-0
6
CONTINUOUS
62
3
100
AcDbLine
10
62652.739999999998
20
29326.599999999999
30
0.0
11
62631.669999999998
21
28827.630000000001
31
0.0
0
LINE
5
63e
100
AcDbEntity
8
1-0
6
CONTINUOUS
62
3
100
AcDbLine
10
62631.669999999998
20
28827.630000000001
30
0.0
11
62634.900000000001
21
28328.099999999999
31
0.0
0
LINE
5
63f
100
AcDbEntity
8
1-0
6
CONTINUOUS
62
3
100
AcDbLine
10
62634.900000000001
20
28328.099999999999
30
0.0
11
62668.209999999999
21
27828.259999999998
31
0.0
0
LINE
5
640
100
AcDbEntity
8
1-0
6
CONTINUOUS
62
3
100
AcDbLine
10
62668.209999999999
20
27828.259999999998
30
0.0
11
62733.480000000003
21
27330.470000000001
31
0.0
0
LINE
5
641
100
AcDbEntity
8
1-0
6
CONTINUOUS
62
3
100
AcDbLine
10
62733.480000000003
20
27330.470000000001
30
0.0
11
62831.279999999999
21
26837.849999999999
31
0.0
0
LINE
5
642
100
AcDbEntity
8
1-0
6
CONTINUOUS
62
3
100
AcDbLine
10
62831.279999999999
20
26837.849999999999
30
0.0
11
62962.220000000001
21
26353.580000000002
31
0.0
0
LINE
5
643
100
AcDbEntity
8
1-0
6
CONTINUOUS
62
3
100
AcDbLine
10
62962.220000000001
20
26353.580000000002
30
0.0
11
63126.199999999997
21
25880.340000000000
31
0.0
0
LINE
5
644
100
AcDbEntity
8
1-0
6
CONTINUOUS
62
3
100
AcDbLine
10
63126.199999999997
20
25880.340000000000
30
0.0
11
63309.709999999999
21
25414.730000000000
31
0.0
0
LINE
5
645
100
AcDbEntity
8
1-0
6
CONTINUOUS
62
3
100
AcDbLine
10
63309.709999999999
20
25414.730000000000
30
0.0
11
63486.449999999997
21
24947.320000000000
31
0.0
0
LINE
5
646
100
AcDbEntity
8
1-0
6
CONTINUOUS
62
3
100
AcDbLine
10
63486.449999999997
20
24947.320000000000
30
0.0
11
63631.320000000000
21
24469.090000000000
31
0.0
0
LINE
5
647
100
AcDbEntity
8
1-0
6
CONTINUOUS
62
3
100
AcDbLine
10
63631.320000000000
20
24469.090000000000
30
0.0
11
63748.370000000003
21
23981.540000000001
31
0.0
0
LINE
5
648
100
AcDbEntity
8
1-0
6
CONTINUOUS
62
3
100
AcDbLine
10
63748.370000000003
20
23981.540000000001
30
0.0
11
63867.260000000002
21
23495.570000000000
31
0.0
0
LINE
5
649
100
AcDbEntity
8
1-0
6
CONTINUOUS
62
3
100
AcDbLine
10
63867.260000000002
20
23495.570000000000
30
0.0
11
64018.059999999998
21
23022.099999999999
31
0.0
0
LINE
5
64a
100
AcDbEntity
8
1-0
6
CONTINUOUS
62
3
100
AcDbLine
10
64018.059999999998
20
23022.099999999999
30
0.0
11
64211.519999999997
21
22564.720000000001
31
0.0
0
LINE
5
64b
100
AcDbEntity
8
1-0
6
CONTINUOUS
62
3
100
AcDbLine
10
64211.519999999997
20
22564.720000000001
30
0.0
11
64433.870000000003
21
22117.520000000000
31
0.0
0
LINE
5
64c
100
AcDbEntity
8
1-0
6
CONTINUOUS
62
3
100
AcDbLine
10
64433.870000000003
20
22117.520000000000
30
0.0
11
64669.800000000003
21
21673.980000000000
31
0.0
0
LINE
5
64d
100
AcDbEntity
8
1-0
6
CONTINUOUS
62
3
100
AcDbLine
10
64669.800000000003
20
21673.980000000000
30
0.0
11
64903.959999999999
21
21227.660000000000
31
0.0
0
LINE
5
64e
100
AcDbEntity
8
1-0
6
CONTINUOUS
62
3
100
AcDbLine
10
64903.959999999999
20
21227.660000000000
30
0.0
11
65122.559999999998
21
20772.799999999999
31
0.0
0
LINE
5
64f
100
AcDbEntity
8
1-0
6
CONTINUOUS
62
3
100
AcDbLine
10
65122.559999999998
20
20772.799999999999
30
0.0
11
65331.250000000000
21
20314.060000000001
31
0.0
0
LINE
5
650
100
AcDbEntity
8
1-0
6
CONTINUOUS
62
3
100
AcDbLine
10
65331.250000000000
20
20314.060000000001
30
0.0
11
65549.320000000007
21
19863.340000000000
31
0.0
0
LINE
5
651
100
AcDbEntity
8
1-0
6
CONTINUOUS
62
3
100
AcDbLine
10
65549.320000000007
20
19863.340000000000
30
0.0
11
65796.330000000002
21
19432.669999999998
31
0.0
0
LINE
5
652
100
AcDbEntity
8
1-0
6
CONTINUOUS
62
3
100
AcDbLine
10
65796.330000000002
20
19432.669999999998
30
0.0
11
66089.809999999998
21
19032.810000000001
31
0.0
0
LINE
5
653
100
AcDbEntity
8
1-0
6
CONTINUOUS
62
3
100
AcDbLine
10
66089.809999999998
20
19032.810000000001
30
0.0
11
66422.619999999995
21
18658.720000000001
31
0.0
0
LINE
5
654
100
AcDbEntity
8
1-0
6
CONTINUOUS
62
3
100
AcDbLine
10
66422.619999999995
20
18658.720000000001
30
0.0
11
66659.929999999993
21
18410.889999999999
31
0.0
0
LINE
5
655
100
AcDbEntity
8
1-0
6
DOT
62
4
100
AcDbLine
10
73336.360000000001
20
62460.110000000001
30
0.0
11
73449.820000000007
21
62074.000000000000
31
0.0
0
LINE
5
656
100
AcDbEntity
8
1-0
6
DOT
62
4
100
AcDbLine
10
73449.820000000007
20
62074.000000000000
30
0.0
11
73573.529999999999
21
61695.709999999999
31
0.0
0
LINE
5
657
100
AcDbEntity
8
1-0
6
DOT
62
4
100
AcDbLine
10
73573.529999999999
20
61695.709999999999
30
0.0
11
73717.779999999999
21
61333.129999999997
31
0.0
0
LINE
5
658
100
AcDbEntity
8
1-0
6
DOT
62
4
100
AcDbLine
10
73717.779999999999
20
61333.129999999997
30
0.0
11
73892.880000000005
21
60994.050000000003
31
0.0
0
LINE
5
659
100
AcDbEntity
8
1-0
6
DOT
62
4
100
AcDbLine
10
73892.880000000005
20
60994.050000000003
30
0.0
11
74108.940000000002
21
60686.279999999999
31
0.0
0
LINE
5
65a
100
AcDbEntity
8
1-0
6
DOT
62
4
100
AcDbLine
10
74108.940000000002
20
60686.279999999999
30
0.0
11
74368.600000000006
21
60411.769999999997
31
0.0
0
LINE
5
65b
100
AcDbEntity
8
1-0
6
DOT
62
4
100
AcDbLine
10
74368.600000000006
20
60411.769999999997
30
0.0
11
74663.789999999994
21
60164.400000000001
31
0.0
0
LINE
5
65c
100
AcDbEntity
8
1-0
6
DOT
62
4
100
AcDbLine
10
74663.789999999994
20
60164.400000000001
30
0.0
11
74985.669999999998
21
59937.410000000003
31
0.0
0
LINE
5
65d
100
AcDbEntity
8
1-0
6
DOT
62
4
100
AcDbLine
10
74985.669999999998
20
59937.410000000003
30
0.0
11
75325.339999999997
21
59723.970000000001
31
0.0
0
LINE
5
65e
100
AcDbEntity
8
1-0
6
DOT
62
4
100
AcDbLine
10
75325.339999999997
20
59723.970000000001
30
0.0
11
75673.880000000005
21
59517.330000000002
31
0.0
0
LINE
5
65f
100
AcDbEntity
8
1-0
6
DOT
62
4
100
AcDbLine
10
74964.610000000001
20
46604.180000000000
30
0.0
11
74923.330000000002
21
46103.910000000003
31
0.0
0
LINE
5
660
100
AcDbEntity
8
1-0
6
DOT
62
4
100
AcDbLine
10
74923.330000000002
20
46103.910000000003
30
0.0
11
74882.949999999997
21
45603.669999999998
31
0.0
0
LINE
5
661
100
AcDbEntity
8
1-0
6
DOT
62
4
100
AcDbLine
10
74882.949999999997
20
45603.669999999998
30
0.0
11
74844.460000000006
21
45103.480000000003
31
0.0
0
LINE
5
662
100
AcDbEntity
8
1-0
6
DOT
62
4
100
AcDbLine
10
74844.460000000006
20
45103.480000000003
30
0.0
11
74808.720000000001
21
44603.389999999999
31
0.0
0
LINE
5
663
100
AcDbEntity
8
1-0
6
DOT
62
4
100
AcDbLine
10
74808.720000000001
20
44603.389999999999
30
0.0
11
74776.710000000006
21
44103.419999999998
31
0.0
0
LINE
5
664
100
AcDbEntity
8
1-0
6
DOT
62
4
100
AcDbLine
10
74776.710000000006
20
44103.419999999998
30
0.0
11
74749.350000000006
21
43603.580000000002
31
0.0
0
LINE
5
665
100
AcDbEntity
8
1-0
6
DOT
62
4
100
AcDbLine
10
74749.350000000006
20
43603.580000000002
30
0.0
11
74727.559999999998
21
43103.910000000003
31
0.0
0
LINE
5
666
100
AcDbEntity
8
1-0
6
DOT
62
4
100
AcDbLine
10
74727.559999999998
20
43103.910000000003
30
0.0
11
74712.250000000000
21
42604.459999999999
31
0.0
0
LINE
5
667
100
AcDbEntity
8
1-0
6
DOT
62
4
100
AcDbLine
10
74712.250000000000
20
42604.459999999999
30
0.0
11
74704.380000000005
21
42105.250000000000
31
0.0
0
LINE
5
668
100
AcDbEntity
8
1-0
6
DOT
62
4
100
AcDbLine
10
74704.380000000005
20
42105.250000000000
30
0.0
11
74704.869999999995
21
41606.290000000001
31
0.0
0
LINE
5
669
100
AcDbEntity
8
1-0
6
DOT
62
4
100
AcDbLine
10
74704.869999999995
20
41606.290000000001
30
0.0
11
74714.630000000005
21
41107.629999999997
31
0.0
0
LINE
5
66a
100
AcDbEntity
8
1-0
6
DOT
62
4
100
AcDbLine
10
74714.630000000005
20
41107.629999999997
30
0.0
11
74734.619999999995
21
40609.279999999999
31
0.0
0
LINE
5
66b
100
AcDbEntity
8
1-0
6
DOT
62
4
100
AcDbLine
10
74734.619999999995
20
40609.279999999999
30
0.0
11
74765.490000000005
21
40111.300000000003
31
0.0
0
LINE
5
66c
100
AcDbEntity
8
1-0
6
DOT
62
4
100
AcDbLine
10
74765.490000000005
20
40111.300000000003
30
0.0
11
74807.360000000001
21
39613.800000000003
31
0.0
0
LINE
5
66d
100
AcDbEntity
8
1-0
6
DOT
62
4
100
AcDbLine
10
74807.360000000001
20
39613.800000000003
30
0.0
11
74860.300000000003
21
39116.879999999997
31
0.0
0
LINE
5
66e
100
AcDbEntity
8
1-0
6
DOT
62
4
100
AcDbLine
10
74860.300000000003
20
39116.879999999997
30
0.0
11
74924.360000000001
21
38620.669999999998
31
0.0
0
LINE
5
66f
100
AcDbEntity
8
1-0
6
DOT
62
4
100
AcDbLine
10
74924.360000000001
20
38620.669999999998
30
0.0
11
74999.610000000001
21
38125.209999999999
31
0.0
0
LINE
5
670
100
AcDbEntity
8
1-0
6
DOT
62
4
100
AcDbLine
10
74999.610000000001
20
38125.209999999999
30
0.0
11
75086.130000000005
21
37630.650000000001
31
0.0
0
LINE
5
671
100
AcDbEntity
8
1-0
6
DOT
62
4
100
AcDbLine
10
75086.130000000005
20
37630.650000000001
30
0.0
11
75183.949999999997
21
37137.110000000001
31
0.0
0
LINE
5
672
100
AcDbEntity
8
1-0
6
DOT
62
4
100
AcDbLine
10
75183.949999999997
20
37137.110000000001
30
0.0
11
75294.279999999999
21
36645.510000000002
31
0.0
0
LINE
5
673
100
AcDbEntity
8
1-0
6
DOT
62
4
100
AcDbLine
10
75294.279999999999
20
36645.510000000002
30
0.0
11
75420.470000000001
21
36158.330000000002
31
0.0
0
LINE
5
674
100
AcDbEntity
8
1-0
6
DOT
62
4
100
AcDbLine
10
75420.470000000001
20
36158.330000000002
30
0.0
11
75566.089999999997
21
35678.220000000001
31
0.0
0
LINE
5
675
100
AcDbEntity
8
1-0
6
DOT
62
4
100
AcDbLine
10
75566.089999999997
20
35678.220000000001
30
0.0
11
75734.750000000000
21
35207.849999999999
31
0.0
0
LINE
5
676
100
AcDbEntity
8
1-0
6
DOT
62
4
100
AcDbLine
10
75734.750000000000
20
35207.849999999999
30
0.0
11
75929.990000000005
21
34749.910000000003
31
0.0
0
LINE
5
677
100
AcDbEntity
8
1-0
6
DOT
62
4
100
AcDbLine
10
75929.990000000005
20
34749.910000000003
30
0.0
11
76154.740000000005
21
34306.610000000001
31
0.0
0
LINE
5
678
100
AcDbEntity
8
1-0
6
DOT
62
4
100
AcDbLine
10
76154.740000000005
20
34306.610000000001
30
0.0
11
76407.240000000005
21
33877.660000000003
31
0.0
0
LINE
5
679
100
AcDbEntity
8
1-0
6
DOT
62
4
100
AcDbLine
10
76407.240000000005
20
33877.660000000003
30
0.0
11
76683.740000000005
21
33461.540000000001
31
0.0
0
LINE
5
67a
100
AcDbEntity
8
1-0
6
DOT
62
4
100
AcDbLine
10
76683.740000000005
20
33461.540000000001
30
0.0
11
76980.470000000001
21
33056.790000000001
31
0.0
0
LINE
5
67b
100
AcDbEntity
8
1-0
6
DOT
62
4
100
AcDbLine
10
76980.470000000001
20
33056.790000000001
30
0.0
11
77293.660000000003
21
32661.889999999999
31
0.0
0
LINE
5
67c
100
AcDbEntity
8
1-0
6
DOT
62
4
100
AcDbLine
10
77293.660000000003
20
32661.889999999999
30
0.0
11
77619.580000000002
21
32275.389999999999
31
0.0
0
LINE
5
67d
100
AcDbEntity
8
1-0
6
DOT
62
4
100
AcDbLine
10
77619.580000000002
20
32275.389999999999
30
0.0
11
77954.449999999997
21
31895.810000000001
31
0.0
0
LINE
5
67e
100
AcDbEntity
8
1-0
6
DOT
62
4
100
AcDbLine
10
77954.449999999997
20
31895.810000000001
30
0.0
11
78294.539999999994
21
31521.669999999998
31
0.0
0
LINE
5
67f
100
AcDbEntity
8
1-0
6
DOT
62
4
100
AcDbLine
10
78294.539999999994
20
31521.669999999998
30
0.0
11
78636.059999999998
21
31151.459999999999
31
0.0
0
LINE
5
680
100
AcDbEntity
8
1-0
6
DOT
62
4
100
AcDbLine
10
78636.059999999998
20
31151.459999999999
30
0.0
11
78975.289999999994
21
30783.720000000001
31
0.0
0
LINE
5
681
100
AcDbEntity
8
1-0
6
DOT
62
4
100
AcDbLine
10
78975.289999999994
20
30783.720000000001
30
0.0
11
79308.550000000003
21
30416.990000000002
31
0.0
0
LINE
5
682
100
AcDbEntity
8
1-0
6
DOT
62
4
100
AcDbLine
10
79308.550000000003
20
30416.990000000002
30
0.0
11
79636.839999999997
21
30049.740000000002
31
0.0
0
LINE
5
683
100
AcDbEntity
8
1-0
6
DOT
62
4
100
AcDbLine
10
79636.839999999997
20
30049.740000000002
30
0.0
11
79967.179999999993
21
29680.599999999999
31
0.0
0
LINE
5
684
100
AcDbEntity
8
1-0
6
DOT
62
4
100
AcDbLine
10
79967.179999999993
20
29680.599999999999
30
0.0
11
80306.979999999996
21
29308.040000000001
31
0.0
0
LINE
5
685
100
AcDbEntity
8
1-0
6
DOT
62
4
100
AcDbLine
10
80306.979999999996
20
29308.040000000001
30
0.0
11
80663.639999999999
21
28930.970000000001
31
0.0
0
LINE
5
686
100
AcDbEntity
8
1-0
6
DOT
62
4
100
AcDbLine
10
80663.639999999999
20
28930.970000000001
30
0.0
11
81041.990000000005
21
28563.630000000001
31
0.0
0
LINE
5
687
100
AcDbEntity
8
1-0
6
DOT
62
4
100
AcDbLine
10
81041.990000000005
20
28563.630000000001
30
0.0
11
81443.240000000005
21
28242.520000000000
31
0.0
0
LINE
5
688
100
AcDbEntity
8
1-0
6
DOT
62
4
100
AcDbLine
10
81443.240000000005
20
28242.520000000000
30
0.0
11
81868.279999999999
21
28006.009999999998
31
0.0
0
LINE
5
689
100
AcDbEntity
8
1-0
6
DOT
62
4
100
AcDbLine
10
81868.279999999999
20
28006.009999999998
30
0.0
11
82317.690000000002
21
27890.930000000000
31
0.0
0
LINE
5
68a
100
AcDbEntity
8
1-0
6
DOT
62
4
100
AcDbLine
10
82317.690000000002
20
27890.930000000000
30
0.0
11
82785.970000000001
21
27905.980000000000
31
0.0
0
LINE
5
68b
100
AcDbEntity
8
1-0
6
DOT
62
4
100
AcDbLine
10
82785.970000000001
20
27905.980000000000
30
0.0
11
83262.130000000005
21
28034.419999999998
31
0.0
0
LINE
5
68c
100
AcDbEntity
8
1-0
6
DOT
62
4
100
AcDbLine
10
83262.130000000005
20
28034.419999999998
30
0.0
11
83734.970000000001
21
28258.730000000000
31
0.0
0
LINE
5
68d
100
AcDbEntity
8
1-0
6
DOT
62
4
100
AcDbLine
10
83734.970000000001
20
28258.730000000000
30
0.0
11
84193.320000000007
21
28561.220000000001
31
0.0
0
LINE
5
68e
100
AcDbEntity
8
1-0
6
DOT
62
4
100
AcDbLine
10
84193.320000000007
20
28561.220000000001
30
0.0
11
84625.979999999996
21
28924.349999999999
31
0.0
0
LINE
5
68f
100
AcDbEntity
8
1-0
6
DOT
62
4
100
AcDbLine
10
84625.979999999996
20
28924.349999999999
30
0.0
11
85021.759999999995
21
29330.470000000001
31
0.0
0
LINE
5
690
100
AcDbEntity
8
1-0
6
DOT
62
4
100
AcDbLine
10
85021.759999999995
20
29330.470000000001
30
0.0
11
85369.529999999999
21
29762.020000000000
31
0.0
0
LINE
5
691
100
AcDbEntity
8
1-0
6
DOT
62
4
100
AcDbLine
10
85369.529999999999
20
29762.020000000000
30
0.0
11
85666.589999999997
21
30202.880000000001
31
0.0
0
LINE
5
692
100
AcDbEntity
8
1-0
6
DOT
62
4
100
AcDbLine
10
85666.589999999997
20
30202.880000000001
30
0.0
11
85932.729999999996
21
30640.840000000000
31
0.0
0
LINE
5
693
100
AcDbEntity
8
1-0
6
DOT
62
4
100
AcDbLine
10
85932.729999999996
20
30640.840000000000
30
0.0
11
86191.210000000006
21
31064.330000000002
31
0.0
0
LINE
5
694
100
AcDbEntity
8
1-0
6
DOT
62
4
100
AcDbLine
10
86191.210000000006
20
31064.330000000002
30
0.0
11
86465.389999999999
21
31461.730000000000
31
0.0
0
LINE
5
695
100
AcDbEntity
8
1-0
6
DOT
62
4
100
AcDbLine
10
86465.389999999999
20
31461.730000000000
30
0.0
11
86778.509999999995
21
31821.500000000000
31
0.0
0
LINE
5
696
100
AcDbEntity
8
1-0
6
DOT
62
4
100
AcDbLine
10
86778.509999999995
20
31821.500000000000
30
0.0
11
87148.309999999998
21
32135.189999999999
31
0.0
0
LINE
5
697
100
AcDbEntity
8
1-0
6
DOT
62
4
100
AcDbLine
10
87148.309999999998
20
32135.189999999999
30
0.0
11
87565.220000000001
21
32409.389999999999
31
0.0
0
LINE
5
698
100
AcDbEntity
8
1-0
6
DOT
62
4
100
AcDbLine
10
87565.220000000001
20
32409.389999999999
30
0.0
11
88011.649999999994
21
32655.240000000002
31
0.0
0
LINE
5
699
100
AcDbEntity
8
1-0
6
DOT
62
4
100
AcDbLine
10
88011.649999999994
20
32655.240000000002
30
0.0
11
88469.979999999996
21
32883.849999999999
31
0.0
0
LINE
5
69a
100
AcDbEntity
8
1-0
6
DOT
62
4
100
AcDbLine
10
88469.979999999996
20
32883.849999999999
30
0.0
11
88925.289999999994
21
33104.820000000000
31
0.0
0
LINE
5
69b
100
AcDbEntity
8
1-0
6
DOT
62
4
100
AcDbLine
10
88925.289999999994
20
33104.820000000000
30
0.0
11
89376.720000000001
21
33319.889999999999
31
0.0
0
LINE
5
69c
100
AcDbEntity
8
1-0
6
DOT
62
4
100
AcDbLine
10
89376.720000000001
20
33319.889999999999
30
0.0
11
89828.360000000001
21
33528.010000000002
31
0.0
0
LINE
5
69d
100
AcDbEntity
8
1-0
6
DOT
62
4
100
AcDbLine
10
89828.360000000001
20
33528.010000000002
30
0.0
11
90284.130000000005
21
33728.209999999999
31
0.0
0
LINE
5
69e
100
AcDbEntity
8
1-0
6
DOT
62
4
100
AcDbLine
10
90284.130000000005
20
33728.209999999999
30
0.0
11
90747.889999999999
21
33919.269999999997
31
0.0
0
LINE
5
69f
100
AcDbEntity
8
1-0
6
DOT
62
4
100
AcDbLine
10
90747.889999999999
20
33919.269999999997
30
0.0
11
91220.350000000006
21
34096.650000000001
31
0.0
0
LINE
5
6a0
100
AcDbEntity
8
1-0
6
DOT
62
4
100
AcDbLine
10
91220.350000000006
20
34096.650000000001
30
0.0
11
91700.059999999998
21
34253.269999999997
31
0.0
0
LINE
5
6a1
100
AcDbEntity
8
1-0
6
DOT
62
4
100
AcDbLine
10
91700.059999999998
20
34253.269999999997
30
0.0
11
92185.320000000007
21
34381.959999999999
31
0.0
0
LINE
5
6a2
100
AcDbEntity
8
1-0
6
DOT
62
4
100
AcDbLine
10
92185.320000000007
20
34381.959999999999
30
0.0
11
92674.580000000002
21
34475.519999999997
31
0.0
0
LINE
5
6a3
100
AcDbEntity
8
1-0
6
DOT
62
4
100
AcDbLine
10
92674.580000000002
20
34475.519999999997
30
0.0
11
93166.210000000006
21
34527.070000000000
31
0.0
0
LINE
5
6a4
100
AcDbEntity
8
1-0
6
DOT
62
4
100
AcDbLine
10
93166.210000000006
20
34527.070000000000
30
0.0
11
93659.289999999994
21
34535.919999999998
31
0.0
0
LINE
5
6a5
100
AcDbEntity
8
1-0
6
DOT
62
4
100
AcDbLine
10
93659.289999999994
20
34535.919999999998
30
0.0
11
94153.350000000006
21
34507.559999999998
31
0.0
0
LINE
5
6a6
100
AcDbEntity
8
1-0
6
DOT
62
4
100
AcDbLine
10
94153.350000000006
20
34507.559999999998
30
0.0
11
94648.020000000004
21
34447.730000000003
31
0.0
0
LINE
5
6a7
100
AcDbEntity
8
1-0
6
DOT
62
4
100
AcDbLine
10
94648.020000000004
20
34447.730000000003
30
0.0
11
95142.960000000006
21
34362.120000000003
31
0.0
0
LINE
5
6a8
100
AcDbEntity
8
1-0
6
DOT
62
4
100
AcDbLine
10
95142.960000000006
20
34362.120000000003
30
0.0
11
95637.750000000000
21
34256.459999999999
31
0.0
0
LINE
5
6a9
100
AcDbEntity
8
1-0
6
DOT
62
4
100
AcDbLine
10
95637.750000000000
20
34256.459999999999
30
0.0
11
96132.000000000000
21
34136.540000000001
31
0.0
0
LINE
5
6aa
100
AcDbEntity
8
1-0
6
DOT
62
4
100
AcDbLine
10
96132.000000000000
20
34136.540000000001
30
0.0
11
96625.410000000003
21
34008.029999999999
31
0.0
0
LINE
5
6ab
100
AcDbEntity
8
1-0
6
DOT
62
4
100
AcDbLine
10
96625.410000000003
20
34008.029999999999
30
0.0
11
97117.520000000004
21
33876.699999999997
31
0.0
0
LINE
5
6ac
100
AcDbEntity
8
1-0
6
DOT
62
4
100
AcDbLine
10
97117.520000000004
20
33876.699999999997
30
0.0
11
97607.979999999996
21
33748.260000000002
31
0.0
0
LINE
5
6ad
100
AcDbEntity
8
1-0
6
DOT
62
4
100
AcDbLine
10
97607.979999999996
20
33748.260000000002
30
0.0
11
98096.419999999998
21
33628.320000000000
31
0.0
0
LINE
5
6ae
100
AcDbEntity
8
1-0
6
DOT
62
4
100
AcDbLine
10
98096.419999999998
20
33628.320000000000
30
0.0
11
98583.080000000002
21
33518.709999999999
31
0.0
0
LINE
5
6af
100
AcDbEntity
8
1-0
6
DOT
62
4
100
AcDbLine
10
98583.080000000002
20
33518.709999999999
30
0.0
11
99068.929999999993
21
33416.349999999999
31
0.0
0
LINE
5
6b0
100
AcDbEntity
8
1-0
6
DOT
62
4
100
AcDbLine
10
99068.929999999993
20
33416.349999999999
30
0.0
11
99554.960000000006
21
33317.989999999998
31
0.0
0
LINE
5
6b1
100
AcDbEntity
8
1-0
6
DOT
62
4
100
AcDbLine
10
99554.960000000006
20
33317.989999999998
30
0.0
11
100042.130000000000
21
33220.269999999997
31
0.0
0
LINE
5
6b2
100
AcDbEntity
8
1-0
6
DOT
62
4
100
AcDbLine
10
100042.130000000000
20
33220.269999999997
30
0.0
11
100531.509999999990
21
33119.940000000002
31
0.0
0
LINE
5
6b3
100
AcDbEntity
8
1-0
6
DOT
62
4
100
AcDbLine
10
100531.509999999990
20
33119.940000000002
30
0.0
11
101024.090000000000
21
33013.639999999999
31
0.0
0
LINE
5
6b4
100
AcDbEntity
8
1-0
6
DOT
62
4
100
AcDbLine
10
101024.090000000000
20
33013.639999999999
30
0.0
11
101520.860000000000
21
32898.070000000000
31
0.0
0
LINE
5
6b5
100
AcDbEntity
8
1-0
6
DOT
62
4
100
AcDbLine
10
101520.860000000000
20
32898.070000000000
30
0.0
11
102019.890000000000
21
32768.379999999997
31
0.0
0
LINE
5
6b6
100
AcDbEntity
8
1-0
6
DOT
62
4
100
AcDbLine
10
102019.890000000000
20
32768.379999999997
30
0.0
11
102511.830000000000
21
32615.849999999999
31
0.0
0
LINE
5
6b7
100
AcDbEntity
8
1-0
6
DOT
62
4
100
AcDbLine
10
102511.830000000000
20
32615.849999999999
30
0.0
11
102986.190000000000
21
32431.150000000001
31
0.0
0
LINE
5
6b8
100
AcDbEntity
8
1-0
6
DOT
62
4
100
AcDbLine
10
102986.190000000000
20
32431.150000000001
30
0.0
11
103432.580000000000
21
32205.009999999998
31
0.0
0
LINE
5
6b9
100
AcDbEntity
8
1-0
6
DOT
62
4
100
AcDbLine
10
103432.580000000000
20
32205.009999999998
30
0.0
11
103840.440000000000
21
31928.070000000000
31
0.0
0
LINE
5
6ba
100
AcDbEntity
8
1-0
6
DOT
62
4
100
AcDbLine
10
103840.440000000000
20
31928.070000000000
30
0.0
11
104200.060000000000
21
31591.830000000002
31
0.0
0
LINE
5
6bb
100
AcDbEntity
8
1-0
6
DOT
62
4
100
AcDbLine
10
104200.060000000000
20
31591.830000000002
30
0.0
11
104518.030000000000
21
31205.799999999999
31
0.0
0
LINE
5
6bc
100
AcDbEntity
8
1-0
6
DOT
62
4
100
AcDbLine
10
104518.030000000000
20
31205.799999999999
30
0.0
11
104816.720000000000
21
30797.119999999999
31
0.0
0
LINE
5
6bd
100
AcDbEntity
8
1-0
6
DOT
62
4
100
AcDbLine
10
104816.720000000000
20
30797.119999999999
30
0.0
11
105119.250000000000
21
30393.520000000000
31
0.0
0
LINE
5
6be
100
AcDbEntity
8
1-0
6
DOT
62
4
100
AcDbLine
10
105119.250000000000
20
30393.520000000000
30
0.0
11
105448.720000000000
21
30022.880000000001
31
0.0
0
LINE
5
6bf
100
AcDbEntity
8
1-0
6
DOT
62
4
100
AcDbLine
10
105448.720000000000
20
30022.880000000001
30
0.0
11
105823.880000000000
21
29708.209999999999
31
0.0
0
LINE
5
6c0
100
AcDbEntity
8
1-0
6
DOT
62
4
100
AcDbLine
10
105823.880000000000
20
29708.209999999999
30
0.0
11
106242.880000000000
21
29449.730000000000
31
0.0
0
LINE
5
6c1
100
AcDbEntity
8
1-0
6
DOT
62
4
100
AcDbLine
10
106242.880000000000
20
29449.730000000000
30
0.0
11
106697.500000000000
21
29240.560000000001
31
0.0
0
LINE
5
6c2
100
AcDbEntity
8
1-0
6
DOT
62
4
100
AcDbLine
10
106697.500000000000
20
29240.560000000001
30
0.0
11
107179.520000000000
21
29073.889999999999
31
0.0
0
LINE
5
6c3
100
AcDbEntity
8
1-0
6
DOT
62
4
100
AcDbLine
10
107179.520000000000
20
29073.889999999999
30
0.0
11
107680.740000000010
21
28942.889999999999
31
0.0
0
LINE
5
6c4
100
AcDbEntity
8
1-0
6
DOT
62
4
100
AcDbLine
10
107680.740000000010
20
28942.889999999999
30
0.0
11
108193.020000000000
21
28840.720000000001
31
0.0
0
LINE
5
6c5
100
AcDbEntity
8
1-0
6
DOT
62
4
100
AcDbLine
10
108193.020000000000
20
28840.720000000001
30
0.0
11
108708.050000000000
21
28760.619999999999
31
0.0
0
LINE
5
6c6
100
AcDbEntity
8
1-0
6
DOT
62
4
100
AcDbLine
10
108708.050000000000
20
28760.619999999999
30
0.0
11
109217.950000000000
21
28695.799999999999
31
0.0
0
LINE
5
6c7
100
AcDbEntity
8
1-0
6
DOT
62
4
100
AcDbLine
10
109217.950000000000
20
28695.799999999999
30
0.0
11
109719.810000000000
21
28642.389999999999
31
0.0
0
LINE
5
6c8
100
AcDbEntity
8
1-0
6
DOT
62
4
100
AcDbLine
10
109719.810000000000
20
28642.389999999999
30
0.0
11
110215.259999999990
21
28598.900000000001
31
0.0
0
LINE
5
6c9
100
AcDbEntity
8
1-0
6
DOT
62
4
100
AcDbLine
10
110215.259999999990
20
28598.900000000001
30
0.0
11
110706.289999999990
21
28564.000000000000
31
0.0
0
LINE
5
6ca
100
AcDbEntity
8
1-0
6
DOT
62
4
100
AcDbLine
10
110706.289999999990
20
28564.000000000000
30
0.0
11
111194.750000000000
21
28536.349999999999
31
0.0
0
LINE
5
6cb
100
AcDbEntity
8
1-0
6
DOT
62
4
100
AcDbLine
10
111194.750000000000
20
28536.349999999999
30
0.0
11
111682.570000000010
21
28514.619999999999
31
0.0
0
LINE
5
6cc
100
AcDbEntity
8
1-0
6
DOT
62
4
100
AcDbLine
10
111682.570000000010
20
28514.619999999999
30
0.0
11
112171.580000000000
21
28497.459999999999
31
0.0
0
LINE
5
6cd
100
AcDbEntity
8
1-0
6
DOT
62
4
100
AcDbLine
10
112171.580000000000
20
28497.459999999999
30
0.0
11
112663.740000000010
21
28483.560000000001
31
0.0
0
LINE
5
6ce
100
AcDbEntity
8
1-0
6
DOT
62
4
100
AcDbLine
10
112663.740000000010
20
28483.560000000001
30
0.0
11
113160.940000000000
21
28471.529999999999
31
0.0
0
LINE
5
6cf
100
AcDbEntity
8
1-0
6
DOT
62
4
100
AcDbLine
10
113160.940000000000
20
28471.529999999999
30
0.0
11
113665.039999999990
21
28460.040000000001
31
0.0
0
LINE
5
6d0
100
AcDbEntity
8
1-0
6
DOT
62
4
100
AcDbLine
10
113665.039999999990
20
28460.040000000001
30
0.0
11
114177.929999999990
21
28447.820000000000
31
0.0
0
LINE
5
6d1
100
AcDbEntity
8
1-0
6
DOT
62
4
100
AcDbLine
10
114177.929999999990
20
28447.820000000000
30
0.0
11
114701.530000000000
21
28433.419999999998
31
0.0
0
LINE
5
6d2
100
AcDbEntity
8
1-0
6
DOT
62
4
100
AcDbLine
10
114701.530000000000
20
28433.419999999998
30
0.0
11
115236.480000000000
21
28417.189999999999
31
0.0
0
LINE
5
6d3
100
AcDbEntity
8
1-0
6
DOT
62
4
100
AcDbLine
10
115236.480000000000
20
28417.189999999999
30
0.0
11
115775.160000000000
21
28409.880000000001
31
0.0
0
LINE
5
6d4
100
AcDbEntity
8
1-0
6
DOT
62
4
100
AcDbLine
10
115775.160000000000
20
28409.880000000001
30
0.0
11
116306.870000000000
21
28426.209999999999
31
0.0
0
LINE
5
6d5
100
AcDbEntity
8
1-0
6
DOT
62
4
100
AcDbLine
10
116306.870000000000
20
28426.209999999999
30
0.0
11
116820.910000000000
21
28480.990000000002
31
0.0
0
LINE
5
6d6
100
AcDbEntity
8
1-0
6
DOT
62
4
100
AcDbLine
10
116820.910000000000
20
28480.990000000002
30
0.0
11
117306.460000000010
21
28588.990000000002
31
0.0
0
LINE
5
6d7
100
AcDbEntity
8
1-0
6
DOT
62
4
100
AcDbLine
10
117306.460000000010
20
28588.990000000002
30
0.0
11
117752.820000000010
21
28765.049999999999
31
0.0
0
LINE
5
6d8
100
AcDbEntity
8
1-0
6
DOT
62
4
100
AcDbLine
10
117752.820000000010
20
28765.049999999999
30
0.0
11
118149.240000000010
21
29023.889999999999
31
0.0
0
LINE
5
6d9
100
AcDbEntity
8
1-0
6
DOT
62
4
100
AcDbLine
10
118149.240000000010
20
29023.889999999999
30
0.0
11
118493.390000000000
21
29368.290000000001
31
0.0
0
LINE
5
6da
100
AcDbEntity
8
1-0
6
DOT
62
4
100
AcDbLine
10
118493.390000000000
20
29368.290000000001
30
0.0
11
118810.899999999990
21
29760.759999999998
31
0.0
0
LINE
5
6db
100
AcDbEntity
8
1-0
6
DOT
62
4
100
AcDbLine
10
118810.899999999990
20
29760.759999999998
30
0.0
11
119133.200000000000
21
30155.520000000000
31
0.0
0
LINE
5
6dc
100
AcDbEntity
8
1-0
6
DOT
62
4
100
AcDbLine
10
119133.200000000000
20
30155.520000000000
30
0.0
11
119491.539999999990
21
30507.070000000000
31
0.0
0
LINE
5
6dd
100
AcDbEntity
8
1-0
6
DOT
62
4
100
AcDbLine
10
119491.539999999990
20
30507.070000000000
30
0.0
11
119898.950000000000
21
30795.070000000000
31
0.0
0
LINE
5
6de
100
AcDbEntity
8
1-0
6
DOT
62
4
100
AcDbLine
10
119898.950000000000
20
30795.070000000000
30
0.0
11
120340.230000000000
21
31037.959999999999
31
0.0
0
LINE
5
6df
100
AcDbEntity
8
1-0
6
DOT
62
4
100
AcDbLine
10
120340.230000000000
20
31037.959999999999
30
0.0
11
120797.820000000010
21
31257.560000000001
31
0.0
0
LINE
5
6e0
100
AcDbEntity
8
1-0
6
DOT
62
4
100
AcDbLine
10
120797.820000000010
20
31257.560000000001
30
0.0
11
121254.070000000010
21
31475.770000000000
31
0.0
0
LINE
5
6e1
100
AcDbEntity
8
1-0
6
DOT
62
4
100
AcDbLine
10
121254.070000000010
20
31475.770000000000
30
0.0
11
121691.380000000000
21
31714.360000000001
31
0.0
0
LINE
5
6e2
100
AcDbEntity
8
1-0
6
DOT
62
4
100
AcDbLine
10
121691.380000000000
20
31714.360000000001
30
0.0
11
122092.550000000000
21
31994.779999999999
31
0.0
0
LINE
5
6e3
100
AcDbEntity
8
1-0
6
DOT
62
4
100
AcDbLine
10
122092.550000000000
20
31994.779999999999
30
0.0
11
122451.100000000010
21
32325.220000000001
31
0.0
0
LINE
5
6e4
100
AcDbEntity
8
1-0
6
DOT
62
4
100
AcDbLine
10
122451.100000000010
20
32325.220000000001
30
0.0
11
122773.450000000000
21
32698.189999999999
31
0.0
0
LINE
5
6e5
100
AcDbEntity
8
1-0
6
DOT
62
4
100
AcDbLine
10
122773.450000000000
20
32698.189999999999
30
0.0
11
123066.810000000000
21
33105.230000000003
31
0.0
0
LINE
5
6e6
100
AcDbEntity
8
1-0
6
DOT
62
4
100
AcDbLine
10
123066.810000000000
20
33105.230000000003
30
0.0
11
123338.300000000000
21
33537.889999999999
31
0.0
0
LINE
5
6e7
100
AcDbEntity
8
1-0
6
DOT
62
4
100
AcDbLine
10
123338.300000000000
20
33537.889999999999
30
0.0
11
123595.140000000000
21
33987.809999999998
31
0.0
0
LINE
5
6e8
100
AcDbEntity
8
1-0
6
DOT
62
4
100
AcDbLine
10
123595.140000000000
20
33987.809999999998
30
0.0
11
123844.500000000000
21
34446.540000000001
31
0.0
0
LINE
5
6e9
100
AcDbEntity
8
1-0
6
DOT
62
4
100
AcDbLine
10
123844.500000000000
20
34446.540000000001
30
0.0
11
123855.660000000000
21
34467.290000000001
31
0.0
0
LINE
5
6ea
100
AcDbEntity
8
1-0
6
CONTINUOUS
62
3
100
AcDbLine
10
40941.699999999997
20
54763.849999999999
30
0.0
11
41250.089999999997
21
54368.300000000003
31
0.0
0
LINE
5
6eb
100
AcDbEntity
8
1-0
6
CONTINUOUS
62
3
100
AcDbLine
10
41250.089999999997
20
54368.300000000003
30
0.0
11
41535.870000000003
21
53958.790000000001
31
0.0
0
LINE
5
6ec
100
AcDbEntity
8
1-0
6
CONTINUOUS
62
3
100
AcDbLine
10
41535.870000000003
20
53958.790000000001
30
0.0
11
41780.529999999999
21
53524.110000000001
31
0.0
0
LINE
5
6ed
100
AcDbEntity
8
1-0
6
CONTINUOUS
62
3
100
AcDbLine
10
41780.529999999999
20
53524.110000000001
30
0.0
11
41995.190000000002
21
53070.989999999998
31
0.0
0
LINE
5
6ee
100
AcDbEntity
8
1-0
6
CONTINUOUS
62
3
100
AcDbLine
10
41995.190000000002
20
53070.989999999998
30
0.0
11
42205.930000000000
21
52615.440000000002
31
0.0
0
LINE
5
6ef
100
AcDbEntity
8
1-0
6
CONTINUOUS
62
3
100
AcDbLine
10
42205.930000000000
20
52615.440000000002
30
0.0
11
42445.440000000002
21
52177.580000000002
31
0.0
0
LINE
5
6f0
100
AcDbEntity
8
1-0
6
CONTINUOUS
62
3
100
AcDbLine
10
42445.440000000002
20
52177.580000000002
30
0.0
11
42737.400000000001
21
51771.849999999999
31
0.0
0
LINE
5
6f1
100
AcDbEntity
8
1-0
6
CONTINUOUS
62
3
100
AcDbLine
10
42737.400000000001
20
51771.849999999999
30
0.0
11
43038.339999999997
21
51371.660000000003
31
0.0
0
LINE
5
6f2
100
AcDbEntity
8
1-0
6
CONTINUOUS
62
3
100
AcDbLine
10
43038.339999999997
20
51371.660000000003
30
0.0
11
43285.400000000001
21
50938.660000000003
31
0.0
0
LINE
5
6f3
100
AcDbEntity
8
1-0
6
CONTINUOUS
62
3
100
AcDbLine
10
43285.400000000001
20
50938.660000000003
30
0.0
11
43505.269999999997
21
50488.010000000002
31
0.0
0
LINE
5
6f4
100
AcDbEntity
8
1-0
6
CONTINUOUS
62
3
100
AcDbLine
10
43505.269999999997
20
50488.010000000002
30
0.0
11
43734.160000000003
21
50042.000000000000
31
0.0
0
LINE
5
6f5
100
AcDbEntity
8
1-0
6
CONTINUOUS
62
3
100
AcDbLine
10
43734.160000000003
20
50042.000000000000
30
0.0
11
43960.120000000003
21
49595.480000000003
31
0.0
0
LINE
5
6f6
100
AcDbEntity
8
1-0
6
CONTINUOUS
62
3
100
AcDbLine
10
43960.120000000003
20
49595.480000000003
30
0.0
11
44169.169999999998
21
49142.150000000001
31
0.0
0
LINE
5
6f7
100
AcDbEntity
8
1-0
6
CONTINUOUS
62
3
100
AcDbLine
10
44169.169999999998
20
49142.150000000001
30
0.0
11
44347.470000000001
21
48675.680000000000
31
0.0
0
LINE
5
6f8
100
AcDbEntity
8
1-0
6
CONTINUOUS
62
3
100
AcDbLine
10
44347.470000000001
20
48675.680000000000
30
0.0
11
44484.220000000001
21
48193.970000000001
31
0.0
0
LINE
5
6f9
100
AcDbEntity
8
1-0
6
CONTINUOUS
62
3
100
AcDbLine
10
44484.220000000001
20
48193.970000000001
30
0.0
11
44573.989999999998
21
47701.449999999997
31
0.0
0
LINE
5
6fa
100
AcDbEntity
8
1-0
6
CONTINUOUS
62
3
100
AcDbLine
10
44573.989999999998
20
47701.449999999997
30
0.0
11
44627.489999999998
21
47203.830000000002
31
0.0
0
LINE
5
6fb
100
AcDbEntity
8
1-0
6
CONTINUOUS
62
3
100
AcDbLine
10
44627.489999999998
20
47203.830000000002
30
0.0
11
44688.769999999997
21
46708.019999999997
31
0.0
0
LINE
5
6fc
100
AcDbEntity
8
1-0
6
CONTINUOUS
62
3
100
AcDbLine
10
44688.769999999997
20
46708.019999999997
30
0.0
11
44789.440000000002
21
46218.430000000000
31
0.0
0
LINE
5
6fd
100
AcDbEntity
8
1-0
6
CONTINUOUS
62
3
100
AcDbLine
10
44789.440000000002
20
46218.430000000000
30
0.0
11
44879.980000000003
21
45726.800000000003
31
0.0
0
LINE
5
6fe
100
AcDbEntity
8
1-0
6
CONTINUOUS
62
3
100
AcDbLine
10
44879.980000000003
20
45726.800000000003
30
0.0
11
44934.510000000002
21
45229.550000000003
31
0.0
0
LINE
5
6ff
100
AcDbEntity
8
1-0
6
CONTINUOUS
62
3
100
AcDbLine
10
44934.510000000002
20
45229.550000000003
30
0.0
11
44963.739999999998
21
44729.410000000003
31
0.0
0
LINE
5
700
100
AcDbEntity
8
1-0
6
CONTINUOUS
62
3
100
AcDbLine
10
44963.739999999998
20
44729.410000000003
30
0.0
11
44978.500000000000
21
44228.949999999997
31
0.0
0
LINE
5
701
100
AcDbEntity
8
1-0
6
CONTINUOUS
62
3
100
AcDbLine
10
44978.500000000000
20
44228.949999999997
30
0.0
11
44984.290000000001
21
43728.910000000003
31
0.0
0
LINE
5
702
100
AcDbEntity
8
1-0
6
CONTINUOUS
62
3
100
AcDbLine
10
44984.290000000001
20
43728.910000000003
30
0.0
11
44984.379999999997
21
43229.129999999997
31
0.0
0
LINE
5
703
100
AcDbEntity
8
1-0
6
CONTINUOUS
62
3
100
AcDbLine
10
44984.379999999997
20
43229.129999999997
30
0.0
11
44982.709999999999
21
42860.660000000003
31
0.0
0
LINE
5
704
100
AcDbEntity
8
1-0
6
CONTINUOUS
62
4
100
AcDbLine
10
47919.629999999997
20
40873.440000000002
30
0.0
11
47942.940000000002
21
40378.050000000003
31
0.0
0
LINE
5
705
100
AcDbEntity
8
1-0
6
CONTINUOUS
62
4
100
AcDbLine
10
47942.940000000002
20
40378.050000000003
30
0.0
11
47966.339999999997
21
39881.769999999997
31
0.0
0
LINE
5
706
100
AcDbEntity
8
1-0
6
CONTINUOUS
62
4
100
AcDbLine
10
47966.339999999997
20
39881.769999999997
30
0.0
11
47989.980000000003
21
39383.599999999999
31
0.0
0
LINE
5
707
100
AcDbEntity
8
1-0
6
CONTINUOUS
62
4
100
AcDbLine
10
47989.980000000003
20
39383.599999999999
30
0.0
11
48013.970000000001
21
38882.720000000001
31
0.0
0
LINE
5
708
100
AcDbEntity
8
1-0
6
CONTINUOUS
62
4
100
AcDbLine
10
48013.970000000001
20
38882.720000000001
30
0.0
11
48038.379999999997
21
38378.110000000001
31
0.0
0
LINE
5
709
100
AcDbEntity
8
1-0
6
CONTINUOUS
62
4
100
AcDbLine
10
48038.379999999997
20
38378.110000000001
30
0.0
11
48066.139999999999
21
37870.059999999998
31
0.0
0
LINE
5
70a
100
AcDbEntity
8
1-0
6
CONTINUOUS
62
4
100
AcDbLine
10
48066.139999999999
20
37870.059999999998
30
0.0
11
48122.849999999999
21
37368.230000000003
31
0.0
0
LINE
5
70b
100
AcDbEntity
8
1-0
6
CONTINUOUS
62
4
100
AcDbLine
10
48122.849999999999
20
37368.230000000003
30
0.0
11
48245.430000000000
21
36886.900000000001
31
0.0
0
LINE
5
70c
100
AcDbEntity
8
1-0
6
CONTINUOUS
62
4
100
AcDbLine
10
48245.430000000000
20
36886.900000000001
30
0.0
11
48463.669999999998
21
36437.870000000003
31
0.0
0
LINE
5
70d
100
AcDbEntity
8
1-0
6
CONTINUOUS
62
4
100
AcDbLine
10
48463.669999999998
20
36437.870000000003
30
0.0
11
48759.709999999999
21
36022.190000000002
31
0.0
0
LINE
5
70e
100
AcDbEntity
8
1-0
6
CONTINUOUS
62
4
100
AcDbLine
10
48759.709999999999
20
36022.190000000002
30
0.0
11
49122.139999999999
21
35660.739999999998
31
0.0
0
LINE
5
70f
100
AcDbEntity
8
1-0
6
CONTINUOUS
62
4
100
AcDbLine
10
49122.139999999999
20
35660.739999999998
30
0.0
11
49545.120000000003
21
35378.940000000002
31
0.0
0
LINE
5
710
100
AcDbEntity
8
1-0
6
CONTINUOUS
62
4
100
AcDbLine
10
49545.120000000003
20
35378.940000000002
30
0.0
11
50022.239999999998
21
35201.790000000001
31
0.0
0
LINE
5
711
100
AcDbEntity
8
1-0
6
CONTINUOUS
62
4
100
AcDbLine
10
50022.239999999998
20
35201.790000000001
30
0.0
11
50532.139999999999
21
35141.910000000003
31
0.0
0
LINE
5
712
100
AcDbEntity
8
1-0
6
CONTINUOUS
62
4
100
AcDbLine
10
50532.139999999999
20
35141.910000000003
30
0.0
11
51037.830000000002
21
35199.129999999997
31
0.0
0
LINE
5
713
100
AcDbEntity
8
1-0
6
CONTINUOUS
62
4
100
AcDbLine
10
51037.830000000002
20
35199.129999999997
30
0.0
11
51502.739999999998
21
35371.889999999999
31
0.0
0
LINE
5
714
100
AcDbEntity
8
1-0
6
CONTINUOUS
62
4
100
AcDbLine
10
51502.739999999998
20
35371.889999999999
30
0.0
11
51918.260000000002
21
35640.440000000002
31
0.0
0
LINE
5
715
100
AcDbEntity
8
1-0
6
CONTINUOUS
62
4
100
AcDbLine
10
51918.260000000002
20
35640.440000000002
30
0.0
11
52304.300000000003
21
35966.610000000001
31
0.0
0
LINE
5
716
100
AcDbEntity
8
1-0
6
CONTINUOUS
62
4
100
AcDbLine
10
52304.300000000003
20
35966.610000000001
30
0.0
11
52681.980000000003
21
36311.400000000001
31
0.0
0
LINE
5
717
100
AcDbEntity
8
1-0
6
CONTINUOUS
62
4
100
AcDbLine
10
52681.980000000003
20
36311.400000000001
30
0.0
11
53069.900000000001
21
36639.919999999998
31
0.0
0
LINE
5
718
100
AcDbEntity
8
1-0
6
CONTINUOUS
62
4
100
AcDbLine
10
53069.900000000001
20
36639.919999999998
30
0.0
11
53465.110000000001
21
36951.720000000001
31
0.0
0
LINE
5
719
100
AcDbEntity
8
1-0
6
CONTINUOUS
62
4
100
AcDbLine
10
53465.110000000001
20
36951.720000000001
30
0.0
11
53853.830000000002
21
37263.699999999997
31
0.0
0
LINE
5
71a
100
AcDbEntity
8
1-0
6
CONTINUOUS
62
4
100
AcDbLine
10
53853.830000000002
20
37263.699999999997
30
0.0
11
54222.220000000001
21
37592.839999999997
31
0.0
0
LINE
5
71b
100
AcDbEntity
8
1-0
6
CONTINUOUS
62
4
100
AcDbLine
10
54222.220000000001
20
37592.839999999997
30
0.0
11
54558.550000000003
21
37953.559999999998
31
0.0
0
LINE
5
71c
100
AcDbEntity
8
1-0
6
CONTINUOUS
62
4
100
AcDbLine
10
54558.550000000003
20
37953.559999999998
30
0.0
11
54863.629999999997
21
38345.279999999999
31
0.0
0
LINE
5
71d
100
AcDbEntity
8
1-0
6
CONTINUOUS
62
4
100
AcDbLine
10
54863.629999999997
20
38345.279999999999
30
0.0
11
55142.870000000003
21
38761.989999999998
31
0.0
0
LINE
5
71e
100
AcDbEntity
8
1-0
6
CONTINUOUS
62
4
100
AcDbLine
10
55142.870000000003
20
38761.989999999998
30
0.0
11
55401.699999999997
21
39197.570000000000
31
0.0
0
LINE
5
71f
100
AcDbEntity
8
1-0
6
CONTINUOUS
62
4
100
AcDbLine
10
55401.699999999997
20
39197.570000000000
30
0.0
11
55645.519999999997
21
39645.959999999999
31
0.0
0
LINE
5
720
100
AcDbEntity
8
1-0
6
CONTINUOUS
62
4
100
AcDbLine
10
55645.519999999997
20
39645.959999999999
30
0.0
11
55877.459999999999
21
40102.180000000000
31
0.0
0
LINE
5
721
100
AcDbEntity
8
1-0
6
CONTINUOUS
62
4
100
AcDbLine
10
55877.459999999999
20
40102.180000000000
30
0.0
11
56092.440000000002
21
40564.790000000001
31
0.0
0
LINE
5
722
100
AcDbEntity
8
1-0
6
CONTINUOUS
62
4
100
AcDbLine
10
56092.440000000002
20
40564.790000000001
30
0.0
11
56283.550000000003
21
41033.320000000000
31
0.0
0
LINE
5
723
100
AcDbEntity
8
1-0
6
CONTINUOUS
62
4
100
AcDbLine
10
56283.550000000003
20
41033.320000000000
30
0.0
11
56443.919999999998
21
41507.239999999998
31
0.0
0
LINE
5
724
100
AcDbEntity
8
1-0
6
CONTINUOUS
62
4
100
AcDbLine
10
56443.919999999998
20
41507.239999999998
30
0.0
11
56566.599999999999
21
41985.989999999998
31
0.0
0
LINE
5
725
100
AcDbEntity
8
1-0
6
CONTINUOUS
62
4
100
AcDbLine
10
56566.599999999999
20
41985.989999999998
30
0.0
11
56644.750000000000
21
42469.089999999997
31
0.0
0
LINE
5
726
100
AcDbEntity
8
1-0
6
CONTINUOUS
62
4
100
AcDbLine
10
56644.750000000000
20
42469.089999999997
30
0.0
11
56676.500000000000
21
42956.360000000001
31
0.0
0
LINE
5
727
100
AcDbEntity
8
1-0
6
CONTINUOUS
62
4
100
AcDbLine
10
56676.500000000000
20
42956.360000000001
30
0.0
11
56670.949999999997
21
43448.430000000000
31
0.0
0
LINE
5
728
100
AcDbEntity
8
1-0
6
CONTINUOUS
62
4
100
AcDbLine
10
56670.949999999997
20
43448.430000000000
30
0.0
11
56638.540000000001
21
43946.040000000001
31
0.0
0
LINE
5
729
100
AcDbEntity
8
1-0
6
CONTINUOUS
62
4
100
AcDbLine
10
56638.540000000001
20
43946.040000000001
30
0.0
11
56589.760000000002
21
44449.959999999999
31
0.0
0
LINE
5
72a
100
AcDbEntity
8
1-0
6
CONTINUOUS
62
4
100
AcDbLine
10
56589.760000000002
20
44449.959999999999
30
0.0
11
56535.070000000000
21
44960.870000000003
31
0.0
0
LINE
5
72b
100
AcDbEntity
8
1-0
6
CONTINUOUS
62
4
100
AcDbLine
10
56535.070000000000
20
44960.870000000003
30
0.0
11
56484.529999999999
21
45479.430000000000
31
0.0
0
LINE
5
72c
100
AcDbEntity
8
1-0
6
CONTINUOUS
62
4
100
AcDbLine
10
56484.529999999999
20
45479.430000000000
30
0.0
11
56435.660000000003
21
46001.400000000001
31
0.0
0
LINE
5
72d
100
AcDbEntity
8
1-0
6
CONTINUOUS
62
4
100
AcDbLine
10
56435.660000000003
20
46001.400000000001
30
0.0
11
56372.970000000001
21
46517.760000000002
31
0.0
0
LINE
5
72e
100
AcDbEntity
8
1-0
6
CONTINUOUS
62
4
100
AcDbLine
10
56372.970000000001
20
46517.760000000002
30
0.0
11
56280.360000000001
21
47019.160000000003
31
0.0
0
LINE
5
72f
100
AcDbEntity
8
1-0
6
CONTINUOUS
62
4
100
AcDbLine
10
56280.360000000001
20
47019.160000000003
30
0.0
11
56141.699999999997
21
47496.279999999999
31
0.0
0
LINE
5
730
100
AcDbEntity
8
1-0
6
CONTINUOUS
62
4
100
AcDbLine
10
56141.699999999997
20
47496.279999999999
30
0.0
11
55940.860000000001
21
47939.820000000000
31
0.0
0
LINE
5
731
100
AcDbEntity
8
1-0
6
CONTINUOUS
62
4
100
AcDbLine
10
55940.860000000001
20
47939.820000000000
30
0.0
11
55661.870000000003
21
48340.489999999998
31
0.0
0
LINE
5
732
100
AcDbEntity
8
1-0
6
CONTINUOUS
62
4
100
AcDbLine
10
55661.870000000003
20
48340.489999999998
30
0.0
11
55302.160000000003
21
48689.760000000002
31
0.0
0
LINE
5
733
100
AcDbEntity
8
1-0
6
CONTINUOUS
62
4
100
AcDbLine
10
55302.160000000003
20
48689.760000000002
30
0.0
11
54880.190000000002
21
48980.589999999997
31
0.0
0
LINE
5
734
100
AcDbEntity
8
1-0
6
CONTINUOUS
62
4
100
AcDbLine
10
54880.190000000002
20
48980.589999999997
30
0.0
11
54416.400000000001
21
49205.930000000000
31
0.0
0
LINE
5
735
100
AcDbEntity
8
1-0
6
CONTINUOUS
62
4
100
AcDbLine
10
54416.400000000001
20
49205.930000000000
30
0.0
11
53931.190000000002
21
49358.790000000001
31
0.0
0
LINE
5
736
100
AcDbEntity
8
1-0
6
CONTINUOUS
62
4
100
AcDbLine
10
53931.190000000002
20
49358.790000000001
30
0.0
11
53438.839999999997
21
49439.360000000001
31
0.0
0
LINE
5
737
100
AcDbEntity
8
1-0
6
CONTINUOUS
62
4
100
AcDbLine
10
53438.839999999997
20
49439.360000000001
30
0.0
11
52939.040000000001
21
49464.570000000000
31
0.0
0
LINE
5
738
100
AcDbEntity
8
1-0
6
CONTINUOUS
62
4
100
AcDbLine
10
52939.040000000001
20
49464.570000000000
30
0.0
11
52429.750000000000
21
49453.129999999997
31
0.0
0
LINE
5
739
100
AcDbEntity
8
1-0
6
CONTINUOUS
62
4
100
AcDbLine
10
52429.750000000000
20
49453.129999999997
30
0.0
11
51921.389999999999
21
49401.400000000001
31
0.0
0
LINE
5
73a
100
AcDbEntity
8
1-0
6
CONTINUOUS
62
4
100
AcDbLine
10
51921.389999999999
20
49401.400000000001
30
0.0
11
51439.570000000000
21
49278.989999999998
31
0.0
0
LINE
5
73b
100
AcDbEntity
8
1-0
6
CONTINUOUS
62
4
100
AcDbLine
10
51439.570000000000
20
49278.989999999998
30
0.0
11
51008.559999999998
21
49056.820000000000
31
0.0
0
LINE
5
73c
100
AcDbEntity
8
1-0
6
CONTINUOUS
62
4
100
AcDbLine
10
51008.559999999998
20
49056.820000000000
30
0.0
11
50626.540000000001
21
48744.139999999999
31
0.0
0
LINE
5
73d
100
AcDbEntity
8
1-0
6
CONTINUOUS
62
4
100
AcDbLine
10
50626.540000000001
20
48744.139999999999
30
0.0
11
50273.750000000000
21
48376.279999999999
31
0.0
0
LINE
5
73e
100
AcDbEntity
8
1-0
6
CONTINUOUS
62
4
100
AcDbLine
10
50273.750000000000
20
48376.279999999999
30
0.0
11
49930.099999999999
21
47989.010000000002
31
0.0
0
LINE
5
73f
100
AcDbEntity
8
1-0
6
CONTINUOUS
62
4
100
AcDbLine
10
49930.099999999999
20
47989.010000000002
30
0.0
11
49584.260000000002
21
47609.339999999997
31
0.0
0
LINE
5
740
100
AcDbEntity
8
1-0
6
CONTINUOUS
62
4
100
AcDbLine
10
49584.260000000002
20
47609.339999999997
30
0.0
11
49266.160000000003
21
47222.169999999998
31
0.0
0
LINE
5
741
100
AcDbEntity
8
1-0
6
CONTINUOUS
62
4
100
AcDbLine
10
49266.160000000003
20
47222.169999999998
30
0.0
11
49017.879999999997
21
46800.169999999998
31
0.0
0
LINE
5
742
100
AcDbEntity
8
1-0
6
CONTINUOUS
62
4
100
AcDbLine
10
49017.879999999997
20
46800.169999999998
30
0.0
11
48866.699999999997
21
46327.760000000002
31
0.0
0
LINE
5
743
100
AcDbEntity
8
1-0
6
CONTINUOUS
62
4
100
AcDbLine
10
48866.699999999997
20
46327.760000000002
30
0.0
11
48796.889999999999
21
45823.860000000001
31
0.0
0
LINE
5
744
100
AcDbEntity
8
1-0
6
CONTINUOUS
62
4
100
AcDbLine
10
48796.889999999999
20
45823.860000000001
30
0.0
11
48782.459999999999
21
45312.010000000002
31
0.0
0
LINE
5
745
100
AcDbEntity
8
1-0
6
CONTINUOUS
62
4
100
AcDbLine
10
48782.459999999999
20
45312.010000000002
30
0.0
11
48780.570000000000
21
44804.959999999999
31
0.0
0
LINE
5
746
100
AcDbEntity
8
1-0
6
CONTINUOUS
62
4
100
AcDbLine
10
48780.570000000000
20
44804.959999999999
30
0.0
11
48740.940000000002
21
44310.730000000003
31
0.0
0
LINE
5
747
100
AcDbEntity
8
1-0
6
CONTINUOUS
62
4
100
AcDbLine
10
48740.940000000002
20
44310.730000000003
30
0.0
11
48614.139999999999
21
43837.070000000000
31
0.0
0
LINE
5
748
100
AcDbEntity
8
1-0
6
CONTINUOUS
62
4
100
AcDbLine
10
48614.139999999999
20
43837.070000000000
30
0.0
11
48408.519999999997
21
43379.790000000001
31
0.0
0
LINE
5
749
100
AcDbEntity
8
1-0
6
CONTINUOUS
62
4
100
AcDbLine
10
48408.519999999997
20
43379.790000000001
30
0.0
11
48224.010000000002
21
42915.529999999999
31
0.0
0
LINE
5
74a
100
AcDbEntity
8
1-0
6
CONTINUOUS
62
4
100
AcDbLine
10
48224.010000000002
20
42915.529999999999
30
0.0
11
48113.120000000003
21
42432.379999999997
31
0.0
0
LINE
5
74b
100
AcDbEntity
8
1-0
6
CONTINUOUS
62
4
100
AcDbLine
10
48113.120000000003
20
42432.379999999997
30
0.0
11
48060.629999999997
21
41942.690000000002
31
0.0
0
LINE
5
74c
100
AcDbEntity
8
1-0
6
CONTINUOUS
62
3
100
AcDbLine
10
44804.089999999997
20
34222.779999999999
30
0.0
11
44811.589999999997
21
33721.320000000000
31
0.0
0
LINE
5
74d
100
AcDbEntity
8
1-0
6
CONTINUOUS
62
3
100
AcDbLine
10
44811.589999999997
20
33721.320000000000
30
0.0
11
44814.160000000003
21
33220.269999999997
31
0.0
0
LINE
5
74e
100
AcDbEntity
8
1-0
6
CONTINUOUS
62
3
100
AcDbLine
10
44814.160000000003
20
33220.269999999997
30
0.0
11
44806.830000000002
21
32720.119999999999
31
0.0
0
LINE
5
74f
100
AcDbEntity
8
1-0
6
CONTINUOUS
62
3
100
AcDbLine
10
44806.830000000002
20
32720.119999999999
30
0.0
11
44784.680000000000
21
32221.340000000000
31
0.0
0
LINE
5
750
100
AcDbEntity
8
1-0
6
CONTINUOUS
62
3
100
AcDbLine
10
44784.680000000000
20
32221.340000000000
30
0.0
11
44742.830000000002
21
31724.330000000002
31
0.0
0
LINE
5
751
100
AcDbEntity
8
1-0
6
CONTINUOUS
62
3
100
AcDbLine
10
44742.830000000002
20
31724.330000000002
30
0.0
11
44680.480000000003
21
31229.150000000001
31
0.0
0
LINE
5
752
100
AcDbEntity
8
1-0
6
CONTINUOUS
62
3
100
AcDbLine
10
44680.480000000003
20
31229.150000000001
30
0.0
11
44603.779999999999
21
30735.090000000000
31
0.0
0
LINE
5
753
100
AcDbEntity
8
1-0
6
CONTINUOUS
62
3
100
AcDbLine
10
44603.779999999999
20
30735.090000000000
30
0.0
11
44519.550000000003
21
30241.340000000000
31
0.0
0
LINE
5
754
100
AcDbEntity
8
1-0
6
CONTINUOUS
62
3
100
AcDbLine
10
44519.550000000003
20
30241.340000000000
30
0.0
11
44434.570000000000
21
29747.220000000001
31
0.0
0
LINE
5
755
100
AcDbEntity
8
1-0
6
CONTINUOUS
62
3
100
AcDbLine
10
44434.570000000000
20
29747.220000000001
30
0.0
11
44352.300000000003
21
29252.470000000001
31
0.0
0
LINE
5
756
100
AcDbEntity
8
1-0
6
CONTINUOUS
62
3
100
AcDbLine
10
44352.300000000003
20
29252.470000000001
30
0.0
11
44270.709999999999
21
28757.790000000001
31
0.0
0
LINE
5
757
100
AcDbEntity
8
1-0
6
CONTINUOUS
62
3
100
AcDbLine
10
44270.709999999999
20
28757.790000000001
30
0.0
11
44187.290000000001
21
28263.860000000001
31
0.0
0
LINE
5
758
100
AcDbEntity
8
1-0
6
CONTINUOUS
62
3
100
AcDbLine
10
44187.290000000001
20
28263.860000000001
30
0.0
11
44099.540000000001
21
27771.480000000000
31
0.0
0
LINE
5
759
100
AcDbEntity
8
1-0
6
CONTINUOUS
62
3
100
AcDbLine
10
44099.540000000001
20
27771.480000000000
30
0.0
11
44004.900000000001
21
27281.340000000000
31
0.0
0
LINE
5
75a
100
AcDbEntity
8
1-0
6
CONTINUOUS
62
3
100
AcDbLine
10
44004.900000000001
20
27281.340000000000
30
0.0
11
43900.900000000001
21
26794.189999999999
31
0.0
0
LINE
5
75b
100
AcDbEntity
8
1-0
6
CONTINUOUS
62
3
100
AcDbLine
10
43900.900000000001
20
26794.189999999999
30
0.0
11
43785.589999999997
21
26310.480000000000
31
0.0
0
LINE
5
75c
100
AcDbEntity
8
1-0
6
CONTINUOUS
62
3
100
AcDbLine
10
43785.589999999997
20
26310.480000000000
30
0.0
11
43666.519999999997
21
25825.410000000000
31
0.0
0
LINE
5
75d
100
AcDbEntity
8
1-0
6
CONTINUOUS
62
3
100
AcDbLine
10
43666.519999999997
20
25825.410000000000
30
0.0
11
43557.650000000001
21
25330.810000000001
31
0.0
0
LINE
5
75e
100
AcDbEntity
8
1-0
6
CONTINUOUS
62
3
100
AcDbLine
10
43557.650000000001
20
25330.810000000001
30
0.0
11
43444.690000000002
21
24834.500000000000
31
0.0
0
LINE
5
75f
100
AcDbEntity
8
1-0
6
CONTINUOUS
62
3
100
AcDbLine
10
43444.690000000002
20
24834.500000000000
30
0.0
11
43284.470000000001
21
24360.779999999999
31
0.0
0
LINE
5
760
100
AcDbEntity
8
1-0
6
CONTINUOUS
62
3
100
AcDbLine
10
43284.470000000001
20
24360.779999999999
30
0.0
11
43033.470000000001
21
23934.090000000000
31
0.0
0
LINE
5
761
100
AcDbEntity
8
1-0
6
CONTINUOUS
62
3
100
AcDbLine
10
43033.470000000001
20
23934.090000000000
30
0.0
11
42735.769999999997
21
23532.139999999999
31
0.0
0
LINE
5
762
100
AcDbEntity
8
1-0
6
CONTINUOUS
62
3
100
AcDbLine
10
42735.769999999997
20
23532.139999999999
30
0.0
11
42537.860000000001
21
23077.299999999999
31
0.0
0
LINE
5
763
100
AcDbEntity
8
1-0
6
CONTINUOUS
62
3
100
AcDbLine
10
42537.860000000001
20
23077.299999999999
30
0.0
11
42391.480000000003
21
22593.810000000001
31
0.0
0
LINE
5
764
100
AcDbEntity
8
1-0
6
CONTINUOUS
62
3
100
AcDbLine
10
42391.480000000003
20
22593.810000000001
30
0.0
11
42211.050000000003
21
22125.790000000001
31
0.0
0
LINE
5
765
100
AcDbEntity
8
1-0
6
CONTINUOUS
62
3
100
AcDbLine
10
42211.050000000003
20
22125.790000000001
30
0.0
11
42001.919999999998
21
21671.910000000000
31
0.0
0
LINE
5
766
100
AcDbEntity
8
1-0
6
CONTINUOUS
62
3
100
AcDbLine
10
42001.919999999998
20
21671.910000000000
30
0.0
11
41805.349999999999
21
21212.799999999999
31
0.0
0
LINE
5
767
100
AcDbEntity
8
1-0
6
CONTINUOUS
62
3
100
AcDbLine
10
41805.349999999999
20
21212.799999999999
30
0.0
11
41625.349999999999
21
20746.220000000001
31
0.0
0
LINE
5
768
100
AcDbEntity
8
1-0
6
CONTINUOUS
62
3
100
AcDbLine
10
41625.349999999999
20
20746.220000000001
30
0.0
11
41419.570000000000
21
20291.349999999999
31
0.0
0
LINE
5
769
100
AcDbEntity
8
1-0
6
CONTINUOUS
62
3
100
AcDbLine
10
41419.570000000000
20
20291.349999999999
30
0.0
11
41187.260000000002
21
19848.599999999999
31
0.0
0
LINE
5
76a
100
AcDbEntity
8
1-0
6
CONTINUOUS
62
3
100
AcDbLine
10
41187.260000000002
20
19848.599999999999
30
0.0
11
40940.309999999998
21
19412.599999999999
31
0.0
0
LINE
5
76b
100
AcDbEntity
8
1-0
6
CONTINUOUS
62
3
100
AcDbLine
10
40940.309999999998
20
19412.599999999999
30
0.0
11
40690.570000000000
21
18978.029999999999
31
0.0
0
LINE
5
76c
100
AcDbEntity
8
1-0
6
CONTINUOUS
62
3
100
AcDbLine
10
40690.570000000000
20
18978.029999999999
30
0.0
11
40446.949999999997
21
18540.799999999999
31
0.0
0
LINE
5
76d
100
AcDbEntity
8
1-0
6
CONTINUOUS
62
3
100
AcDbLine
10
40446.949999999997
20
18540.799999999999
30
0.0
11
40211.919999999998
21
18099.580000000002
31
0.0
0
LINE
5
76e
100
AcDbEntity
8
1-0
6
CONTINUOUS
62
3
100
AcDbLine
10
40211.919999999998
20
18099.580000000002
30
0.0
11
39987.180000000000
21
17653.380000000001
31
0.0
0
LINE
5
76f
100
AcDbEntity
8
1-0
6
CONTINUOUS
62
3
100
AcDbLine
10
39987.180000000000
20
17653.380000000001
30
0.0
11
39773.290000000001
21
17201.810000000001
31
0.0
0
LINE
5
770
100
AcDbEntity
8
1-0
6
CONTINUOUS
62
3
100
AcDbLine
10
39773.290000000001
20
17201.810000000001
30
0.0
11
39566.709999999999
21
16746.549999999999
31
0.0
0
LINE
5
771
100
AcDbEntity
8
1-0
6
CONTINUOUS
62
3
100
AcDbLine
10
39566.709999999999
20
16746.549999999999
30
0.0
11
39363.019999999997
21
16289.709999999999
31
0.0
0
LINE
5
772
100
AcDbEntity
8
1-0
6
CONTINUOUS
62
3
100
AcDbLine
10
39363.019999999997
20
16289.709999999999
30
0.0
11
39157.790000000001
21
15833.500000000000
31
0.0
0
LINE
5
773
100
AcDbEntity
8
1-0
6
CONTINUOUS
62
3
100
AcDbLine
10
39157.790000000001
20
15833.500000000000
30
0.0
11
38946.629999999997
21
15380.030000000001
31
0.0
0
LINE
5
774
100
AcDbEntity
8
1-0
6
CONTINUOUS
62
3
100
AcDbLine
10
38946.629999999997
20
15380.030000000001
30
0.0
11
38725.330000000002
21
14931.670000000000
31
0.0
0
LINE
5
775
100
AcDbEntity
8
1-0
6
CONTINUOUS
62
3
100
AcDbLine
10
38725.330000000002
20
14931.670000000000
30
0.0
11
38489.309999999998
21
14491.000000000000
31
0.0
0
LINE
5
776
100
AcDbEntity
8
1-0
6
CONTINUOUS
62
3
100
AcDbLine
10
38489.309999999998
20
14491.000000000000
30
0.0
11
38225.970000000001
21
14065.580000000000
31
0.0
0
LINE
5
777
100
AcDbEntity
8
1-0
6
CONTINUOUS
62
3
100
AcDbLine
10
38225.970000000001
20
14065.580000000000
30
0.0
11
37959.919999999998
21
13643.280000000001
31
0.0
0
LINE
5
778
100
AcDbEntity
8
1-0
6
CONTINUOUS
62
3
100
AcDbLine
10
37959.919999999998
20
13643.280000000001
30
0.0
11
37780.440000000002
21
13176.330000000000
31
0.0
0
LINE
5
779
100
AcDbEntity
8
1-0
6
CONTINUOUS
62
3
100
AcDbLine
10
37780.440000000002
20
13176.330000000000
30
0.0
11
37749.349999999999
21
13078.370000000001
31
0.0
0
LINE
5
77a
100
AcDbEntity
8
1-0
6
CONTINUOUS
62
3
100
AcDbLine
10
44984.379999999997
20
43229.129999999997
30
0.0
11
44990.230000000003
21
43057.410000000003
31
0.0
0
LINE
5
77b
100
AcDbEntity
8
1-0
6
CONTINUOUS
62
3
100
AcDbLine
10
44990.230000000003
20
43057.410000000003
30
0.0
11
44996.080000000002
21
42885.709999999999
31
0.0
0
LINE
5
77c
100
AcDbEntity
8
1-0
6
CONTINUOUS
62
3
100
AcDbLine
10
44996.080000000002
20
42885.709999999999
30
0.0
11
45001.940000000002
21
42714.000000000000
31
0.0
0
LINE
5
77d
100
AcDbEntity
8
1-0
6
CONTINUOUS
62
3
100
AcDbLine
10
45001.940000000002
20
42714.000000000000
30
0.0
11
45007.800000000003
21
42542.300000000003
31
0.0
0
LINE
5
77e
100
AcDbEntity
8
1-0
6
CONTINUOUS
62
3
100
AcDbLine
10
45007.800000000003
20
42542.300000000003
30
0.0
11
45013.660000000003
21
42370.599999999999
31
0.0
0
LINE
5
77f
100
AcDbEntity
8
1-0
6
CONTINUOUS
62
3
100
AcDbLine
10
45013.660000000003
20
42370.599999999999
30
0.0
11
45019.500000000000
21
42198.889999999999
31
0.0
0
LINE
5
780
100
AcDbEntity
8
1-0
6
CONTINUOUS
62
3
100
AcDbLine
10
45019.500000000000
20
42198.889999999999
30
0.0
11
45025.360000000001
21
42027.160000000003
31
0.0
0
LINE
5
781
100
AcDbEntity
8
1-0
6
CONTINUOUS
62
3
100
AcDbLine
10
45025.360000000001
20
42027.160000000003
30
0.0
11
45031.220000000001
21
41855.470000000001
31
0.0
0
LINE
5
782
100
AcDbEntity
8
1-0
6
CONTINUOUS
62
3
100
AcDbLine
10
45031.220000000001
20
41855.470000000001
30
0.0
11
45037.070000000000
21
41683.779999999999
31
0.0
0
LINE
5
783
100
AcDbEntity
8
1-0
6
CONTINUOUS
62
3
100
AcDbLine
10
45037.070000000000
20
41683.779999999999
30
0.0
11
45042.930000000000
21
41512.050000000003
31
0.0
0
LINE
5
784
100
AcDbEntity
8
1-0
6
CONTINUOUS
62
4
100
AcDbLine
10
47546.230000000003
20
60539.059999999998
30
0.0
11
47733.339999999997
21
60077.209999999999
31
0.0
0
LINE
5
785
100
AcDbEntity
8
1-0
6
CONTINUOUS
62
4
100
AcDbLine
10
47733.339999999997
20
60077.209999999999
30
0.0
11
47916.349999999999
21
59603.209999999999
31
0.0
0
LINE
5
786
100
AcDbEntity
8
1-0
6
CONTINUOUS
62
4
100
AcDbLine
10
47916.349999999999
20
59603.209999999999
30
0.0
11
48165.250000000000
21
59173.820000000000
31
0.0
0
LINE
5
787
100
AcDbEntity
8
1-0
6
CONTINUOUS
62
4
100
AcDbLine
10
48165.250000000000
20
59173.820000000000
30
0.0
11
48513.290000000001
21
58810.800000000003
31
0.0
0
LINE
5
788
100
AcDbEntity
8
1-0
6
CONTINUOUS
62
4
100
AcDbLine
10
48513.290000000001
20
58810.800000000003
30
0.0
11
48843.910000000003
21
58425.320000000000
31
0.0
0
LINE
5
789
100
AcDbEntity
8
1-0
6
CONTINUOUS
62
4
100
AcDbLine
10
48843.910000000003
20
58425.320000000000
30
0.0
11
49304.190000000002
21
58246.120000000003
31
0.0
0
LINE
5
78a
100
AcDbEntity
8
1-0
6
CONTINUOUS
62
4
100
AcDbLine
10
49304.190000000002
20
58246.120000000003
30
0.0
11
49738.889999999999
21
58474.089999999997
31
0.0
0
LINE
5
78b
100
AcDbEntity
8
1-0
6
CONTINUOUS
62
4
100
AcDbLine
10
49738.889999999999
20
58474.089999999997
30
0.0
11
49892.180000000000
21
58925.989999999998
31
0.0
0
LINE
5
78c
100
AcDbEntity
8
1-0
6
CONTINUOUS
62
4
100
AcDbLine
10
49892.180000000000
20
58925.989999999998
30
0.0
11
49852.019999999997
21
59431.269999999997
31
0.0
0
LINE
5
78d
100
AcDbEntity
8
1-0
6
CONTINUOUS
62
4
100
AcDbLine
10
49852.019999999997
20
59431.269999999997
30
0.0
11
49783.800000000003
21
59963.559999999998
31
0.0
0
LINE
5
78e
100
AcDbEntity
8
1-0
6
CONTINUOUS
62
4
100
AcDbLine
10
49783.800000000003
20
59963.559999999998
30
0.0
11
49793.379999999997
21
60497.190000000002
31
0.0
0
LINE
5
78f
100
AcDbEntity
8
1-0
6
CONTINUOUS
62
4
100
AcDbLine
10
49793.379999999997
20
60497.190000000002
30
0.0
11
49802.379999999997
21
61006.989999999998
31
0.0
0
LINE
5
790
100
AcDbEntity
8
1-0
6
CONTINUOUS
62
4
100
AcDbLine
10
49802.379999999997
20
61006.989999999998
30
0.0
11
49696.910000000003
21
61467.900000000001
31
0.0
0
LINE
5
791
100
AcDbEntity
8
1-0
6
CONTINUOUS
62
4
100
AcDbLine
10
49696.910000000003
20
61467.900000000001
30
0.0
11
49384.790000000001
21
61847.559999999998
31
0.0
0
LINE
5
792
100
AcDbEntity
8
1-0
6
CONTINUOUS
62
4
100
AcDbLine
10
49384.790000000001
20
61847.559999999998
30
0.0
11
48914.480000000003
21
62066.690000000002
31
0.0
0
LINE
5
793
100
AcDbEntity
8
1-0
6
CONTINUOUS
62
4
100
AcDbLine
10
48914.480000000003
20
62066.690000000002
30
0.0
11
48416.190000000002
21
62032.129999999997
31
0.0
0
LINE
5
794
100
AcDbEntity
8
1-0
6
CONTINUOUS
62
4
100
AcDbLine
10
48416.190000000002
20
62032.129999999997
30
0.0
11
48035.639999999999
21
61710.959999999999
31
0.0
0
LINE
5
795
100
AcDbEntity
8
1-0
6
CONTINUOUS
62
4
100
AcDbLine
10
48035.639999999999
20
61710.959999999999
30
0.0
11
47783.720000000001
21
61264.260000000002
31
0.0
0
LINE
5
796
100
AcDbEntity
8
1-0
6
CONTINUOUS
62
4
100
AcDbLine
10
47783.720000000001
20
61264.260000000002
30
0.0
11
47618.330000000002
21
60793.540000000001
31
0.0
0
LINE
5
797
100
AcDbEntity
8
1-0
6
CONTINUOUS
62
4
100
AcDbLine
10
47618.330000000002
20
60793.540000000001
30
0.0
11
47546.230000000003
21
60539.059999999998
31
0.0
0
LINE
5
798
100
AcDbEntity
8
1-0
6
DOT
62
4
100
AcDbLine
10
130936.230000000000
20
24463.380000000001
30
0.0
11
130683.110000000000
21
24032.119999999999
31
0.0
0
LINE
5
799
100
AcDbEntity
8
1-0
6
DOT
62
4
100
AcDbLine
10
130683.110000000000
20
24032.119999999999
30
0.0
11
130428.780000000000
21
23601.590000000000
31
0.0
0
LINE
5
79a
100
AcDbEntity
8
1-0
6
DOT
62
4
100
AcDbLine
10
130428.780000000000
20
23601.590000000000
30
0.0
11
130172.039999999990
21
23172.549999999999
31
0.0
0
LINE
5
79b
100
AcDbEntity
8
1-0
6
DOT
62
4
100
AcDbLine
10
130172.039999999990
20
23172.549999999999
30
0.0
11
129911.670000000000
21
22745.680000000000
31
0.0
0
LINE
5
79c
100
AcDbEntity
8
1-0
6
DOT
62
4
100
AcDbLine
10
129911.670000000000
20
22745.680000000000
30
0.0
11
129646.429999999990
21
22321.830000000002
31
0.0
0
LINE
5
79d
100
AcDbEntity
8
1-0
6
DOT
62
4
100
AcDbLine
10
129646.429999999990
20
22321.830000000002
30
0.0
11
129375.190000000000
21
21901.639999999999
31
0.0
0
LINE
5
79e
100
AcDbEntity
8
1-0
6
DOT
62
4
100
AcDbLine
10
129375.190000000000
20
21901.639999999999
30
0.0
11
129096.700000000000
21
21485.889999999999
31
0.0
0
LINE
5
79f
100
AcDbEntity
8
1-0
6
DOT
62
4
100
AcDbLine
10
129096.700000000000
20
21485.889999999999
30
0.0
11
128809.740000000010
21
21075.299999999999
31
0.0
0
LINE
5
7a0
100
AcDbEntity
8
1-0
6
DOT
62
4
100
AcDbLine
10
128809.740000000010
20
21075.299999999999
30
0.0
11
128513.720000000000
21
20670.660000000000
31
0.0
0
LINE
5
7a1
100
AcDbEntity
8
1-0
6
DOT
62
4
100
AcDbLine
10
128513.720000000000
20
20670.660000000000
30
0.0
11
128208.820000000010
21
20272.480000000000
31
0.0
0
LINE
5
7a2
100
AcDbEntity
8
1-0
6
DOT
62
4
100
AcDbLine
10
128208.820000000010
20
20272.480000000000
30
0.0
11
127895.310000000000
21
19881.560000000001
31
0.0
0
LINE
5
7a3
100
AcDbEntity
8
1-0
6
DOT
62
4
100
AcDbLine
10
127895.310000000000
20
19881.560000000001
30
0.0
11
127573.470000000000
21
19498.529999999999
31
0.0
0
LINE
5
7a4
100
AcDbEntity
8
1-0
6
DOT
62
4
100
AcDbLine
10
127573.470000000000
20
19498.529999999999
30
0.0
11
127243.580000000000
21
19124.029999999999
31
0.0
0
LINE
5
7a5
100
AcDbEntity
8
1-0
6
DOT
62
4
100
AcDbLine
10
127243.580000000000
20
19124.029999999999
30
0.0
11
126905.899999999990
21
18758.660000000000
31
0.0
0
LINE
5
7a6
100
AcDbEntity
8
1-0
6
DOT
62
4
100
AcDbLine
10
126905.899999999990
20
18758.660000000000
30
0.0
11
126561.270000000000
21
18401.759999999998
31
0.0
0
LINE
5
7a7
100
AcDbEntity
8
1-0
6
DOT
62
4
100
AcDbLine
10
126561.270000000000
20
18401.759999999998
30
0.0
11
126211.480000000000
21
18050.310000000001
31
0.0
0
LINE
5
7a8
100
AcDbEntity
8
1-0
6
DOT
62
4
100
AcDbLine
10
126211.480000000000
20
18050.310000000001
30
0.0
11
125858.420000000000
21
17701.130000000001
31
0.0
0
LINE
5
7a9
100
AcDbEntity
8
1-0
6
DOT
62
4
100
AcDbLine
10
125858.420000000000
20
17701.130000000001
30
0.0
11
125503.929999999990
21
17351.110000000001
31
0.0
0
LINE
5
7aa
100
AcDbEntity
8
1-0
6
DOT
62
4
100
AcDbLine
10
125503.929999999990
20
17351.110000000001
30
0.0
11
125149.850000000010
21
16997.029999999999
31
0.0
0
LINE
5
7ab
100
AcDbEntity
8
1-0
6
DOT
62
4
100
AcDbLine
10
125149.850000000010
20
16997.029999999999
30
0.0
11
124798.039999999990
21
16635.770000000000
31
0.0
0
LINE
5
7ac
100
AcDbEntity
8
1-0
6
DOT
62
4
100
AcDbLine
10
124798.039999999990
20
16635.770000000000
30
0.0
11
124450.399999999990
21
16264.150000000000
31
0.0
0
LINE
5
7ad
100
AcDbEntity
8
1-0
6
DOT
62
4
100
AcDbLine
10
124450.399999999990
20
16264.150000000000
30
0.0
11
124107.950000000000
21
15880.510000000000
31
0.0
0
LINE
5
7ae
100
AcDbEntity
8
1-0
6
DOT
62
4
100
AcDbLine
10
124107.950000000000
20
15880.510000000000
30
0.0
11
123767.800000000000
21
15490.469999999999
31
0.0
0
LINE
5
7af
100
AcDbEntity
8
1-0
6
DOT
62
4
100
AcDbLine
10
123767.800000000000
20
15490.469999999999
30
0.0
11
123425.830000000000
21
15101.870000000001
31
0.0
0
LINE
5
7b0
100
AcDbEntity
8
1-0
6
DOT
62
4
100
AcDbLine
10
123425.830000000000
20
15101.870000000001
30
0.0
11
123077.920000000000
21
14722.520000000000
31
0.0
0
LINE
5
7b1
100
AcDbEntity
8
1-0
6
DOT
62
4
100
AcDbLine
10
123077.920000000000
20
14722.520000000000
30
0.0
11
122720.020000000000
21
14360.270000000000
31
0.0
0
LINE
5
7b2
100
AcDbEntity
8
1-0
6
DOT
62
4
100
AcDbLine
10
122720.020000000000
20
14360.270000000000
30
0.0
11
122347.950000000000
21
14023.010000000000
31
0.0
0
LINE
5
7b3
100
AcDbEntity
8
1-0
6
DOT
62
4
100
AcDbLine
10
122347.950000000000
20
14023.010000000000
30
0.0
11
121957.630000000000
21
13718.500000000000
31
0.0
0
LINE
5
7b4
100
AcDbEntity
8
1-0
6
DOT
62
4
100
AcDbLine
10
121957.630000000000
20
13718.500000000000
30
0.0
11
121544.940000000000
21
13454.580000000000
31
0.0
0
LINE
5
7b5
100
AcDbEntity
8
1-0
6
DOT
62
4
100
AcDbLine
10
121544.940000000000
20
13454.580000000000
30
0.0
11
121105.789999999990
21
13239.170000000000
31
0.0
0
LINE
5
7b6
100
AcDbEntity
8
1-0
6
DOT
62
4
100
AcDbLine
10
121105.789999999990
20
13239.170000000000
30
0.0
11
120637.720000000000
21
13076.930000000000
31
0.0
0
LINE
5
7b7
100
AcDbEntity
8
1-0
6
DOT
62
4
100
AcDbLine
10
120637.720000000000
20
13076.930000000000
30
0.0
11
120151.720000000000
21
12947.150000000000
31
0.0
0
LINE
5
7b8
100
AcDbEntity
8
1-0
6
DOT
62
4
100
AcDbLine
10
120151.720000000000
20
12947.150000000000
30
0.0
11
119665.670000000000
21
12816.100000000000
31
0.0
0
LINE
5
7b9
100
AcDbEntity
8
1-0
6
DOT
62
4
100
AcDbLine
10
119665.670000000000
20
12816.100000000000
30
0.0
11
119197.429999999990
21
12650.120000000001
31
0.0
0
LINE
5
7ba
100
AcDbEntity
8
1-0
6
DOT
62
4
100
AcDbLine
10
119197.429999999990
20
12650.120000000001
30
0.0
11
118759.300000000000
21
12425.799999999999
31
0.0
0
LINE
5
7bb
100
AcDbEntity
8
1-0
6
DOT
62
4
100
AcDbLine
10
118759.300000000000
20
12425.799999999999
30
0.0
11
118344.960000000010
21
12154.170000000000
31
0.0
0
LINE
5
7bc
100
AcDbEntity
8
1-0
6
DOT
62
4
100
AcDbLine
10
118344.960000000010
20
12154.170000000000
30
0.0
11
117944.200000000000
21
11853.420000000000
31
0.0
0
LINE
5
7bd
100
AcDbEntity
8
1-0
6
DOT
62
4
100
AcDbLine
10
117944.200000000000
20
11853.420000000000
30
0.0
11
117546.780000000000
21
11541.799999999999
31
0.0
0
LINE
5
7be
100
AcDbEntity
8
1-0
6
DOT
62
4
100
AcDbLine
10
117546.780000000000
20
11541.799999999999
30
0.0
11
117142.470000000000
21
11237.520000000000
31
0.0
0
LINE
5
7bf
100
AcDbEntity
8
1-0
6
DOT
62
4
100
AcDbLine
10
117142.470000000000
20
11237.520000000000
30
0.0
11
116721.090000000000
21
10958.799999999999
31
0.0
0
LINE
5
7c0
100
AcDbEntity
8
1-0
6
DOT
62
4
100
AcDbLine
10
116721.090000000000
20
10958.799999999999
30
0.0
11
116272.630000000000
21
10723.510000000000
31
0.0
0
LINE
5
7c1
100
AcDbEntity
8
1-0
6
DOT
62
4
100
AcDbLine
10
116272.630000000000
20
10723.510000000000
30
0.0
11
115794.420000000000
21
10540.650000000000
31
0.0
0
LINE
5
7c2
100
AcDbEntity
8
1-0
6
DOT
62
4
100
AcDbLine
10
115794.420000000000
20
10540.650000000000
30
0.0
11
115291.610000000000
21
10409.400000000000
31
0.0
0
LINE
5
7c3
100
AcDbEntity
8
1-0
6
DOT
62
4
100
AcDbLine
10
115291.610000000000
20
10409.400000000000
30
0.0
11
114769.759999999990
21
10328.430000000000
31
0.0
0
LINE
5
7c4
100
AcDbEntity
8
1-0
6
DOT
62
4
100
AcDbLine
10
114769.759999999990
20
10328.430000000000
30
0.0
11
114234.480000000000
21
10296.450000000001
31
0.0
0
LINE
5
7c5
100
AcDbEntity
8
1-0
6
DOT
62
4
100
AcDbLine
10
114234.480000000000
20
10296.450000000001
30
0.0
11
113691.310000000000
21
10312.170000000000
31
0.0
0
LINE
5
7c6
100
AcDbEntity
8
1-0
6
DOT
62
4
100
AcDbLine
10
113691.310000000000
20
10312.170000000000
30
0.0
11
113145.800000000000
21
10374.280000000001
31
0.0
0
LINE
5
7c7
100
AcDbEntity
8
1-0
6
DOT
62
4
100
AcDbLine
10
113145.800000000000
20
10374.280000000001
30
0.0
11
112603.560000000000
21
10481.500000000000
31
0.0
0
LINE
5
7c8
100
AcDbEntity
8
1-0
6
DOT
62
4
100
AcDbLine
10
112603.560000000000
20
10481.500000000000
30
0.0
11
112070.140000000000
21
10632.500000000000
31
0.0
0
LINE
5
7c9
100
AcDbEntity
8
1-0
6
DOT
62
4
100
AcDbLine
10
112070.140000000000
20
10632.500000000000
30
0.0
11
111551.100000000010
21
10825.990000000000
31
0.0
0
LINE
5
7ca
100
AcDbEntity
8
1-0
6
DOT
62
4
100
AcDbLine
10
111551.100000000010
20
10825.990000000000
30
0.0
11
111052.050000000000
21
11060.690000000001
31
0.0
0
LINE
5
7cb
100
AcDbEntity
8
1-0
6
DOT
62
4
100
AcDbLine
10
111052.050000000000
20
11060.690000000001
30
0.0
11
110578.509999999990
21
11335.260000000000
31
0.0
0
LINE
5
7cc
100
AcDbEntity
8
1-0
6
DOT
62
4
100
AcDbLine
10
110578.509999999990
20
11335.260000000000
30
0.0
11
110136.090000000000
21
11648.459999999999
31
0.0
0
LINE
5
7cd
100
AcDbEntity
8
1-0
6
DOT
62
4
100
AcDbLine
10
110136.090000000000
20
11648.459999999999
30
0.0
11
109730.370000000000
21
11998.930000000000
31
0.0
0
LINE
5
7ce
100
AcDbEntity
8
1-0
6
DOT
62
4
100
AcDbLine
10
109730.370000000000
20
11998.930000000000
30
0.0
11
109366.840000000000
21
12385.410000000000
31
0.0
0
LINE
5
7cf
100
AcDbEntity
8
1-0
6
DOT
62
4
100
AcDbLine
10
109366.840000000000
20
12385.410000000000
30
0.0
11
109050.950000000000
21
12806.420000000000
31
0.0
0
LINE
5
7d0
100
AcDbEntity
8
1-0
6
DOT
62
4
100
AcDbLine
10
109050.950000000000
20
12806.420000000000
30
0.0
11
108779.370000000000
21
13254.910000000000
31
0.0
0
LINE
5
7d1
100
AcDbEntity
8
1-0
6
DOT
62
4
100
AcDbLine
10
108779.370000000000
20
13254.910000000000
30
0.0
11
108537.280000000000
21
13716.150000000000
31
0.0
0
LINE
5
7d2
100
AcDbEntity
8
1-0
6
DOT
62
4
100
AcDbLine
10
108537.280000000000
20
13716.150000000000
30
0.0
11
108309.030000000000
21
14174.959999999999
31
0.0
0
LINE
5
7d3
100
AcDbEntity
8
1-0
6
DOT
62
4
100
AcDbLine
10
108309.030000000000
20
14174.959999999999
30
0.0
11
108078.929999999990
21
14616.120000000001
31
0.0
0
LINE
5
7d4
100
AcDbEntity
8
1-0
6
DOT
62
4
100
AcDbLine
10
108078.929999999990
20
14616.120000000001
30
0.0
11
107831.350000000010
21
15024.400000000000
31
0.0
0
LINE
5
7d5
100
AcDbEntity
8
1-0
6
DOT
62
4
100
AcDbLine
10
107831.350000000010
20
15024.400000000000
30
0.0
11
107550.640000000000
21
15384.650000000000
31
0.0
0
LINE
5
7d6
100
AcDbEntity
8
1-0
6
DOT
62
4
100
AcDbLine
10
107550.640000000000
20
15384.650000000000
30
0.0
11
107225.870000000000
21
15686.180000000000
31
0.0
0
LINE
5
7d7
100
AcDbEntity
8
1-0
6
DOT
62
4
100
AcDbLine
10
107225.870000000000
20
15686.180000000000
30
0.0
11
106858.870000000000
21
15931.030000000001
31
0.0
0
LINE
5
7d8
100
AcDbEntity
8
1-0
6
DOT
62
4
100
AcDbLine
10
106858.870000000000
20
15931.030000000001
30
0.0
11
106453.640000000000
21
16123.219999999999
31
0.0
0
LINE
5
7d9
100
AcDbEntity
8
1-0
6
DOT
62
4
100
AcDbLine
10
106453.640000000000
20
16123.219999999999
30
0.0
11
106014.210000000010
21
16266.879999999999
31
0.0
0
LINE
5
7da
100
AcDbEntity
8
1-0
6
DOT
62
4
100
AcDbLine
10
106014.210000000010
20
16266.879999999999
30
0.0
11
105544.539999999990
21
16366.000000000000
31
0.0
0
LINE
5
7db
100
AcDbEntity
8
1-0
6
DOT
62
4
100
AcDbLine
10
105544.539999999990
20
16366.000000000000
30
0.0
11
105048.700000000000
21
16424.750000000000
31
0.0
0
LINE
5
7dc
100
AcDbEntity
8
1-0
6
DOT
62
4
100
AcDbLine
10
105048.700000000000
20
16424.750000000000
30
0.0
11
104530.679999999990
21
16447.150000000001
31
0.0
0
LINE
5
7dd
100
AcDbEntity
8
1-0
6
DOT
62
4
100
AcDbLine
10
104530.679999999990
20
16447.150000000001
30
0.0
11
103994.460000000010
21
16437.259999999998
31
0.0
0
LINE
5
7de
100
AcDbEntity
8
1-0
6
DOT
62
4
100
AcDbLine
10
103994.460000000010
20
16437.259999999998
30
0.0
11
103444.110000000000
21
16399.189999999999
31
0.0
0
LINE
5
7df
100
AcDbEntity
8
1-0
6
DOT
62
4
100
AcDbLine
10
103444.110000000000
20
16399.189999999999
30
0.0
11
102883.570000000010
21
16337.030000000001
31
0.0
0
LINE
5
7e0
100
AcDbEntity
8
1-0
6
DOT
62
4
100
AcDbLine
10
102883.570000000010
20
16337.030000000001
30
0.0
11
102316.880000000000
21
16254.809999999999
31
0.0
0
LINE
5
7e1
100
AcDbEntity
8
1-0
6
DOT
62
4
100
AcDbLine
10
102316.880000000000
20
16254.809999999999
30
0.0
11
101748.060000000000
21
16156.680000000000
31
0.0
0
LINE
5
7e2
100
AcDbEntity
8
1-0
6
DOT
62
4
100
AcDbLine
10
101748.060000000000
20
16156.680000000000
30
0.0
11
101181.110000000000
21
16046.629999999999
31
0.0
0
LINE
5
7e3
100
AcDbEntity
8
1-0
6
DOT
62
4
100
AcDbLine
10
101181.110000000000
20
16046.629999999999
30
0.0
11
100620.009999999990
21
15928.770000000000
31
0.0
0
LINE
5
7e4
100
AcDbEntity
8
1-0
6
DOT
62
4
100
AcDbLine
10
100620.009999999990
20
15928.770000000000
30
0.0
11
100068.840000000000
21
15807.160000000000
31
0.0
0
LINE
5
7e5
100
AcDbEntity
8
1-0
6
DOT
62
4
100
AcDbLine
10
100068.840000000000
20
15807.160000000000
30
0.0
11
99531.509999999995
21
15685.910000000000
31
0.0
0
LINE
5
7e6
100
AcDbEntity
8
1-0
6
DOT
62
4
100
AcDbLine
10
99531.509999999995
20
15685.910000000000
30
0.0
11
99010.880000000005
21
15568.540000000001
31
0.0
0
LINE
5
7e7
100
AcDbEntity
8
1-0
6
DOT
62
4
100
AcDbLine
10
99010.880000000005
20
15568.540000000001
30
0.0
11
98505.080000000002
21
15456.480000000000
31
0.0
0
LINE
5
7e8
100
AcDbEntity
8
1-0
6
DOT
62
4
100
AcDbLine
10
98505.080000000002
20
15456.480000000000
30
0.0
11
98011.220000000001
21
15350.700000000001
31
0.0
0
LINE
5
7e9
100
AcDbEntity
8
1-0
6
DOT
62
4
100
AcDbLine
10
98011.220000000001
20
15350.700000000001
30
0.0
11
97526.320000000007
21
15252.219999999999
31
0.0
0
LINE
5
7ea
100
AcDbEntity
8
1-0
6
DOT
62
4
100
AcDbLine
10
97526.320000000007
20
15252.219999999999
30
0.0
11
97047.509999999995
21
15161.980000000000
31
0.0
0
LINE
5
7eb
100
AcDbEntity
8
1-0
6
DOT
62
4
100
AcDbLine
10
97047.509999999995
20
15161.980000000000
30
0.0
11
96571.860000000001
21
15081.000000000000
31
0.0
0
LINE
5
7ec
100
AcDbEntity
8
1-0
6
DOT
62
4
100
AcDbLine
10
96571.860000000001
20
15081.000000000000
30
0.0
11
96096.460000000006
21
15010.190000000001
31
0.0
0
LINE
5
7ed
100
AcDbEntity
8
1-0
6
DOT
62
4
100
AcDbLine
10
96096.460000000006
20
15010.190000000001
30
0.0
11
95618.759999999995
21
14950.320000000000
31
0.0
0
LINE
5
7ee
100
AcDbEntity
8
1-0
6
DOT
62
4
100
AcDbLine
10
95618.759999999995
20
14950.320000000000
30
0.0
11
95138.229999999996
21
14900.510000000000
31
0.0
0
LINE
5
7ef
100
AcDbEntity
8
1-0
6
DOT
62
4
100
AcDbLine
10
95138.229999999996
20
14900.510000000000
30
0.0
11
94654.990000000005
21
14859.459999999999
31
0.0
0
LINE
5
7f0
100
AcDbEntity
8
1-0
6
DOT
62
4
100
AcDbLine
10
94654.990000000005
20
14859.459999999999
30
0.0
11
94169.169999999998
21
14825.900000000000
31
0.0
0
LINE
5
7f1
100
AcDbEntity
8
1-0
6
DOT
62
4
100
AcDbLine
10
94169.169999999998
20
14825.900000000000
30
0.0
11
93680.899999999994
21
14798.459999999999
31
0.0
0
LINE
5
7f2
100
AcDbEntity
8
1-0
6
DOT
62
4
100
AcDbLine
10
93680.899999999994
20
14798.459999999999
30
0.0
11
93190.289999999994
21
14775.870000000001
31
0.0
0
LINE
5
7f3
100
AcDbEntity
8
1-0
6
DOT
62
4
100
AcDbLine
10
93190.289999999994
20
14775.870000000001
30
0.0
11
92697.490000000005
21
14756.799999999999
31
0.0
0
LINE
5
7f4
100
AcDbEntity
8
1-0
6
DOT
62
4
100
AcDbLine
10
92697.490000000005
20
14756.799999999999
30
0.0
11
92202.630000000005
21
14739.959999999999
31
0.0
0
LINE
5
7f5
100
AcDbEntity
8
1-0
6
DOT
62
4
100
AcDbLine
10
92202.630000000005
20
14739.959999999999
30
0.0
11
91705.759999999995
21
14724.030000000001
31
0.0
0
LINE
5
7f6
100
AcDbEntity
8
1-0
6
DOT
62
4
100
AcDbLine
10
91705.759999999995
20
14724.030000000001
30
0.0
11
91207.080000000002
21
14707.670000000000
31
0.0
0
LINE
5
7f7
100
AcDbEntity
8
1-0
6
DOT
62
4
100
AcDbLine
10
91207.080000000002
20
14707.670000000000
30
0.0
11
90706.710000000006
21
14689.600000000000
31
0.0
0
LINE
5
7f8
100
AcDbEntity
8
1-0
6
DOT
62
4
100
AcDbLine
10
90706.710000000006
20
14689.600000000000
30
0.0
11
90204.729999999996
21
14668.520000000000
31
0.0
0
LINE
5
7f9
100
AcDbEntity
8
1-0
6
DOT
62
4
100
AcDbLine
10
90204.729999999996
20
14668.520000000000
30
0.0
11
89701.309999999998
21
14643.090000000000
31
0.0
0
LINE
5
7fa
100
AcDbEntity
8
1-0
6
DOT
62
4
100
AcDbLine
10
89701.309999999998
20
14643.090000000000
30
0.0
11
89196.550000000003
21
14612.000000000000
31
0.0
0
LINE
5
7fb
100
AcDbEntity
8
1-0
6
DOT
62
4
100
AcDbLine
10
89196.550000000003
20
14612.000000000000
30
0.0
11
88690.600000000006
21
14573.969999999999
31
0.0
0
LINE
5
7fc
100
AcDbEntity
8
1-0
6
DOT
62
4
100
AcDbLine
10
88690.600000000006
20
14573.969999999999
30
0.0
11
88183.529999999999
21
14527.650000000000
31
0.0
0
LINE
5
7fd
100
AcDbEntity
8
1-0
6
DOT
62
4
100
AcDbLine
10
88183.529999999999
20
14527.650000000000
30
0.0
11
87675.520000000004
21
14471.740000000000
31
0.0
0
LINE
5
7fe
100
AcDbEntity
8
1-0
6
DOT
62
4
100
AcDbLine
10
87675.520000000004
20
14471.740000000000
30
0.0
11
87166.690000000002
21
14404.930000000000
31
0.0
0
LINE
5
7ff
100
AcDbEntity
8
1-0
6
DOT
62
4
100
AcDbLine
10
87166.690000000002
20
14404.930000000000
30
0.0
11
86657.139999999999
21
14325.920000000000
31
0.0
0
LINE
5
800
100
AcDbEntity
8
1-0
6
DOT
62
4
100
AcDbLine
10
86657.139999999999
20
14325.920000000000
30
0.0
11
86146.990000000005
21
14233.430000000000
31
0.0
0
LINE
5
801
100
AcDbEntity
8
1-0
6
DOT
62
4
100
AcDbLine
10
86146.990000000005
20
14233.430000000000
30
0.0
11
85636.399999999994
21
14126.070000000000
31
0.0
0
LINE
5
802
100
AcDbEntity
8
1-0
6
DOT
62
4
100
AcDbLine
10
85636.399999999994
20
14126.070000000000
30
0.0
11
85125.940000000002
21
14002.590000000000
31
0.0
0
LINE
5
803
100
AcDbEntity
8
1-0
6
DOT
62
4
100
AcDbLine
10
85125.940000000002
20
14002.590000000000
30
0.0
11
84618.350000000006
21
13861.719999999999
31
0.0
0
LINE
5
804
100
AcDbEntity
8
1-0
6
DOT
62
4
100
AcDbLine
10
84618.350000000006
20
13861.719999999999
30
0.0
11
84117.020000000004
21
13702.299999999999
31
0.0
0
LINE
5
805
100
AcDbEntity
8
1-0
6
DOT
62
4
100
AcDbLine
10
84117.020000000004
20
13702.299999999999
30
0.0
11
83625.289999999994
21
13523.070000000000
31
0.0
0
LINE
5
806
100
AcDbEntity
8
1-0
6
DOT
62
4
100
AcDbLine
10
83625.289999999994
20
13523.070000000000
30
0.0
11
83146.520000000004
21
13322.780000000001
31
0.0
0
LINE
5
807
100
AcDbEntity
8
1-0
6
DOT
62
4
100
AcDbLine
10
83146.520000000004
20
13322.780000000001
30
0.0
11
82684.080000000002
21
13100.280000000001
31
0.0
0
LINE
5
808
100
AcDbEntity
8
1-0
6
DOT
62
4
100
AcDbLine
10
82684.080000000002
20
13100.280000000001
30
0.0
11
82241.330000000002
21
12854.280000000001
31
0.0
0
LINE
5
809
100
AcDbEntity
8
1-0
6
DOT
62
4
100
AcDbLine
10
82241.330000000002
20
12854.280000000001
30
0.0
11
81821.630000000005
21
12583.620000000001
31
0.0
0
LINE
5
80a
100
AcDbEntity
8
1-0
6
DOT
62
4
100
AcDbLine
10
81821.630000000005
20
12583.620000000001
30
0.0
11
81428.330000000002
21
12287.020000000000
31
0.0
0
LINE
5
80b
100
AcDbEntity
8
1-0
6
DOT
62
4
100
AcDbLine
10
81428.330000000002
20
12287.020000000000
30
0.0
11
81064.789999999994
21
11963.290000000001
31
0.0
0
LINE
5
80c
100
AcDbEntity
8
1-0
6
DOT
62
4
100
AcDbLine
10
81064.789999999994
20
11963.290000000001
30
0.0
11
80734.389999999999
21
11611.209999999999
31
0.0
0
LINE
5
80d
100
AcDbEntity
8
1-0
6
DOT
62
4
100
AcDbLine
10
80734.389999999999
20
11611.209999999999
30
0.0
11
80439.740000000005
21
11229.980000000000
31
0.0
0
LINE
5
80e
100
AcDbEntity
8
1-0
6
DOT
62
4
100
AcDbLine
10
80439.740000000005
20
11229.980000000000
30
0.0
11
80178.649999999994
21
10821.809999999999
31
0.0
0
LINE
5
80f
100
AcDbEntity
8
1-0
6
DOT
62
4
100
AcDbLine
10
80178.649999999994
20
10821.809999999999
30
0.0
11
79946.910000000003
21
10390.010000000000
31
0.0
0
LINE
5
810
100
AcDbEntity
8
1-0
6
DOT
62
4
100
AcDbLine
10
79946.910000000003
20
10390.010000000000
30
0.0
11
79740.339999999997
21
9937.990000000000
31
0.0
0
LINE
5
811
100
AcDbEntity
8
1-0
6
DOT
62
4
100
AcDbLine
10
79740.339999999997
20
9937.990000000000
30
0.0
11
79554.770000000004
21
9469.090000000000
31
0.0
0
LINE
5
812
100
AcDbEntity
8
1-0
6
DOT
62
4
100
AcDbLine
10
79554.770000000004
20
9469.090000000000
30
0.0
11
79385.979999999996
21
8986.700000000001
31
0.0
0
LINE
5
813
100
AcDbEntity
8
1-0
6
DOT
62
4
100
AcDbLine
10
79385.979999999996
20
8986.700000000001
30
0.0
11
79229.809999999998
21
8494.170000000000
31
0.0
0
LINE
5
814
100
AcDbEntity
8
1-0
6
DOT
62
4
100
AcDbLine
10
79229.809999999998
20
8494.170000000000
30
0.0
11
79082.059999999998
21
7994.870000000000
31
0.0
0
LINE
5
815
100
AcDbEntity
8
1-0
6
DOT
62
4
100
AcDbLine
10
79082.059999999998
20
7994.870000000000
30
0.0
11
78938.559999999998
21
7492.190000000000
31
0.0
0
LINE
5
816
100
AcDbEntity
8
1-0
6
DOT
62
4
100
AcDbLine
10
78938.559999999998
20
7492.190000000000
30
0.0
11
78937.059999999998
21
7486.940000000000
31
0.0
0
LINE
5
817
100
AcDbEntity
8
1-0
6
CONTINUOUS
62
4
100
AcDbLine
10
72591.020000000004
20
22780.820000000000
30
0.0
11
73077.820000000007
21
22661.869999999999
31
0.0
0
LINE
5
818
100
AcDbEntity
8
1-0
6
CONTINUOUS
62
4
100
AcDbLine
10
73077.820000000007
20
22661.869999999999
30
0.0
11
73564.860000000001
21
22544.220000000001
31
0.0
0
LINE
5
819
100
AcDbEntity
8
1-0
6
CONTINUOUS
62
4
100
AcDbLine
10
73564.860000000001
20
22544.220000000001
30
0.0
11
74052.339999999997
21
22429.169999999998
31
0.0
0
LINE
5
81a
100
AcDbEntity
8
1-0
6
CONTINUOUS
62
4
100
AcDbLine
10
74052.339999999997
20
22429.169999999998
30
0.0
11
74540.520000000004
21
22318.080000000002
31
0.0
0
LINE
5
81b
100
AcDbEntity
8
1-0
6
CONTINUOUS
62
4
100
AcDbLine
10
74540.520000000004
20
22318.080000000002
30
0.0
11
75029.610000000001
21
22212.220000000001
31
0.0
0
LINE
5
81c
100
AcDbEntity
8
1-0
6
CONTINUOUS
62
4
100
AcDbLine
10
75029.610000000001
20
22212.220000000001
30
0.0
11
75519.839999999997
21
22112.950000000001
31
0.0
0
LINE
5
81d
100
AcDbEntity
8
1-0
6
CONTINUOUS
62
4
100
AcDbLine
10
75519.839999999997
20
22112.950000000001
30
0.0
11
76011.440000000002
21
22021.509999999998
31
0.0
0
LINE
5
81e
100
AcDbEntity
8
1-0
6
CONTINUOUS
62
4
100
AcDbLine
10
76011.440000000002
20
22021.509999999998
30
0.0
11
76504.649999999994
21
21939.270000000000
31
0.0
0
LINE
5
81f
100
AcDbEntity
8
1-0
6
CONTINUOUS
62
4
100
AcDbLine
10
76504.649999999994
20
21939.270000000000
30
0.0
11
76999.669999999998
21
21867.520000000000
31
0.0
0
LINE
5
820
100
AcDbEntity
8
1-0
6
CONTINUOUS
62
4
100
AcDbLine
10
76999.669999999998
20
21867.520000000000
30
0.0
11
77496.770000000004
21
21807.590000000000
31
0.0
0
LINE
5
821
100
AcDbEntity
8
1-0
6
CONTINUOUS
62
4
100
AcDbLine
10
77496.770000000004
20
21807.590000000000
30
0.0
11
77996.119999999995
21
21760.740000000002
31
0.0
0
LINE
5
822
100
AcDbEntity
8
1-0
6
CONTINUOUS
62
4
100
AcDbLine
10
77996.119999999995
20
21760.740000000002
30
0.0
11
78498.020000000004
21
21728.330000000002
31
0.0
0
LINE
5
823
100
AcDbEntity
8
1-0
6
CONTINUOUS
62
4
100
AcDbLine
10
78498.020000000004
20
21728.330000000002
30
0.0
11
79002.460000000006
21
21711.639999999999
31
0.0
0
LINE
5
824
100
AcDbEntity
8
1-0
6
CONTINUOUS
62
4
100
AcDbLine
10
79002.460000000006
20
21711.639999999999
30
0.0
11
79508.419999999998
21
21711.639999999999
31
0.0
0
LINE
5
825
100
AcDbEntity
8
1-0
6
CONTINUOUS
62
4
100
AcDbLine
10
79508.419999999998
20
21711.639999999999
30
0.0
11
80014.449999999997
21
21729.340000000000
31
0.0
0
LINE
5
826
100
AcDbEntity
8
1-0
6
CONTINUOUS
62
4
100
AcDbLine
10
80014.449999999997
20
21729.340000000000
30
0.0
11
80519.080000000002
21
21765.680000000000
31
0.0
0
LINE
5
827
100
AcDbEntity
8
1-0
6
CONTINUOUS
62
4
100
AcDbLine
10
80519.080000000002
20
21765.680000000000
30
0.0
11
81020.869999999995
21
21821.590000000000
31
0.0
0
LINE
5
828
100
AcDbEntity
8
1-0
6
CONTINUOUS
62
4
100
AcDbLine
10
81020.869999999995
20
21821.590000000000
30
0.0
11
81518.330000000002
21
21898.009999999998
31
0.0
0
LINE
5
829
100
AcDbEntity
8
1-0
6
CONTINUOUS
62
4
100
AcDbLine
10
81518.330000000002
20
21898.009999999998
30
0.0
11
82010.039999999994
21
21995.910000000000
31
0.0
0
LINE
5
82a
100
AcDbEntity
8
1-0
6
CONTINUOUS
62
4
100
AcDbLine
10
82010.039999999994
20
21995.910000000000
30
0.0
11
82494.539999999994
21
22116.209999999999
31
0.0
0
LINE
5
82b
100
AcDbEntity
8
1-0
6
CONTINUOUS
62
4
100
AcDbLine
10
82494.539999999994
20
22116.209999999999
30
0.0
11
82970.369999999995
21
22259.889999999999
31
0.0
0
LINE
5
82c
100
AcDbEntity
8
1-0
6
CONTINUOUS
62
4
100
AcDbLine
10
82970.369999999995
20
22259.889999999999
30
0.0
11
83436.229999999996
21
22427.639999999999
31
0.0
0
LINE
5
82d
100
AcDbEntity
8
1-0
6
CONTINUOUS
62
4
100
AcDbLine
10
83436.229999999996
20
22427.639999999999
30
0.0
11
83892.479999999996
21
22618.040000000001
31
0.0
0
LINE
5
82e
100
AcDbEntity
8
1-0
6
CONTINUOUS
62
4
100
AcDbLine
10
83892.479999999996
20
22618.040000000001
30
0.0
11
84340.369999999995
21
22828.360000000001
31
0.0
0
LINE
5
82f
100
AcDbEntity
8
1-0
6
CONTINUOUS
62
4
100
AcDbLine
10
84340.369999999995
20
22828.360000000001
30
0.0
11
84781.220000000001
21
23055.880000000001
31
0.0
0
LINE
5
830
100
AcDbEntity
8
1-0
6
CONTINUOUS
62
4
100
AcDbLine
10
84781.220000000001
20
23055.880000000001
30
0.0
11
85216.339999999997
21
23297.790000000001
31
0.0
0
LINE
5
831
100
AcDbEntity
8
1-0
6
CONTINUOUS
62
4
100
AcDbLine
10
85216.339999999997
20
23297.790000000001
30
0.0
11
85647.020000000004
21
23551.419999999998
31
0.0
0
LINE
5
832
100
AcDbEntity
8
1-0
6
CONTINUOUS
62
4
100
AcDbLine
10
85647.020000000004
20
23551.419999999998
30
0.0
11
86074.559999999998
21
23813.990000000002
31
0.0
0
LINE
5
833
100
AcDbEntity
8
1-0
6
CONTINUOUS
62
4
100
AcDbLine
10
86074.559999999998
20
23813.990000000002
30
0.0
11
86500.259999999995
21
24082.790000000001
31
0.0
0
LINE
5
834
100
AcDbEntity
8
1-0
6
CONTINUOUS
62
4
100
AcDbLine
10
86500.259999999995
20
24082.790000000001
30
0.0
11
86925.419999999998
21
24355.070000000000
31
0.0
0
LINE
5
835
100
AcDbEntity
8
1-0
6
CONTINUOUS
62
4
100
AcDbLine
10
86925.419999999998
20
24355.070000000000
30
0.0
11
87351.330000000002
21
24628.080000000002
31
0.0
0
LINE
5
836
100
AcDbEntity
8
1-0
6
CONTINUOUS
62
4
100
AcDbLine
10
87351.330000000002
20
24628.080000000002
30
0.0
11
87779.330000000002
21
24899.110000000001
31
0.0
0
LINE
5
837
100
AcDbEntity
8
1-0
6
CONTINUOUS
62
4
100
AcDbLine
10
87779.330000000002
20
24899.110000000001
30
0.0
11
88210.669999999998
21
25165.369999999999
31
0.0
0
LINE
5
838
100
AcDbEntity
8
1-0
6
CONTINUOUS
62
4
100
AcDbLine
10
88210.669999999998
20
25165.369999999999
30
0.0
11
88646.679999999993
21
25424.200000000001
31
0.0
0
LINE
5
839
100
AcDbEntity
8
1-0
6
CONTINUOUS
62
4
100
AcDbLine
10
88646.679999999993
20
25424.200000000001
30
0.0
11
89087.970000000001
21
25673.799999999999
31
0.0
0
LINE
5
83a
100
AcDbEntity
8
1-0
6
CONTINUOUS
62
4
100
AcDbLine
10
89087.970000000001
20
25673.799999999999
30
0.0
11
89534.229999999996
21
25914.029999999999
31
0.0
0
LINE
5
83b
100
AcDbEntity
8
1-0
6
CONTINUOUS
62
4
100
AcDbLine
10
89534.229999999996
20
25914.029999999999
30
0.0
11
89985.100000000006
21
26144.750000000000
31
0.0
0
LINE
5
83c
100
AcDbEntity
8
1-0
6
CONTINUOUS
62
4
100
AcDbLine
10
89985.100000000006
20
26144.750000000000
30
0.0
11
90440.149999999994
21
26365.910000000000
31
0.0
0
LINE
5
83d
100
AcDbEntity
8
1-0
6
CONTINUOUS
62
4
100
AcDbLine
10
90440.149999999994
20
26365.910000000000
30
0.0
11
90898.970000000001
21
26577.389999999999
31
0.0
0
LINE
5
83e
100
AcDbEntity
8
1-0
6
CONTINUOUS
62
4
100
AcDbLine
10
90898.970000000001
20
26577.389999999999
30
0.0
11
91361.190000000002
21
26779.080000000002
31
0.0
0
LINE
5
83f
100
AcDbEntity
8
1-0
6
CONTINUOUS
62
4
100
AcDbLine
10
91361.190000000002
20
26779.080000000002
30
0.0
11
91826.429999999993
21
26970.950000000001
31
0.0
0
LINE
5
840
100
AcDbEntity
8
1-0
6
CONTINUOUS
62
4
100
AcDbLine
10
91826.429999999993
20
26970.950000000001
30
0.0
11
92294.240000000005
21
27152.860000000001
31
0.0
0
LINE
5
841
100
AcDbEntity
8
1-0
6
CONTINUOUS
62
4
100
AcDbLine
10
92294.240000000005
20
27152.860000000001
30
0.0
11
92764.270000000004
21
27324.740000000002
31
0.0
0
LINE
5
842
100
AcDbEntity
8
1-0
6
CONTINUOUS
62
4
100
AcDbLine
10
92764.270000000004
20
27324.740000000002
30
0.0
11
93236.100000000006
21
27486.480000000000
31
0.0
0
LINE
5
843
100
AcDbEntity
8
1-0
6
CONTINUOUS
62
4
100
AcDbLine
10
93236.100000000006
20
27486.480000000000
30
0.0
11
93709.339999999997
21
27638.000000000000
31
0.0
0
LINE
5
844
100
AcDbEntity
8
1-0
6
CONTINUOUS
62
4
100
AcDbLine
10
93709.339999999997
20
27638.000000000000
30
0.0
11
94183.589999999997
21
27779.200000000001
31
0.0
0
LINE
5
845
100
AcDbEntity
8
1-0
6
CONTINUOUS
62
4
100
AcDbLine
10
94183.589999999997
20
27779.200000000001
30
0.0
11
94658.440000000002
21
27910.029999999999
31
0.0
0
LINE
5
846
100
AcDbEntity
8
1-0
6
CONTINUOUS
62
4
100
AcDbLine
10
94658.440000000002
20
27910.029999999999
30
0.0
11
95133.559999999998
21
28030.330000000002
31
0.0
0
LINE
5
847
100
AcDbEntity
8
1-0
6
CONTINUOUS
62
4
100
AcDbLine
10
95133.559999999998
20
28030.330000000002
30
0.0
11
95609.699999999997
21
28139.830000000002
31
0.0
0
LINE
5
848
100
AcDbEntity
8
1-0
6
CONTINUOUS
62
4
100
AcDbLine
10
95609.699999999997
20
28139.830000000002
30
0.0
11
96088.490000000005
21
28238.040000000001
31
0.0
0
LINE
5
849
100
AcDbEntity
8
1-0
6
CONTINUOUS
62
4
100
AcDbLine
10
96088.490000000005
20
28238.040000000001
30
0.0
11
96571.639999999999
21
28324.470000000001
31
0.0
0
LINE
5
84a
100
AcDbEntity
8
1-0
6
CONTINUOUS
62
4
100
AcDbLine
10
96571.639999999999
20
28324.470000000001
30
0.0
11
97060.839999999997
21
28398.619999999999
31
0.0
0
LINE
5
84b
100
AcDbEntity
8
1-0
6
CONTINUOUS
62
4
100
AcDbLine
10
97060.839999999997
20
28398.619999999999
30
0.0
11
97557.779999999999
21
28459.990000000002
31
0.0
0
LINE
5
84c
100
AcDbEntity
8
1-0
6
CONTINUOUS
62
4
100
AcDbLine
10
97557.779999999999
20
28459.990000000002
30
0.0
11
98064.190000000002
21
28508.150000000001
31
0.0
0
LINE
5
84d
100
AcDbEntity
8
1-0
6
CONTINUOUS
62
4
100
AcDbLine
10
98064.190000000002
20
28508.150000000001
30
0.0
11
98581.710000000006
21
28542.529999999999
31
0.0
0
LINE
5
84e
100
AcDbEntity
8
1-0
6
CONTINUOUS
62
4
100
AcDbLine
10
98581.710000000006
20
28542.529999999999
30
0.0
11
99112.009999999995
21
28562.720000000001
31
0.0
0
LINE
5
84f
100
AcDbEntity
8
1-0
6
CONTINUOUS
62
4
100
AcDbLine
10
99112.009999999995
20
28562.720000000001
30
0.0
11
99654.410000000003
21
28567.110000000001
31
0.0
0
LINE
5
850
100
AcDbEntity
8
1-0
6
CONTINUOUS
62
4
100
AcDbLine
10
99654.410000000003
20
28567.110000000001
30
0.0
11
100202.740000000010
21
28551.970000000001
31
0.0
0
LINE
5
851
100
AcDbEntity
8
1-0
6
CONTINUOUS
62
4
100
AcDbLine
10
100202.740000000010
20
28551.970000000001
30
0.0
11
100750.200000000000
21
28513.209999999999
31
0.0
0
LINE
5
852
100
AcDbEntity
8
1-0
6
CONTINUOUS
62
4
100
AcDbLine
10
100750.200000000000
20
28513.209999999999
30
0.0
11
101290.000000000000
21
28446.740000000002
31
0.0
0
LINE
5
853
100
AcDbEntity
8
1-0
6
CONTINUOUS
62
4
100
AcDbLine
10
101290.000000000000
20
28446.740000000002
30
0.0
11
101815.300000000000
21
28348.500000000000
31
0.0
0
LINE
5
854
100
AcDbEntity
8
1-0
6
CONTINUOUS
62
4
100
AcDbLine
10
101815.300000000000
20
28348.500000000000
30
0.0
11
102319.259999999990
21
28214.389999999999
31
0.0
0
LINE
5
855
100
AcDbEntity
8
1-0
6
CONTINUOUS
62
4
100
AcDbLine
10
102319.259999999990
20
28214.389999999999
30
0.0
11
102795.120000000000
21
28040.279999999999
31
0.0
0
LINE
5
856
100
AcDbEntity
8
1-0
6
CONTINUOUS
62
4
100
AcDbLine
10
102795.120000000000
20
28040.279999999999
30
0.0
11
103236.009999999990
21
27822.169999999998
31
0.0
0
LINE
5
857
100
AcDbEntity
8
1-0
6
CONTINUOUS
62
4
100
AcDbLine
10
103236.009999999990
20
27822.169999999998
30
0.0
11
103635.149999999990
21
27555.900000000001
31
0.0
0
LINE
5
858
100
AcDbEntity
8
1-0
6
CONTINUOUS
62
4
100
AcDbLine
10
103635.149999999990
20
27555.900000000001
30
0.0
11
103985.710000000010
21
27237.459999999999
31
0.0
0
LINE
5
859
100
AcDbEntity
8
1-0
6
CONTINUOUS
62
4
100
AcDbLine
10
103985.710000000010
20
27237.459999999999
30
0.0
11
104281.350000000010
21
26863.099999999999
31
0.0
0
LINE
5
85a
100
AcDbEntity
8
1-0
6
CONTINUOUS
62
4
100
AcDbLine
10
104281.350000000010
20
26863.099999999999
30
0.0
11
104527.149999999990
21
26439.230000000000
31
0.0
0
LINE
5
85b
100
AcDbEntity
8
1-0
6
CONTINUOUS
62
4
100
AcDbLine
10
104527.149999999990
20
26439.230000000000
30
0.0
11
104739.980000000000
21
25982.450000000001
31
0.0
0
LINE
5
85c
100
AcDbEntity
8
1-0
6
CONTINUOUS
62
4
100
AcDbLine
10
104739.980000000000
20
25982.450000000001
30
0.0
11
104937.120000000000
21
25509.889999999999
31
0.0
0
LINE
5
85d
100
AcDbEntity
8
1-0
6
CONTINUOUS
62
4
100
AcDbLine
10
104937.120000000000
20
25509.889999999999
30
0.0
11
105136.000000000000
21
25038.639999999999
31
0.0
0
LINE
5
85e
100
AcDbEntity
8
1-0
6
CONTINUOUS
62
4
100
AcDbLine
10
105136.000000000000
20
25038.639999999999
30
0.0
11
105353.920000000000
21
24585.750000000000
31
0.0
0
LINE
5
85f
100
AcDbEntity
8
1-0
6
CONTINUOUS
62
4
100
AcDbLine
10
105353.920000000000
20
24585.750000000000
30
0.0
11
105607.770000000000
21
24167.900000000001
31
0.0
0
LINE
5
860
100
AcDbEntity
8
1-0
6
CONTINUOUS
62
4
100
AcDbLine
10
105607.770000000000
20
24167.900000000001
30
0.0
11
105904.060000000000
21
23792.430000000000
31
0.0
0
LINE
5
861
100
AcDbEntity
8
1-0
6
CONTINUOUS
62
4
100
AcDbLine
10
105904.060000000000
20
23792.430000000000
30
0.0
11
106240.179999999990
21
23458.250000000000
31
0.0
0
LINE
5
862
100
AcDbEntity
8
1-0
6
CONTINUOUS
62
4
100
AcDbLine
10
106240.179999999990
20
23458.250000000000
30
0.0
11
106613.060000000000
21
23164.110000000001
31
0.0
0
LINE
5
863
100
AcDbEntity
8
1-0
6
CONTINUOUS
62
4
100
AcDbLine
10
106613.060000000000
20
23164.110000000001
30
0.0
11
107019.640000000000
21
22908.619999999999
31
0.0
0
LINE
5
864
100
AcDbEntity
8
1-0
6
CONTINUOUS
62
4
100
AcDbLine
10
107019.640000000000
20
22908.619999999999
30
0.0
11
107456.890000000000
21
22690.450000000001
31
0.0
0
LINE
5
865
100
AcDbEntity
8
1-0
6
CONTINUOUS
62
4
100
AcDbLine
10
107456.890000000000
20
22690.450000000001
30
0.0
11
107921.860000000000
21
22508.299999999999
31
0.0
0
LINE
5
866
100
AcDbEntity
8
1-0
6
CONTINUOUS
62
4
100
AcDbLine
10
107921.860000000000
20
22508.299999999999
30
0.0
11
108411.420000000000
21
22360.750000000000
31
0.0
0
LINE
5
867
100
AcDbEntity
8
1-0
6
CONTINUOUS
62
4
100
AcDbLine
10
108411.420000000000
20
22360.750000000000
30
0.0
11
108922.600000000010
21
22246.560000000001
31
0.0
0
LINE
5
868
100
AcDbEntity
8
1-0
6
CONTINUOUS
62
4
100
AcDbLine
10
108922.600000000010
20
22246.560000000001
30
0.0
11
109452.350000000010
21
22164.270000000000
31
0.0
0
LINE
5
869
100
AcDbEntity
8
1-0
6
CONTINUOUS
62
4
100
AcDbLine
10
109452.350000000010
20
22164.270000000000
30
0.0
11
109997.630000000000
21
22112.650000000001
31
0.0
0
LINE
5
86a
100
AcDbEntity
8
1-0
6
CONTINUOUS
62
4
100
AcDbLine
10
109997.630000000000
20
22112.650000000001
30
0.0
11
110555.440000000000
21
22090.299999999999
31
0.0
0
LINE
5
86b
100
AcDbEntity
8
1-0
6
CONTINUOUS
62
4
100
AcDbLine
10
110555.440000000000
20
22090.299999999999
30
0.0
11
111122.710000000010
21
22095.919999999998
31
0.0
0
LINE
5
86c
100
AcDbEntity
8
1-0
6
CONTINUOUS
62
4
100
AcDbLine
10
111122.710000000010
20
22095.919999999998
30
0.0
11
111696.420000000000
21
22128.150000000001
31
0.0
0
LINE
5
86d
100
AcDbEntity
8
1-0
6
CONTINUOUS
62
4
100
AcDbLine
10
111696.420000000000
20
22128.150000000001
30
0.0
11
112273.539999999990
21
22185.639999999999
31
0.0
0
LINE
5
86e
100
AcDbEntity
8
1-0
6
CONTINUOUS
62
4
100
AcDbLine
10
112273.539999999990
20
22185.639999999999
30
0.0
11
112851.060000000000
21
22267.060000000001
31
0.0
0
LINE
5
86f
100
AcDbEntity
8
1-0
6
CONTINUOUS
62
4
100
AcDbLine
10
112851.060000000000
20
22267.060000000001
30
0.0
11
113425.920000000000
21
22371.060000000001
31
0.0
0
LINE
5
870
100
AcDbEntity
8
1-0
6
CONTINUOUS
62
4
100
AcDbLine
10
113425.920000000000
20
22371.060000000001
30
0.0
11
113995.100000000010
21
22496.340000000000
31
0.0
0
LINE
5
871
100
AcDbEntity
8
1-0
6
CONTINUOUS
62
4
100
AcDbLine
10
113995.100000000010
20
22496.340000000000
30
0.0
11
114555.560000000000
21
22641.529999999999
31
0.0
0
LINE
5
872
100
AcDbEntity
8
1-0
6
CONTINUOUS
62
4
100
AcDbLine
10
114555.560000000000
20
22641.529999999999
30
0.0
11
115104.289999999990
21
22805.290000000001
31
0.0
0
LINE
5
873
100
AcDbEntity
8
1-0
6
CONTINUOUS
62
4
100
AcDbLine
10
115104.289999999990
20
22805.290000000001
30
0.0
11
115638.230000000000
21
22986.290000000001
31
0.0
0
LINE
5
874
100
AcDbEntity
8
1-0
6
CONTINUOUS
62
4
100
AcDbLine
10
115638.230000000000
20
22986.290000000001
30
0.0
11
116155.160000000000
21
23183.419999999998
31
0.0
0
LINE
5
875
100
AcDbEntity
8
1-0
6
CONTINUOUS
62
4
100
AcDbLine
10
116155.160000000000
20
23183.419999999998
30
0.0
11
116655.200000000000
21
23396.009999999998
31
0.0
0
LINE
5
876
100
AcDbEntity
8
1-0
6
CONTINUOUS
62
4
100
AcDbLine
10
116655.200000000000
20
23396.009999999998
30
0.0
11
117138.820000000010
21
23623.689999999999
31
0.0
0
LINE
5
877
100
AcDbEntity
8
1-0
6
CONTINUOUS
62
4
100
AcDbLine
10
117138.820000000010
20
23623.689999999999
30
0.0
11
117606.530000000000
21
23865.869999999999
31
0.0
0
LINE
5
878
100
AcDbEntity
8
1-0
6
CONTINUOUS
62
4
100
AcDbLine
10
117606.530000000000
20
23865.869999999999
30
0.0
11
118058.820000000010
21
24122.189999999999
31
0.0
0
LINE
5
879
100
AcDbEntity
8
1-0
6
CONTINUOUS
62
4
100
AcDbLine
10
118058.820000000010
20
24122.189999999999
30
0.0
11
118496.200000000000
21
24392.090000000000
31
0.0
0
LINE
5
87a
100
AcDbEntity
8
1-0
6
CONTINUOUS
62
4
100
AcDbLine
10
118496.200000000000
20
24392.090000000000
30
0.0
11
118919.179999999990
21
24675.139999999999
31
0.0
0
LINE
5
87b
100
AcDbEntity
8
1-0
6
CONTINUOUS
62
4
100
AcDbLine
10
118919.179999999990
20
24675.139999999999
30
0.0
11
119328.259999999990
21
24970.810000000001
31
0.0
0
LINE
5
87c
100
AcDbEntity
8
1-0
6
CONTINUOUS
62
4
100
AcDbLine
10
119328.259999999990
20
24970.810000000001
30
0.0
11
119723.929999999990
21
25278.709999999999
31
0.0
0
LINE
5
87d
100
AcDbEntity
8
1-0
6
CONTINUOUS
62
4
100
AcDbLine
10
119723.929999999990
20
25278.709999999999
30
0.0
11
120106.720000000000
21
25598.290000000001
31
0.0
0
LINE
5
87e
100
AcDbEntity
8
1-0
6
CONTINUOUS
62
4
100
AcDbLine
10
120106.720000000000
20
25598.290000000001
30
0.0
11
120477.100000000010
21
25929.070000000000
31
0.0
0
LINE
5
87f
100
AcDbEntity
8
1-0
6
CONTINUOUS
62
4
100
AcDbLine
10
120477.100000000010
20
25929.070000000000
30
0.0
11
120835.590000000000
21
26270.630000000001
31
0.0
0
LINE
5
880
100
AcDbEntity
8
1-0
6
CONTINUOUS
62
4
100
AcDbLine
10
120835.590000000000
20
26270.630000000001
30
0.0
11
121182.690000000000
21
26622.439999999999
31
0.0
0
LINE
5
881
100
AcDbEntity
8
1-0
6
CONTINUOUS
62
4
100
AcDbLine
10
121182.690000000000
20
26622.439999999999
30
0.0
11
121518.910000000000
21
26984.040000000001
31
0.0
0
LINE
5
882
100
AcDbEntity
8
1-0
6
CONTINUOUS
62
4
100
AcDbLine
10
121518.910000000000
20
26984.040000000001
30
0.0
11
121844.750000000000
21
27354.950000000001
31
0.0
0
LINE
5
883
100
AcDbEntity
8
1-0
6
CONTINUOUS
62
4
100
AcDbLine
10
121844.750000000000
20
27354.950000000001
30
0.0
11
122160.690000000000
21
27734.700000000001
31
0.0
0
LINE
5
884
100
AcDbEntity
8
1-0
6
CONTINUOUS
62
4
100
AcDbLine
10
122160.690000000000
20
27734.700000000001
30
0.0
11
122467.289999999990
21
28122.820000000000
31
0.0
0
LINE
5
885
100
AcDbEntity
8
1-0
6
CONTINUOUS
62
4
100
AcDbLine
10
122467.289999999990
20
28122.820000000000
30
0.0
11
122764.940000000000
21
28518.830000000002
31
0.0
0
LINE
5
886
100
AcDbEntity
8
1-0
6
CONTINUOUS
62
4
100
AcDbLine
10
122764.940000000000
20
28518.830000000002
30
0.0
11
123054.270000000000
21
28922.250000000000
31
0.0
0
LINE
5
887
100
AcDbEntity
8
1-0
6
CONTINUOUS
62
4
100
AcDbLine
10
123054.270000000000
20
28922.250000000000
30
0.0
11
123335.810000000000
21
29332.480000000000
31
0.0
0
LINE
5
888
100
AcDbEntity
8
1-0
6
CONTINUOUS
62
4
100
AcDbLine
10
123335.810000000000
20
29332.480000000000
30
0.0
11
123610.640000000000
21
29748.630000000001
31
0.0
0
LINE
5
889
100
AcDbEntity
8
1-0
6
CONTINUOUS
62
4
100
AcDbLine
10
123610.640000000000
20
29748.630000000001
30
0.0
11
123880.030000000000
21
30169.590000000000
31
0.0
0
LINE
5
88a
100
AcDbEntity
8
1-0
6
CONTINUOUS
62
4
100
AcDbLine
10
123880.030000000000
20
30169.590000000000
30
0.0
11
124145.250000000000
21
30594.209999999999
31
0.0
0
LINE
5
88b
100
AcDbEntity
8
1-0
6
CONTINUOUS
62
4
100
AcDbLine
10
124145.250000000000
20
30594.209999999999
30
0.0
11
124407.509999999990
21
31021.389999999999
31
0.0
0
LINE
5
88c
100
AcDbEntity
8
1-0
6
CONTINUOUS
62
4
100
AcDbLine
10
124407.509999999990
20
31021.389999999999
30
0.0
11
124668.110000000000
21
31450.099999999999
31
0.0
0
LINE
5
88d
100
AcDbEntity
8
1-0
6
CONTINUOUS
62
4
100
AcDbLine
10
124668.110000000000
20
31450.099999999999
30
0.0
11
124758.140000000000
21
31598.619999999999
31
0.0
0
LINE
5
88e
100
AcDbEntity
8
1-0
6
CONTINUOUS
62
4
100
AcDbLine
10
71734.210000000006
20
19090.150000000001
30
0.0
11
72245.289999999994
21
18971.740000000002
31
0.0
0
LINE
5
88f
100
AcDbEntity
8
1-0
6
CONTINUOUS
62
4
100
AcDbLine
10
72245.289999999994
20
18971.740000000002
30
0.0
11
72756.020000000004
21
18855.680000000000
31
0.0
0
LINE
5
890
100
AcDbEntity
8
1-0
6
CONTINUOUS
62
4
100
AcDbLine
10
72756.020000000004
20
18855.680000000000
30
0.0
11
73266.059999999998
21
18744.259999999998
31
0.0
0
LINE
5
891
100
AcDbEntity
8
1-0
6
CONTINUOUS
62
4
100
AcDbLine
10
73266.059999999998
20
18744.259999999998
30
0.0
11
73775.039999999994
21
18639.860000000001
31
0.0
0
LINE
5
892
100
AcDbEntity
8
1-0
6
CONTINUOUS
62
4
100
AcDbLine
10
73775.039999999994
20
18639.860000000001
30
0.0
11
74282.630000000005
21
18544.799999999999
31
0.0
0
LINE
5
893
100
AcDbEntity
8
1-0
6
CONTINUOUS
62
4
100
AcDbLine
10
74282.630000000005
20
18544.799999999999
30
0.0
11
74788.490000000005
21
18461.430000000000
31
0.0
0
LINE
5
894
100
AcDbEntity
8
1-0
6
CONTINUOUS
62
4
100
AcDbLine
10
74788.490000000005
20
18461.430000000000
30
0.0
11
75292.240000000005
21
18392.060000000001
31
0.0
0
LINE
5
895
100
AcDbEntity
8
1-0
6
CONTINUOUS
62
4
100
AcDbLine
10
75292.240000000005
20
18392.060000000001
30
0.0
11
75793.559999999998
21
18339.020000000000
31
0.0
0
LINE
5
896
100
AcDbEntity
8
1-0
6
CONTINUOUS
62
4
100
AcDbLine
10
75793.559999999998
20
18339.020000000000
30
0.0
11
76292.100000000006
21
18304.660000000000
31
0.0
0
LINE
5
897
100
AcDbEntity
8
1-0
6
CONTINUOUS
62
4
100
AcDbLine
10
76292.100000000006
20
18304.660000000000
30
0.0
11
76787.509999999995
21
18291.320000000000
31
0.0
0
LINE
5
898
100
AcDbEntity
8
1-0
6
CONTINUOUS
62
4
100
AcDbLine
10
76787.509999999995
20
18291.320000000000
30
0.0
11
77279.419999999998
21
18301.330000000002
31
0.0
0
LINE
5
899
100
AcDbEntity
8
1-0
6
CONTINUOUS
62
4
100
AcDbLine
10
77279.419999999998
20
18301.330000000002
30
0.0
11
77767.500000000000
21
18337.000000000000
31
0.0
0
LINE
5
89a
100
AcDbEntity
8
1-0
6
CONTINUOUS
62
4
100
AcDbLine
10
77767.500000000000
20
18337.000000000000
30
0.0
11
78251.399999999994
21
18400.730000000000
31
0.0
0
LINE
5
89b
100
AcDbEntity
8
1-0
6
CONTINUOUS
62
4
100
AcDbLine
10
78251.399999999994
20
18400.730000000000
30
0.0
11
78730.779999999999
21
18494.779999999999
31
0.0
0
LINE
5
89c
100
AcDbEntity
8
1-0
6
CONTINUOUS
62
4
100
AcDbLine
10
78730.779999999999
20
18494.779999999999
30
0.0
11
79205.300000000003
21
18621.430000000000
31
0.0
0
LINE
5
89d
100
AcDbEntity
8
1-0
6
CONTINUOUS
62
4
100
AcDbLine
10
79205.300000000003
20
18621.430000000000
30
0.0
11
79675.399999999994
21
18778.349999999999
31
0.0
0
LINE
5
89e
100
AcDbEntity
8
1-0
6
CONTINUOUS
62
4
100
AcDbLine
10
79675.399999999994
20
18778.349999999999
30
0.0
11
80142.600000000006
21
18957.180000000000
31
0.0
0
LINE
5
89f
100
AcDbEntity
8
1-0
6
CONTINUOUS
62
4
100
AcDbLine
10
80142.600000000006
20
18957.180000000000
30
0.0
11
80608.470000000001
21
19148.990000000002
31
0.0
0
LINE
5
8a0
100
AcDbEntity
8
1-0
6
CONTINUOUS
62
4
100
AcDbLine
10
80608.470000000001
20
19148.990000000002
30
0.0
11
81074.600000000006
21
19344.880000000001
31
0.0
0
LINE
5
8a1
100
AcDbEntity
8
1-0
6
CONTINUOUS
62
4
100
AcDbLine
10
81074.600000000006
20
19344.880000000001
30
0.0
11
81542.589999999997
21
19536.040000000001
31
0.0
0
LINE
5
8a2
100
AcDbEntity
8
1-0
6
CONTINUOUS
62
4
100
AcDbLine
10
81542.589999999997
20
19536.040000000001
30
0.0
11
82014.000000000000
21
19713.590000000000
31
0.0
0
LINE
5
8a3
100
AcDbEntity
8
1-0
6
CONTINUOUS
62
4
100
AcDbLine
10
82014.000000000000
20
19713.590000000000
30
0.0
11
82490.419999999998
21
19868.590000000000
31
0.0
0
LINE
5
8a4
100
AcDbEntity
8
1-0
6
CONTINUOUS
62
4
100
AcDbLine
10
82490.419999999998
20
19868.590000000000
30
0.0
11
82973.440000000002
21
19992.250000000000
31
0.0
0
LINE
5
8a5
100
AcDbEntity
8
1-0
6
CONTINUOUS
62
4
100
AcDbLine
10
82973.440000000002
20
19992.250000000000
30
0.0
11
83464.619999999995
21
20075.680000000000
31
0.0
0
LINE
5
8a6
100
AcDbEntity
8
1-0
6
CONTINUOUS
62
4
100
AcDbLine
10
83464.619999999995
20
20075.680000000000
30
0.0
11
83964.229999999996
21
20116.360000000001
31
0.0
0
LINE
5
8a7
100
AcDbEntity
8
1-0
6
CONTINUOUS
62
4
100
AcDbLine
10
83964.229999999996
20
20116.360000000001
30
0.0
11
84469.860000000001
21
20124.939999999999
31
0.0
0
LINE
5
8a8
100
AcDbEntity
8
1-0
6
CONTINUOUS
62
4
100
AcDbLine
10
84469.860000000001
20
20124.939999999999
30
0.0
11
84978.619999999995
21
20113.709999999999
31
0.0
0
LINE
5
8a9
100
AcDbEntity
8
1-0
6
CONTINUOUS
62
4
100
AcDbLine
10
84978.619999999995
20
20113.709999999999
30
0.0
11
85487.800000000003
21
20095.029999999999
31
0.0
0
LINE
5
8aa
100
AcDbEntity
8
1-0
6
CONTINUOUS
62
4
100
AcDbLine
10
85487.800000000003
20
20095.029999999999
30
0.0
11
85994.520000000004
21
20081.209999999999
31
0.0
0
LINE
5
8ab
100
AcDbEntity
8
1-0
6
CONTINUOUS
62
4
100
AcDbLine
10
85994.520000000004
20
20081.209999999999
30
0.0
11
86496.039999999994
21
20084.529999999999
31
0.0
0
LINE
5
8ac
100
AcDbEntity
8
1-0
6
CONTINUOUS
62
4
100
AcDbLine
10
86496.039999999994
20
20084.529999999999
30
0.0
11
86989.500000000000
21
20117.340000000000
31
0.0
0
LINE
5
8ad
100
AcDbEntity
8
1-0
6
CONTINUOUS
62
4
100
AcDbLine
10
86989.500000000000
20
20117.340000000000
30
0.0
11
87472.139999999999
21
20191.889999999999
31
0.0
0
LINE
5
8ae
100
AcDbEntity
8
1-0
6
CONTINUOUS
62
4
100
AcDbLine
10
87472.139999999999
20
20191.889999999999
30
0.0
11
87941.460000000006
21
20319.430000000000
31
0.0
0
LINE
5
8af
100
AcDbEntity
8
1-0
6
CONTINUOUS
62
4
100
AcDbLine
10
87941.460000000006
20
20319.430000000000
30
0.0
11
88399.199999999997
21
20495.509999999998
31
0.0
0
LINE
5
8b0
100
AcDbEntity
8
1-0
6
CONTINUOUS
62
4
100
AcDbLine
10
88399.199999999997
20
20495.509999999998
30
0.0
11
88850.179999999993
21
20704.709999999999
31
0.0
0
LINE
5
8b1
100
AcDbEntity
8
1-0
6
CONTINUOUS
62
4
100
AcDbLine
10
88850.179999999993
20
20704.709999999999
30
0.0
11
89299.240000000005
21
20931.369999999999
31
0.0
0
LINE
5
8b2
100
AcDbEntity
8
1-0
6
CONTINUOUS
62
4
100
AcDbLine
10
89299.240000000005
20
20931.369999999999
30
0.0
11
89751.210000000006
21
21159.730000000000
31
0.0
0
LINE
5
8b3
100
AcDbEntity
8
1-0
6
CONTINUOUS
62
4
100
AcDbLine
10
89751.210000000006
20
21159.730000000000
30
0.0
11
90210.949999999997
21
21374.169999999998
31
0.0
0
LINE
5
8b4
100
AcDbEntity
8
1-0
6
CONTINUOUS
62
4
100
AcDbLine
10
90210.949999999997
20
21374.169999999998
30
0.0
11
90683.330000000002
21
21558.959999999999
31
0.0
0
LINE
5
8b5
100
AcDbEntity
8
1-0
6
CONTINUOUS
62
4
100
AcDbLine
10
90683.330000000002
20
21558.959999999999
30
0.0
11
91172.470000000001
21
21700.189999999999
31
0.0
0
LINE
5
8b6
100
AcDbEntity
8
1-0
6
CONTINUOUS
62
4
100
AcDbLine
10
91172.470000000001
20
21700.189999999999
30
0.0
11
91674.210000000006
21
21804.840000000000
31
0.0
0
LINE
5
8b7
100
AcDbEntity
8
1-0
6
CONTINUOUS
62
4
100
AcDbLine
10
91674.210000000006
20
21804.840000000000
30
0.0
11
92179.059999999998
21
21893.220000000001
31
0.0
0
LINE
5
8b8
100
AcDbEntity
8
1-0
6
CONTINUOUS
62
4
100
AcDbLine
10
92179.059999999998
20
21893.220000000001
30
0.0
11
92677.419999999998
21
21985.990000000002
31
0.0
0
LINE
5
8b9
100
AcDbEntity
8
1-0
6
CONTINUOUS
62
4
100
AcDbLine
10
92677.419999999998
20
21985.990000000002
30
0.0
11
93159.600000000006
21
22103.759999999998
31
0.0
0
LINE
5
8ba
100
AcDbEntity
8
1-0
6
CONTINUOUS
62
4
100
AcDbLine
10
93159.600000000006
20
22103.759999999998
30
0.0
11
93616.070000000007
21
22267.080000000002
31
0.0
0
LINE
5
8bb
100
AcDbEntity
8
1-0
6
CONTINUOUS
62
4
100
AcDbLine
10
93616.070000000007
20
22267.080000000002
30
0.0
11
94037.759999999995
21
22495.599999999999
31
0.0
0
LINE
5
8bc
100
AcDbEntity
8
1-0
6
CONTINUOUS
62
4
100
AcDbLine
10
94037.759999999995
20
22495.599999999999
30
0.0
11
94426.559999999998
21
22788.180000000000
31
0.0
0
LINE
5
8bd
100
AcDbEntity
8
1-0
6
CONTINUOUS
62
4
100
AcDbLine
10
94426.559999999998
20
22788.180000000000
30
0.0
11
94794.940000000002
21
23123.840000000000
31
0.0
0
LINE
5
8be
100
AcDbEntity
8
1-0
6
CONTINUOUS
62
4
100
AcDbLine
10
94794.940000000002
20
23123.840000000000
30
0.0
11
95155.710000000006
21
23480.930000000000
31
0.0
0
LINE
5
8bf
100
AcDbEntity
8
1-0
6
CONTINUOUS
62
4
100
AcDbLine
10
95155.710000000006
20
23480.930000000000
30
0.0
11
95521.770000000004
21
23837.740000000002
31
0.0
0
LINE
5
8c0
100
AcDbEntity
8
1-0
6
CONTINUOUS
62
4
100
AcDbLine
10
95521.770000000004
20
23837.740000000002
30
0.0
11
95905.929999999993
21
24172.570000000000
31
0.0
0
LINE
5
8c1
100
AcDbEntity
8
1-0
6
CONTINUOUS
62
4
100
AcDbLine
10
95905.929999999993
20
24172.570000000000
30
0.0
11
96320.970000000001
21
24463.799999999999
31
0.0
0
LINE
5
8c2
100
AcDbEntity
8
1-0
6
CONTINUOUS
62
4
100
AcDbLine
10
96320.970000000001
20
24463.799999999999
30
0.0
11
96771.429999999993
21
24697.080000000002
31
0.0
0
LINE
5
8c3
100
AcDbEntity
8
1-0
6
CONTINUOUS
62
4
100
AcDbLine
10
96771.429999999993
20
24697.080000000002
30
0.0
11
97247.949999999997
21
24870.570000000000
31
0.0
0
LINE
5
8c4
100
AcDbEntity
8
1-0
6
CONTINUOUS
62
4
100
AcDbLine
10
97247.949999999997
20
24870.570000000000
30
0.0
11
97739.550000000003
21
24983.669999999998
31
0.0
0
LINE
5
8c5
100
AcDbEntity
8
1-0
6
CONTINUOUS
62
4
100
AcDbLine
10
97739.550000000003
20
24983.669999999998
30
0.0
11
98235.429999999993
21
25035.889999999999
31
0.0
0
LINE
5
8c6
100
AcDbEntity
8
1-0
6
CONTINUOUS
62
4
100
AcDbLine
10
98235.429999999993
20
25035.889999999999
30
0.0
11
98728.710000000006
21
25030.759999999998
31
0.0
0
LINE
5
8c7
100
AcDbEntity
8
1-0
6
CONTINUOUS
62
4
100
AcDbLine
10
98728.710000000006
20
25030.759999999998
30
0.0
11
99220.539999999994
21
24980.040000000001
31
0.0
0
LINE
5
8c8
100
AcDbEntity
8
1-0
6
CONTINUOUS
62
4
100
AcDbLine
10
99220.539999999994
20
24980.040000000001
30
0.0
11
99712.869999999995
21
24896.450000000001
31
0.0
0
LINE
5
8c9
100
AcDbEntity
8
1-0
6
CONTINUOUS
62
4
100
AcDbLine
10
99712.869999999995
20
24896.450000000001
30
0.0
11
100207.750000000000
21
24792.660000000000
31
0.0
0
LINE
5
8ca
100
AcDbEntity
8
1-0
6
CONTINUOUS
62
4
100
AcDbLine
10
100207.750000000000
20
24792.660000000000
30
0.0
11
100707.210000000010
21
24681.389999999999
31
0.0
0
LINE
5
8cb
100
AcDbEntity
8
1-0
6
CONTINUOUS
62
4
100
AcDbLine
10
100707.210000000010
20
24681.389999999999
30
0.0
11
101212.850000000010
21
24574.529999999999
31
0.0
0
LINE
5
8cc
100
AcDbEntity
8
1-0
6
CONTINUOUS
62
4
100
AcDbLine
10
101212.850000000010
20
24574.529999999999
30
0.0
11
101720.560000000000
21
24470.029999999999
31
0.0
0
LINE
5
8cd
100
AcDbEntity
8
1-0
6
CONTINUOUS
62
4
100
AcDbLine
10
101720.560000000000
20
24470.029999999999
30
0.0
11
102221.110000000000
21
24353.700000000001
31
0.0
0
LINE
5
8ce
100
AcDbEntity
8
1-0
6
CONTINUOUS
62
4
100
AcDbLine
10
102221.110000000000
20
24353.700000000001
30
0.0
11
102705.149999999990
21
24211.000000000000
31
0.0
0
LINE
5
8cf
100
AcDbEntity
8
1-0
6
CONTINUOUS
62
4
100
AcDbLine
10
102705.149999999990
20
24211.000000000000
30
0.0
11
103163.230000000000
21
24027.369999999999
31
0.0
0
LINE
5
8d0
100
AcDbEntity
8
1-0
6
CONTINUOUS
62
4
100
AcDbLine
10
103163.230000000000
20
24027.369999999999
30
0.0
11
103585.980000000000
21
23788.230000000000
31
0.0
0
LINE
5
8d1
100
AcDbEntity
8
1-0
6
CONTINUOUS
62
4
100
AcDbLine
10
103585.980000000000
20
23788.230000000000
30
0.0
11
103966.410000000000
21
23482.549999999999
31
0.0
0
LINE
5
8d2
100
AcDbEntity
8
1-0
6
CONTINUOUS
62
4
100
AcDbLine
10
103966.410000000000
20
23482.549999999999
30
0.0
11
104316.570000000010
21
23127.529999999999
31
0.0
0
LINE
5
8d3
100
AcDbEntity
8
1-0
6
CONTINUOUS
62
4
100
AcDbLine
10
104316.570000000010
20
23127.529999999999
30
0.0
11
104657.820000000010
21
22753.939999999999
31
0.0
0
LINE
5
8d4
100
AcDbEntity
8
1-0
6
CONTINUOUS
62
4
100
AcDbLine
10
104657.820000000010
20
22753.939999999999
30
0.0
11
105011.500000000000
21
22392.669999999998
31
0.0
0
LINE
5
8d5
100
AcDbEntity
8
1-0
6
CONTINUOUS
62
4
100
AcDbLine
10
105011.500000000000
20
22392.669999999998
30
0.0
11
105395.700000000000
21
22070.340000000000
31
0.0
0
LINE
5
8d6
100
AcDbEntity
8
1-0
6
CONTINUOUS
62
4
100
AcDbLine
10
105395.700000000000
20
22070.340000000000
30
0.0
11
105810.600000000010
21
21789.750000000000
31
0.0
0
LINE
5
8d7
100
AcDbEntity
8
1-0
6
CONTINUOUS
62
4
100
AcDbLine
10
105810.600000000010
20
21789.750000000000
30
0.0
11
106250.270000000000
21
21545.740000000002
31
0.0
0
LINE
5
8d8
100
AcDbEntity
8
1-0
6
CONTINUOUS
62
4
100
AcDbLine
10
106250.270000000000
20
21545.740000000002
30
0.0
11
106708.679999999990
21
21333.040000000001
31
0.0
0
LINE
5
8d9
100
AcDbEntity
8
1-0
6
CONTINUOUS
62
4
100
AcDbLine
10
106708.679999999990
20
21333.040000000001
30
0.0
11
107180.039999999990
21
21146.430000000000
31
0.0
0
LINE
5
8da
100
AcDbEntity
8
1-0
6
CONTINUOUS
62
4
100
AcDbLine
10
107180.039999999990
20
21146.430000000000
30
0.0
11
107658.289999999990
21
20980.610000000001
31
0.0
0
LINE
5
8db
100
AcDbEntity
8
1-0
6
CONTINUOUS
62
4
100
AcDbLine
10
107658.289999999990
20
20980.610000000001
30
0.0
11
108137.720000000000
21
20830.529999999999
31
0.0
0
LINE
5
8dc
100
AcDbEntity
8
1-0
6
CONTINUOUS
62
4
100
AcDbLine
10
108137.720000000000
20
20830.529999999999
30
0.0
11
108616.280000000000
21
20693.230000000000
31
0.0
0
LINE
5
8dd
100
AcDbEntity
8
1-0
6
CONTINUOUS
62
4
100
AcDbLine
10
108616.280000000000
20
20693.230000000000
30
0.0
11
109094.710000000010
21
20567.290000000001
31
0.0
0
LINE
5
8de
100
AcDbEntity
8
1-0
6
CONTINUOUS
62
4
100
AcDbLine
10
109094.710000000010
20
20567.290000000001
30
0.0
11
109573.770000000000
21
20451.450000000001
31
0.0
0
LINE
5
8df
100
AcDbEntity
8
1-0
6
CONTINUOUS
62
4
100
AcDbLine
10
109573.770000000000
20
20451.450000000001
30
0.0
11
110054.270000000000
21
20344.389999999999
31
0.0
0
LINE
5
8e0
100
AcDbEntity
8
1-0
6
CONTINUOUS
62
4
100
AcDbLine
10
110054.270000000000
20
20344.389999999999
30
0.0
11
110537.060000000000
21
20244.750000000000
31
0.0
0
LINE
5
8e1
100
AcDbEntity
8
1-0
6
CONTINUOUS
62
4
100
AcDbLine
10
110537.060000000000
20
20244.750000000000
30
0.0
11
111022.870000000000
21
20151.279999999999
31
0.0
0
LINE
5
8e2
100
AcDbEntity
8
1-0
6
CONTINUOUS
62
4
100
AcDbLine
10
111022.870000000000
20
20151.279999999999
30
0.0
11
111512.500000000000
21
20062.630000000001
31
0.0
0
LINE
5
8e3
100
AcDbEntity
8
1-0
6
CONTINUOUS
62
4
100
AcDbLine
10
111512.500000000000
20
20062.630000000001
30
0.0
11
112006.800000000000
21
19977.500000000000
31
0.0
0
LINE
5
8e4
100
AcDbEntity
8
1-0
6
CONTINUOUS
62
4
100
AcDbLine
10
112006.800000000000
20
19977.500000000000
30
0.0
11
112506.539999999990
21
19894.560000000001
31
0.0
0
LINE
5
8e5
100
AcDbEntity
8
1-0
6
CONTINUOUS
62
4
100
AcDbLine
10
112506.539999999990
20
19894.560000000001
30
0.0
11
113012.490000000010
21
19812.540000000001
31
0.0
0
LINE
5
8e6
100
AcDbEntity
8
1-0
6
CONTINUOUS
62
4
100
AcDbLine
10
113012.490000000010
20
19812.540000000001
30
0.0
11
113525.500000000000
21
19730.090000000000
31
0.0
0
LINE
5
8e7
100
AcDbEntity
8
1-0
6
CONTINUOUS
62
4
100
AcDbLine
10
113525.500000000000
20
19730.090000000000
30
0.0
11
114045.710000000010
21
19647.070000000000
31
0.0
0
LINE
5
8e8
100
AcDbEntity
8
1-0
6
CONTINUOUS
62
4
100
AcDbLine
10
114045.710000000010
20
19647.070000000000
30
0.0
11
114570.050000000000
21
19568.930000000000
31
0.0
0
LINE
5
8e9
100
AcDbEntity
8
1-0
6
CONTINUOUS
62
4
100
AcDbLine
10
114570.050000000000
20
19568.930000000000
30
0.0
11
115094.590000000000
21
19502.930000000000
31
0.0
0
LINE
5
8ea
100
AcDbEntity
8
1-0
6
CONTINUOUS
62
4
100
AcDbLine
10
115094.590000000000
20
19502.930000000000
30
0.0
11
115615.320000000010
21
19456.139999999999
31
0.0
0
LINE
5
8eb
100
AcDbEntity
8
1-0
6
CONTINUOUS
62
4
100
AcDbLine
10
115615.320000000010
20
19456.139999999999
30
0.0
11
116128.280000000000
21
19435.810000000001
31
0.0
0
LINE
5
8ec
100
AcDbEntity
8
1-0
6
CONTINUOUS
62
4
100
AcDbLine
10
116128.280000000000
20
19435.810000000001
30
0.0
11
116629.539999999990
21
19449.099999999999
31
0.0
0
LINE
5
8ed
100
AcDbEntity
8
1-0
6
CONTINUOUS
62
4
100
AcDbLine
10
116629.539999999990
20
19449.099999999999
30
0.0
11
117115.039999999990
21
19503.180000000000
31
0.0
0
LINE
5
8ee
100
AcDbEntity
8
1-0
6
CONTINUOUS
62
4
100
AcDbLine
10
117115.039999999990
20
19503.180000000000
30
0.0
11
117580.860000000000
21
19605.189999999999
31
0.0
0
LINE
5
8ef
100
AcDbEntity
8
1-0
6
CONTINUOUS
62
4
100
AcDbLine
10
117580.860000000000
20
19605.189999999999
30
0.0
11
118022.990000000010
21
19762.380000000001
31
0.0
0
LINE
5
8f0
100
AcDbEntity
8
1-0
6
CONTINUOUS
62
4
100
AcDbLine
10
118022.990000000010
20
19762.380000000001
30
0.0
11
118439.240000000010
21
19978.630000000001
31
0.0
0
LINE
5
8f1
100
AcDbEntity
8
1-0
6
CONTINUOUS
62
4
100
AcDbLine
10
118439.240000000010
20
19978.630000000001
30
0.0
11
118833.240000000010
21
20246.540000000001
31
0.0
0
LINE
5
8f2
100
AcDbEntity
8
1-0
6
CONTINUOUS
62
4
100
AcDbLine
10
118833.240000000010
20
20246.540000000001
30
0.0
11
119210.009999999990
21
20556.259999999998
31
0.0
0
LINE
5
8f3
100
AcDbEntity
8
1-0
6
CONTINUOUS
62
4
100
AcDbLine
10
119210.009999999990
20
20556.259999999998
30
0.0
11
119574.570000000010
21
20898.000000000000
31
0.0
0
LINE
5
8f4
100
AcDbEntity
8
1-0
6
CONTINUOUS
62
4
100
AcDbLine
10
119574.570000000010
20
20898.000000000000
30
0.0
11
119931.840000000000
21
21261.919999999998
31
0.0
0
LINE
5
8f5
100
AcDbEntity
8
1-0
6
CONTINUOUS
62
4
100
AcDbLine
10
119931.840000000000
20
21261.919999999998
30
0.0
11
120286.890000000000
21
21638.240000000002
31
0.0
0
LINE
5
8f6
100
AcDbEntity
8
1-0
6
CONTINUOUS
62
4
100
AcDbLine
10
120286.890000000000
20
21638.240000000002
30
0.0
11
120644.610000000000
21
22017.060000000001
31
0.0
0
LINE
5
8f7
100
AcDbEntity
8
1-0
6
CONTINUOUS
62
4
100
AcDbLine
10
120644.610000000000
20
22017.060000000001
30
0.0
11
121010.080000000000
21
22388.619999999999
31
0.0
0
LINE
5
8f8
100
AcDbEntity
8
1-0
6
CONTINUOUS
62
4
100
AcDbLine
10
121010.080000000000
20
22388.619999999999
30
0.0
11
121388.230000000000
21
22743.029999999999
31
0.0
0
LINE
5
8f9
100
AcDbEntity
8
1-0
6
CONTINUOUS
62
4
100
AcDbLine
10
121388.230000000000
20
22743.029999999999
30
0.0
11
121783.800000000000
21
23070.959999999999
31
0.0
0
LINE
5
8fa
100
AcDbEntity
8
1-0
6
CONTINUOUS
62
4
100
AcDbLine
10
121783.800000000000
20
23070.959999999999
30
0.0
11
122196.280000000000
21
23371.400000000001
31
0.0
0
LINE
5
8fb
100
AcDbEntity
8
1-0
6
CONTINUOUS
62
4
100
AcDbLine
10
122196.280000000000
20
23371.400000000001
30
0.0
11
122619.890000000000
21
23651.560000000001
31
0.0
0
LINE
5
8fc
100
AcDbEntity
8
1-0
6
CONTINUOUS
62
4
100
AcDbLine
10
122619.890000000000
20
23651.560000000001
30
0.0
11
123048.810000000000
21
23919.040000000001
31
0.0
0
LINE
5
8fd
100
AcDbEntity
8
1-0
6
CONTINUOUS
62
4
100
AcDbLine
10
123048.810000000000
20
23919.040000000001
30
0.0
11
123477.120000000000
21
24181.410000000000
31
0.0
0
LINE
5
8fe
100
AcDbEntity
8
1-0
6
CONTINUOUS
62
4
100
AcDbLine
10
123477.120000000000
20
24181.410000000000
30
0.0
11
123898.920000000000
21
24446.189999999999
31
0.0
0
LINE
5
8ff
100
AcDbEntity
8
1-0
6
CONTINUOUS
62
4
100
AcDbLine
10
123898.920000000000
20
24446.189999999999
30
0.0
11
124308.300000000000
21
24720.980000000000
31
0.0
0
LINE
5
900
100
AcDbEntity
8
1-0
6
CONTINUOUS
62
4
100
AcDbLine
10
124308.300000000000
20
24720.980000000000
30
0.0
11
124699.380000000000
21
25013.340000000000
31
0.0
0
LINE
5
901
100
AcDbEntity
8
1-0
6
CONTINUOUS
62
4
100
AcDbLine
10
124699.380000000000
20
25013.340000000000
30
0.0
11
125066.429999999990
21
25330.689999999999
31
0.0
0
LINE
5
902
100
AcDbEntity
8
1-0
6
CONTINUOUS
62
4
100
AcDbLine
10
125066.429999999990
20
25330.689999999999
30
0.0
11
125407.490000000010
21
25675.650000000001
31
0.0
0
LINE
5
903
100
AcDbEntity
8
1-0
6
CONTINUOUS
62
4
100
AcDbLine
10
125407.490000000010
20
25675.650000000001
30
0.0
11
125724.960000000010
21
26045.830000000002
31
0.0
0
LINE
5
904
100
AcDbEntity
8
1-0
6
CONTINUOUS
62
4
100
AcDbLine
10
125724.960000000010
20
26045.830000000002
30
0.0
11
126021.450000000000
21
26438.389999999999
31
0.0
0
LINE
5
905
100
AcDbEntity
8
1-0
6
CONTINUOUS
62
4
100
AcDbLine
10
126021.450000000000
20
26438.389999999999
30
0.0
11
126299.570000000010
21
26850.529999999999
31
0.0
0
LINE
5
906
100
AcDbEntity
8
1-0
6
CONTINUOUS
62
4
100
AcDbLine
10
126299.570000000010
20
26850.529999999999
30
0.0
11
126561.910000000000
21
27279.509999999998
31
0.0
0
LINE
5
907
100
AcDbEntity
8
1-0
6
CONTINUOUS
62
4
100
AcDbLine
10
126561.910000000000
20
27279.509999999998
30
0.0
11
126811.060000000000
21
27722.560000000001
31
0.0
0
LINE
5
908
100
AcDbEntity
8
1-0
6
CONTINUOUS
62
4
100
AcDbLine
10
126811.060000000000
20
27722.560000000001
30
0.0
11
127049.630000000000
21
28176.910000000000
31
0.0
0
LINE
5
909
100
AcDbEntity
8
1-0
6
CONTINUOUS
62
4
100
AcDbLine
10
127049.630000000000
20
28176.910000000000
30
0.0
11
127280.200000000000
21
28639.759999999998
31
0.0
0
LINE
5
90a
100
AcDbEntity
8
1-0
6
CONTINUOUS
62
4
100
AcDbLine
10
127280.200000000000
20
28639.759999999998
30
0.0
11
127505.420000000000
21
29108.369999999999
31
0.0
0
LINE
5
90b
100
AcDbEntity
8
1-0
6
CONTINUOUS
62
4
100
AcDbLine
10
127505.420000000000
20
29108.369999999999
30
0.0
11
127727.870000000000
21
29579.939999999999
31
0.0
0
LINE
5
90c
100
AcDbEntity
8
1-0
6
CONTINUOUS
62
4
100
AcDbLine
10
127727.870000000000
20
29579.939999999999
30
0.0
11
127743.090000000000
21
29612.369999999999
31
0.0
0
LINE
5
90d
100
AcDbEntity
8
1-0
6
CONTINUOUS
62
4
100
AcDbLine
10
47546.230000000003
20
60539.059999999998
30
0.0
11
47733.339999999997
21
60077.209999999999
31
0.0
0
LINE
5
90e
100
AcDbEntity
8
1-0
6
CONTINUOUS
62
4
100
AcDbLine
10
47733.339999999997
20
60077.209999999999
30
0.0
11
47916.349999999999
21
59603.209999999999
31
0.0
0
LINE
5
90f
100
AcDbEntity
8
1-0
6
CONTINUOUS
62
4
100
AcDbLine
10
47916.349999999999
20
59603.209999999999
30
0.0
11
48165.250000000000
21
59173.820000000000
31
0.0
0
LINE
5
910
100
AcDbEntity
8
1-0
6
CONTINUOUS
62
4
100
AcDbLine
10
48165.250000000000
20
59173.820000000000
30
0.0
11
48513.290000000001
21
58810.800000000003
31
0.0
0
LINE
5
911
100
AcDbEntity
8
1-0
6
CONTINUOUS
62
4
100
AcDbLine
10
48513.290000000001
20
58810.800000000003
30
0.0
11
48843.910000000003
21
58425.320000000000
31
0.0
0
LINE
5
912
100
AcDbEntity
8
1-0
6
CONTINUOUS
62
4
100
AcDbLine
10
48843.910000000003
20
58425.320000000000
30
0.0
11
49304.190000000002
21
58246.120000000003
31
0.0
0
LINE
5
913
100
AcDbEntity
8
1-0
6
CONTINUOUS
62
4
100
AcDbLine
10
49304.190000000002
20
58246.120000000003
30
0.0
11
49738.889999999999
21
58474.089999999997
31
0.0
0
LINE
5
914
100
AcDbEntity
8
1-0
6
CONTINUOUS
62
4
100
AcDbLine
10
49738.889999999999
20
58474.089999999997
30
0.0
11
49892.180000000000
21
58925.989999999998
31
0.0
0
LINE
5
915
100
AcDbEntity
8
1-0
6
CONTINUOUS
62
4
100
AcDbLine
10
49892.180000000000
20
58925.989999999998
30
0.0
11
49852.019999999997
21
59431.269999999997
31
0.0
0
LINE
5
916
100
AcDbEntity
8
1-0
6
CONTINUOUS
62
4
100
AcDbLine
10
49852.019999999997
20
59431.269999999997
30
0.0
11
49783.800000000003
21
59963.559999999998
31
0.0
0
LINE
5
917
100
AcDbEntity
8
1-0
6
CONTINUOUS
62
4
100
AcDbLine
10
49783.800000000003
20
59963.559999999998
30
0.0
11
49793.379999999997
21
60497.190000000002
31
0.0
0
LINE
5
918
100
AcDbEntity
8
1-0
6
CONTINUOUS
62
4
100
AcDbLine
10
49793.379999999997
20
60497.190000000002
30
0.0
11
49802.379999999997
21
61006.989999999998
31
0.0
0
LINE
5
919
100
AcDbEntity
8
1-0
6
CONTINUOUS
62
4
100
AcDbLine
10
49802.379999999997
20
61006.989999999998
30
0.0
11
49696.910000000003
21
61467.900000000001
31
0.0
0
LINE
5
91a
100
AcDbEntity
8
1-0
6
CONTINUOUS
62
4
100
AcDbLine
10
49696.910000000003
20
61467.900000000001
30
0.0
11
49384.790000000001
21
61847.559999999998
31
0.0
0
LINE
5
91b
100
AcDbEntity
8
1-0
6
CONTINUOUS
62
4
100
AcDbLine
10
49384.790000000001
20
61847.559999999998
30
0.0
11
48914.480000000003
21
62066.690000000002
31
0.0
0
LINE
5
91c
100
AcDbEntity
8
1-0
6
CONTINUOUS
62
4
100
AcDbLine
10
48914.480000000003
20
62066.690000000002
30
0.0
11
48416.190000000002
21
62032.129999999997
31
0.0
0
LINE
5
91d
100
AcDbEntity
8
1-0
6
CONTINUOUS
62
4
100
AcDbLine
10
48416.190000000002
20
62032.129999999997
30
0.0
11
48035.639999999999
21
61710.959999999999
31
0.0
0
LINE
5
91e
100
AcDbEntity
8
1-0
6
CONTINUOUS
62
4
100
AcDbLine
10
48035.639999999999
20
61710.959999999999
30
0.0
11
47783.720000000001
21
61264.260000000002
31
0.0
0
LINE
5
91f
100
AcDbEntity
8
1-0
6
CONTINUOUS
62
4
100
AcDbLine
10
47783.720000000001
20
61264.260000000002
30
0.0
11
47618.330000000002
21
60793.540000000001
31
0.0
0
LINE
5
920
100
AcDbEntity
8
1-0
6
CONTINUOUS
62
4
100
AcDbLine
10
47618.330000000002
20
60793.540000000001
30
0.0
11
47546.230000000003
21
60539.059999999998
31
0.0
0
LINE
5
921
100
AcDbEntity
8
1-0
6
CONTINUOUS
62
4
100
AcDbLine
10
47919.629999999997
20
40873.440000000002
30
0.0
11
47942.940000000002
21
40378.050000000003
31
0.0
0
LINE
5
922
100
AcDbEntity
8
1-0
6
CONTINUOUS
62
4
100
AcDbLine
10
47942.940000000002
20
40378.050000000003
30
0.0
11
47966.339999999997
21
39881.769999999997
31
0.0
0
LINE
5
923
100
AcDbEntity
8
1-0
6
CONTINUOUS
62
4
100
AcDbLine
10
47966.339999999997
20
39881.769999999997
30
0.0
11
47989.980000000003
21
39383.599999999999
31
0.0
0
LINE
5
924
100
AcDbEntity
8
1-0
6
CONTINUOUS
62
4
100
AcDbLine
10
47989.980000000003
20
39383.599999999999
30
0.0
11
48013.970000000001
21
38882.720000000001
31
0.0
0
LINE
5
925
100
AcDbEntity
8
1-0
6
CONTINUOUS
62
4
100
AcDbLine
10
48013.970000000001
20
38882.720000000001
30
0.0
11
48038.379999999997
21
38378.110000000001
31
0.0
0
LINE
5
926
100
AcDbEntity
8
1-0
6
CONTINUOUS
62
4
100
AcDbLine
10
48038.379999999997
20
38378.110000000001
30
0.0
11
48066.139999999999
21
37870.059999999998
31
0.0
0
LINE
5
927
100
AcDbEntity
8
1-0
6
CONTINUOUS
62
4
100
AcDbLine
10
48066.139999999999
20
37870.059999999998
30
0.0
11
48122.849999999999
21
37368.230000000003
31
0.0
0
LINE
5
928
100
AcDbEntity
8
1-0
6
CONTINUOUS
62
4
100
AcDbLine
10
48122.849999999999
20
37368.230000000003
30
0.0
11
48245.430000000000
21
36886.900000000001
31
0.0
0
LINE
5
929
100
AcDbEntity
8
1-0
6
CONTINUOUS
62
4
100
AcDbLine
10
48245.430000000000
20
36886.900000000001
30
0.0
11
48463.669999999998
21
36437.870000000003
31
0.0
0
LINE
5
92a
100
AcDbEntity
8
1-0
6
CONTINUOUS
62
4
100
AcDbLine
10
48463.669999999998
20
36437.870000000003
30
0.0
11
48759.709999999999
21
36022.190000000002
31
0.0
0
LINE
5
92b
100
AcDbEntity
8
1-0
6
CONTINUOUS
62
4
100
AcDbLine
10
48759.709999999999
20
36022.190000000002
30
0.0
11
49122.139999999999
21
35660.739999999998
31
0.0
0
LINE
5
92c
100
AcDbEntity
8
1-0
6
CONTINUOUS
62
4
100
AcDbLine
10
49122.139999999999
20
35660.739999999998
30
0.0
11
49545.120000000003
21
35378.940000000002
31
0.0
0
LINE
5
92d
100
AcDbEntity
8
1-0
6
CONTINUOUS
62
4
100
AcDbLine
10
49545.120000000003
20
35378.940000000002
30
0.0
11
50022.239999999998
21
35201.790000000001
31
0.0
0
LINE
5
92e
100
AcDbEntity
8
1-0
6
CONTINUOUS
62
4
100
AcDbLine
10
50022.239999999998
20
35201.790000000001
30
0.0
11
50532.139999999999
21
35141.910000000003
31
0.0
0
LINE
5
92f
100
AcDbEntity
8
1-0
6
CONTINUOUS
62
4
100
AcDbLine
10
50532.139999999999
20
35141.910000000003
30
0.0
11
51037.830000000002
21
35199.129999999997
31
0.0
0
LINE
5
930
100
AcDbEntity
8
1-0
6
CONTINUOUS
62
4
100
AcDbLine
10
51037.830000000002
20
35199.129999999997
30
0.0
11
51502.739999999998
21
35371.889999999999
31
0.0
0
LINE
5
931
100
AcDbEntity
8
1-0
6
CONTINUOUS
62
4
100
AcDbLine
10
51502.739999999998
20
35371.889999999999
30
0.0
11
51918.260000000002
21
35640.440000000002
31
0.0
0
LINE
5
932
100
AcDbEntity
8
1-0
6
CONTINUOUS
62
4
100
AcDbLine
10
51918.260000000002
20
35640.440000000002
30
0.0
11
52304.300000000003
21
35966.610000000001
31
0.0
0
LINE
5
933
100
AcDbEntity
8
1-0
6
CONTINUOUS
62
4
100
AcDbLine
10
52304.300000000003
20
35966.610000000001
30
0.0
11
52681.980000000003
21
36311.400000000001
31
0.0
0
LINE
5
934
100
AcDbEntity
8
1-0
6
CONTINUOUS
62
4
100
AcDbLine
10
52681.980000000003
20
36311.400000000001
30
0.0
11
53069.900000000001
21
36639.919999999998
31
0.0
0
LINE
5
935
100
AcDbEntity
8
1-0
6
CONTINUOUS
62
4
100
AcDbLine
10
53069.900000000001
20
36639.919999999998
30
0.0
11
53465.110000000001
21
36951.720000000001
31
0.0
0
LINE
5
936
100
AcDbEntity
8
1-0
6
CONTINUOUS
62
4
100
AcDbLine
10
53465.110000000001
20
36951.720000000001
30
0.0
11
53853.830000000002
21
37263.699999999997
31
0.0
0
LINE
5
937
100
AcDbEntity
8
1-0
6
CONTINUOUS
62
4
100
AcDbLine
10
53853.830000000002
20
37263.699999999997
30
0.0
11
54222.220000000001
21
37592.839999999997
31
0.0
0
LINE
5
938
100
AcDbEntity
8
1-0
6
CONTINUOUS
62
4
100
AcDbLine
10
54222.220000000001
20
37592.839999999997
30
0.0
11
54558.550000000003
21
37953.559999999998
31
0.0
0
LINE
5
939
100
AcDbEntity
8
1-0
6
CONTINUOUS
62
4
100
AcDbLine
10
54558.550000000003
20
37953.559999999998
30
0.0
11
54863.629999999997
21
38345.279999999999
31
0.0
0
LINE
5
93a
100
AcDbEntity
8
1-0
6
CONTINUOUS
62
4
100
AcDbLine
10
54863.629999999997
20
38345.279999999999
30
0.0
11
55142.870000000003
21
38761.989999999998
31
0.0
0
LINE
5
93b
100
AcDbEntity
8
1-0
6
CONTINUOUS
62
4
100
AcDbLine
10
55142.870000000003
20
38761.989999999998
30
0.0
11
55401.699999999997
21
39197.570000000000
31
0.0
0
LINE
5
93c
100
AcDbEntity
8
1-0
6
CONTINUOUS
62
4
100
AcDbLine
10
55401.699999999997
20
39197.570000000000
30
0.0
11
55645.519999999997
21
39645.959999999999
31
0.0
0
LINE
5
93d
100
AcDbEntity
8
1-0
6
CONTINUOUS
62
4
100
AcDbLine
10
55645.519999999997
20
39645.959999999999
30
0.0
11
55877.459999999999
21
40102.180000000000
31
0.0
0
LINE
5
93e
100
AcDbEntity
8
1-0
6
CONTINUOUS
62
4
100
AcDbLine
10
55877.459999999999
20
40102.180000000000
30
0.0
11
56092.440000000002
21
40564.790000000001
31
0.0
0
LINE
5
93f
100
AcDbEntity
8
1-0
6
CONTINUOUS
62
4
100
AcDbLine
10
56092.440000000002
20
40564.790000000001
30
0.0
11
56283.550000000003
21
41033.320000000000
31
0.0
0
LINE
5
940
100
AcDbEntity
8
1-0
6
CONTINUOUS
62
4
100
AcDbLine
10
56283.550000000003
20
41033.320000000000
30
0.0
11
56443.919999999998
21
41507.239999999998
31
0.0
0
LINE
5
941
100
AcDbEntity
8
1-0
6
CONTINUOUS
62
4
100
AcDbLine
10
56443.919999999998
20
41507.239999999998
30
0.0
11
56566.599999999999
21
41985.989999999998
31
0.0
0
LINE
5
942
100
AcDbEntity
8
1-0
6
CONTINUOUS
62
4
100
AcDbLine
10
56566.599999999999
20
41985.989999999998
30
0.0
11
56644.750000000000
21
42469.089999999997
31
0.0
0
LINE
5
943
100
AcDbEntity
8
1-0
6
CONTINUOUS
62
4
100
AcDbLine
10
56644.750000000000
20
42469.089999999997
30
0.0
11
56676.500000000000
21
42956.360000000001
31
0.0
0
LINE
5
944
100
AcDbEntity
8
1-0
6
CONTINUOUS
62
4
100
AcDbLine
10
56676.500000000000
20
42956.360000000001
30
0.0
11
56670.949999999997
21
43448.430000000000
31
0.0
0
LINE
5
945
100
AcDbEntity
8
1-0
6
CONTINUOUS
62
4
100
AcDbLine
10
56670.949999999997
20
43448.430000000000
30
0.0
11
56638.540000000001
21
43946.040000000001
31
0.0
0
LINE
5
946
100
AcDbEntity
8
1-0
6
CONTINUOUS
62
4
100
AcDbLine
10
56638.540000000001
20
43946.040000000001
30
0.0
11
56589.760000000002
21
44449.959999999999
31
0.0
0
LINE
5
947
100
AcDbEntity
8
1-0
6
CONTINUOUS
62
4
100
AcDbLine
10
56589.760000000002
20
44449.959999999999
30
0.0
11
56535.070000000000
21
44960.870000000003
31
0.0
0
LINE
5
948
100
AcDbEntity
8
1-0
6
CONTINUOUS
62
4
100
AcDbLine
10
56535.070000000000
20
44960.870000000003
30
0.0
11
56484.529999999999
21
45479.430000000000
31
0.0
0
LINE
5
949
100
AcDbEntity
8
1-0
6
CONTINUOUS
62
4
100
AcDbLine
10
56484.529999999999
20
45479.430000000000
30
0.0
11
56435.660000000003
21
46001.400000000001
31
0.0
0
LINE
5
94a
100
AcDbEntity
8
1-0
6
CONTINUOUS
62
4
100
AcDbLine
10
56435.660000000003
20
46001.400000000001
30
0.0
11
56372.970000000001
21
46517.760000000002
31
0.0
0
LINE
5
94b
100
AcDbEntity
8
1-0
6
CONTINUOUS
62
4
100
AcDbLine
10
56372.970000000001
20
46517.760000000002
30
0.0
11
56280.360000000001
21
47019.160000000003
31
0.0
0
LINE
5
94c
100
AcDbEntity
8
1-0
6
CONTINUOUS
62
4
100
AcDbLine
10
56280.360000000001
20
47019.160000000003
30
0.0
11
56141.699999999997
21
47496.279999999999
31
0.0
0
LINE
5
94d
100
AcDbEntity
8
1-0
6
CONTINUOUS
62
4
100
AcDbLine
10
56141.699999999997
20
47496.279999999999
30
0.0
11
55940.860000000001
21
47939.820000000000
31
0.0
0
LINE
5
94e
100
AcDbEntity
8
1-0
6
CONTINUOUS
62
4
100
AcDbLine
10
55940.860000000001
20
47939.820000000000
30
0.0
11
55661.870000000003
21
48340.489999999998
31
0.0
0
LINE
5
94f
100
AcDbEntity
8
1-0
6
CONTINUOUS
62
4
100
AcDbLine
10
55661.870000000003
20
48340.489999999998
30
0.0
11
55302.160000000003
21
48689.760000000002
31
0.0
0
LINE
5
950
100
AcDbEntity
8
1-0
6
CONTINUOUS
62
4
100
AcDbLine
10
55302.160000000003
20
48689.760000000002
30
0.0
11
54880.190000000002
21
48980.589999999997
31
0.0
0
LINE
5
951
100
AcDbEntity
8
1-0
6
CONTINUOUS
62
4
100
AcDbLine
10
54880.190000000002
20
48980.589999999997
30
0.0
11
54416.400000000001
21
49205.930000000000
31
0.0
0
LINE
5
952
100
AcDbEntity
8
1-0
6
CONTINUOUS
62
4
100
AcDbLine
10
54416.400000000001
20
49205.930000000000
30
0.0
11
53931.190000000002
21
49358.790000000001
31
0.0
0
LINE
5
953
100
AcDbEntity
8
1-0
6
CONTINUOUS
62
4
100
AcDbLine
10
53931.190000000002
20
49358.790000000001
30
0.0
11
53438.839999999997
21
49439.360000000001
31
0.0
0
LINE
5
954
100
AcDbEntity
8
1-0
6
CONTINUOUS
62
4
100
AcDbLine
10
53438.839999999997
20
49439.360000000001
30
0.0
11
52939.040000000001
21
49464.570000000000
31
0.0
0
LINE
5
955
100
AcDbEntity
8
1-0
6
CONTINUOUS
62
4
100
AcDbLine
10
52939.040000000001
20
49464.570000000000
30
0.0
11
52429.750000000000
21
49453.129999999997
31
0.0
0
LINE
5
956
100
AcDbEntity
8
1-0
6
CONTINUOUS
62
4
100
AcDbLine
10
52429.750000000000
20
49453.129999999997
30
0.0
11
51921.389999999999
21
49401.400000000001
31
0.0
0
LINE
5
957
100
AcDbEntity
8
1-0
6
CONTINUOUS
62
4
100
AcDbLine
10
51921.389999999999
20
49401.400000000001
30
0.0
11
51439.570000000000
21
49278.989999999998
31
0.0
0
LINE
5
958
100
AcDbEntity
8
1-0
6
CONTINUOUS
62
4
100
AcDbLine
10
51439.570000000000
20
49278.989999999998
30
0.0
11
51008.559999999998
21
49056.820000000000
31
0.0
0
LINE
5
959
100
AcDbEntity
8
1-0
6
CONTINUOUS
62
4
100
AcDbLine
10
51008.559999999998
20
49056.820000000000
30
0.0
11
50626.540000000001
21
48744.139999999999
31
0.0
0
LINE
5
95a
100
AcDbEntity
8
1-0
6
CONTINUOUS
62
4
100
AcDbLine
10
50626.540000000001
20
48744.139999999999
30
0.0
11
50273.750000000000
21
48376.279999999999
31
0.0
0
LINE
5
95b
100
AcDbEntity
8
1-0
6
CONTINUOUS
62
4
100
AcDbLine
10
50273.750000000000
20
48376.279999999999
30
0.0
11
49930.099999999999
21
47989.010000000002
31
0.0
0
LINE
5
95c
100
AcDbEntity
8
1-0
6
CONTINUOUS
62
4
100
AcDbLine
10
49930.099999999999
20
47989.010000000002
30
0.0
11
49584.260000000002
21
47609.339999999997
31
0.0
0
LINE
5
95d
100
AcDbEntity
8
1-0
6
CONTINUOUS
62
4
100
AcDbLine
10
49584.260000000002
20
47609.339999999997
30
0.0
11
49266.160000000003
21
47222.169999999998
31
0.0
0
LINE
5
95e
100
AcDbEntity
8
1-0
6
CONTINUOUS
62
4
100
AcDbLine
10
49266.160000000003
20
47222.169999999998
30
0.0
11
49017.879999999997
21
46800.169999999998
31
0.0
0
LINE
5
95f
100
AcDbEntity
8
1-0
6
CONTINUOUS
62
4
100
AcDbLine
10
49017.879999999997
20
46800.169999999998
30
0.0
11
48866.699999999997
21
46327.760000000002
31
0.0
0
LINE
5
960
100
AcDbEntity
8
1-0
6
CONTINUOUS
62
4
100
AcDbLine
10
48866.699999999997
20
46327.760000000002
30
0.0
11
48796.889999999999
21
45823.860000000001
31
0.0
0
LINE
5
961
100
AcDbEntity
8
1-0
6
CONTINUOUS
62
4
100
AcDbLine
10
48796.889999999999
20
45823.860000000001
30
0.0
11
48782.459999999999
21
45312.010000000002
31
0.0
0
LINE
5
962
100
AcDbEntity
8
1-0
6
CONTINUOUS
62
4
100
AcDbLine
10
48782.459999999999
20
45312.010000000002
30
0.0
11
48780.570000000000
21
44804.959999999999
31
0.0
0
LINE
5
963
100
AcDbEntity
8
1-0
6
CONTINUOUS
62
4
100
AcDbLine
10
48780.570000000000
20
44804.959999999999
30
0.0
11
48740.940000000002
21
44310.730000000003
31
0.0
0
LINE
5
964
100
AcDbEntity
8
1-0
6
CONTINUOUS
62
4
100
AcDbLine
10
48740.940000000002
20
44310.730000000003
30
0.0
11
48614.139999999999
21
43837.070000000000
31
0.0
0
LINE
5
965
100
AcDbEntity
8
1-0
6
CONTINUOUS
62
4
100
AcDbLine
10
48614.139999999999
20
43837.070000000000
30
0.0
11
48408.519999999997
21
43379.790000000001
31
0.0
0
LINE
5
966
100
AcDbEntity
8
1-0
6
CONTINUOUS
62
4
100
AcDbLine
10
48408.519999999997
20
43379.790000000001
30
0.0
11
48224.010000000002
21
42915.529999999999
31
0.0
0
LINE
5
967
100
AcDbEntity
8
1-0
6
CONTINUOUS
62
4
100
AcDbLine
10
48224.010000000002
20
42915.529999999999
30
0.0
11
48113.120000000003
21
42432.379999999997
31
0.0
0
LINE
5
968
100
AcDbEntity
8
1-0
6
CONTINUOUS
62
4
100
AcDbLine
10
48113.120000000003
20
42432.379999999997
30
0.0
11
48060.629999999997
21
41942.690000000002
31
0.0
0
LINE
5
969
100
AcDbEntity
8
1-0
6
DOT
62
4
100
AcDbLine
10
78372.350000000006
20
38770.540000000001
30
0.0
11
78213.309999999998
21
38249.480000000003
31
0.0
0
LINE
5
96a
100
AcDbEntity
8
1-0
6
DOT
62
4
100
AcDbLine
10
78213.309999999998
20
38249.480000000003
30
0.0
11
78065.820000000007
21
37731.019999999997
31
0.0
0
LINE
5
96b
100
AcDbEntity
8
1-0
6
DOT
62
4
100
AcDbLine
10
78065.820000000007
20
37731.019999999997
30
0.0
11
77941.470000000001
21
37217.709999999999
31
0.0
0
LINE
5
96c
100
AcDbEntity
8
1-0
6
DOT
62
4
100
AcDbLine
10
77941.470000000001
20
37217.709999999999
30
0.0
11
77851.789999999994
21
36712.160000000003
31
0.0
0
LINE
5
96d
100
AcDbEntity
8
1-0
6
DOT
62
4
100
AcDbLine
10
77851.789999999994
20
36712.160000000003
30
0.0
11
77808.389999999999
21
36216.949999999997
31
0.0
0
LINE
5
96e
100
AcDbEntity
8
1-0
6
DOT
62
4
100
AcDbLine
10
77808.389999999999
20
36216.949999999997
30
0.0
11
77822.779999999999
21
35734.650000000001
31
0.0
0
LINE
5
96f
100
AcDbEntity
8
1-0
6
DOT
62
4
100
AcDbLine
10
77822.779999999999
20
35734.650000000001
30
0.0
11
77906.550000000003
21
35267.879999999997
31
0.0
0
LINE
5
970
100
AcDbEntity
8
1-0
6
DOT
62
4
100
AcDbLine
10
77906.550000000003
20
35267.879999999997
30
0.0
11
78070.610000000001
21
34819.089999999997
31
0.0
0
LINE
5
971
100
AcDbEntity
8
1-0
6
DOT
62
4
100
AcDbLine
10
78070.610000000001
20
34819.089999999997
30
0.0
11
78310.750000000000
21
34389.309999999998
31
0.0
0
LINE
5
972
100
AcDbEntity
8
1-0
6
DOT
62
4
100
AcDbLine
10
78310.750000000000
20
34389.309999999998
30
0.0
11
78607.419999999998
21
33977.870000000003
31
0.0
0
LINE
5
973
100
AcDbEntity
8
1-0
6
DOT
62
4
100
AcDbLine
10
78607.419999999998
20
33977.870000000003
30
0.0
11
78940.470000000001
21
33584.110000000001
31
0.0
0
LINE
5
974
100
AcDbEntity
8
1-0
6
DOT
62
4
100
AcDbLine
10
78940.470000000001
20
33584.110000000001
30
0.0
11
79290.820000000007
21
33207.519999999997
31
0.0
0
LINE
5
975
100
AcDbEntity
8
1-0
6
DOT
62
4
100
AcDbLine
10
79290.820000000007
20
33207.519999999997
30
0.0
11
79652.750000000000
21
32850.589999999997
31
0.0
0
LINE
5
976
100
AcDbEntity
8
1-0
6
DOT
62
4
100
AcDbLine
10
79652.750000000000
20
32850.589999999997
30
0.0
11
80029.619999999995
21
32517.610000000001
31
0.0
0
LINE
5
977
100
AcDbEntity
8
1-0
6
DOT
62
4
100
AcDbLine
10
80029.619999999995
20
32517.610000000001
30
0.0
11
80424.880000000005
21
32212.980000000000
31
0.0
0
LINE
5
978
100
AcDbEntity
8
1-0
6
DOT
62
4
100
AcDbLine
10
80424.880000000005
20
32212.980000000000
30
0.0
11
80842.020000000004
21
31941.070000000000
31
0.0
0
LINE
5
979
100
AcDbEntity
8
1-0
6
DOT
62
4
100
AcDbLine
10
80842.020000000004
20
31941.070000000000
30
0.0
11
81284.520000000004
21
31706.299999999999
31
0.0
0
LINE
5
97a
100
AcDbEntity
8
1-0
6
DOT
62
4
100
AcDbLine
10
81284.520000000004
20
31706.299999999999
30
0.0
11
81753.839999999997
21
31514.189999999999
31
0.0
0
LINE
5
97b
100
AcDbEntity
8
1-0
6
DOT
62
4
100
AcDbLine
10
81753.839999999997
20
31514.189999999999
30
0.0
11
82242.860000000001
21
31375.490000000002
31
0.0
0
LINE
5
97c
100
AcDbEntity
8
1-0
6
DOT
62
4
100
AcDbLine
10
82242.860000000001
20
31375.490000000002
30
0.0
11
82742.080000000002
21
31302.369999999999
31
0.0
0
LINE
5
97d
100
AcDbEntity
8
1-0
6
DOT
62
4
100
AcDbLine
10
82742.080000000002
20
31302.369999999999
30
0.0
11
83242.070000000007
21
31306.950000000001
31
0.0
0
LINE
5
97e
100
AcDbEntity
8
1-0
6
DOT
62
4
100
AcDbLine
10
83242.070000000007
20
31306.950000000001
30
0.0
11
83734.110000000001
21
31395.810000000001
31
0.0
0
LINE
5
97f
100
AcDbEntity
8
1-0
6
DOT
62
4
100
AcDbLine
10
83734.110000000001
20
31395.810000000001
30
0.0
11
84211.880000000005
21
31558.619999999999
31
0.0
0
LINE
5
980
100
AcDbEntity
8
1-0
6
DOT
62
4
100
AcDbLine
10
84211.880000000005
20
31558.619999999999
30
0.0
11
84669.429999999993
21
31781.830000000002
31
0.0
0
LINE
5
981
100
AcDbEntity
8
1-0
6
DOT
62
4
100
AcDbLine
10
84669.429999999993
20
31781.830000000002
30
0.0
11
85100.860000000001
21
32051.790000000001
31
0.0
0
LINE
5
982
100
AcDbEntity
8
1-0
6
DOT
62
4
100
AcDbLine
10
85100.860000000001
20
32051.790000000001
30
0.0
11
85502.179999999993
21
32355.619999999999
31
0.0
0
LINE
5
983
100
AcDbEntity
8
1-0
6
DOT
62
4
100
AcDbLine
10
85502.179999999993
20
32355.619999999999
30
0.0
11
85879.039999999994
21
32683.930000000000
31
0.0
0
LINE
5
984
100
AcDbEntity
8
1-0
6
DOT
62
4
100
AcDbLine
10
85879.039999999994
20
32683.930000000000
30
0.0
11
86240.149999999994
21
33028.379999999997
31
0.0
0
LINE
5
985
100
AcDbEntity
8
1-0
6
DOT
62
4
100
AcDbLine
10
86240.149999999994
20
33028.379999999997
30
0.0
11
86594.259999999995
21
33380.699999999997
31
0.0
0
LINE
5
986
100
AcDbEntity
8
1-0
6
DOT
62
4
100
AcDbLine
10
86594.259999999995
20
33380.699999999997
30
0.0
11
86950.080000000002
21
33732.599999999999
31
0.0
0
LINE
5
987
100
AcDbEntity
8
1-0
6
DOT
62
4
100
AcDbLine
10
86950.080000000002
20
33732.599999999999
30
0.0
11
87316.309999999998
21
34075.779999999999
31
0.0
0
LINE
5
988
100
AcDbEntity
8
1-0
6
DOT
62
4
100
AcDbLine
10
87316.309999999998
20
34075.779999999999
30
0.0
11
87698.830000000002
21
34403.930000000000
31
0.0
0
LINE
5
989
100
AcDbEntity
8
1-0
6
DOT
62
4
100
AcDbLine
10
87698.830000000002
20
34403.930000000000
30
0.0
11
88097.320000000007
21
34714.690000000002
31
0.0
0
LINE
5
98a
100
AcDbEntity
8
1-0
6
DOT
62
4
100
AcDbLine
10
88097.320000000007
20
34714.690000000002
30
0.0
11
88510.850000000006
21
35006.309999999998
31
0.0
0
LINE
5
98b
100
AcDbEntity
8
1-0
6
DOT
62
4
100
AcDbLine
10
88510.850000000006
20
35006.309999999998
30
0.0
11
88938.410000000003
21
35276.910000000003
31
0.0
0
LINE
5
98c
100
AcDbEntity
8
1-0
6
DOT
62
4
100
AcDbLine
10
88938.410000000003
20
35276.910000000003
30
0.0
11
89378.979999999996
21
35524.720000000001
31
0.0
0
LINE
5
98d
100
AcDbEntity
8
1-0
6
DOT
62
4
100
AcDbLine
10
89378.979999999996
20
35524.720000000001
30
0.0
11
89831.589999999997
21
35747.930000000000
31
0.0
0
LINE
5
98e
100
AcDbEntity
8
1-0
6
DOT
62
4
100
AcDbLine
10
89831.589999999997
20
35747.930000000000
30
0.0
11
90295.240000000005
21
35944.730000000003
31
0.0
0
LINE
5
98f
100
AcDbEntity
8
1-0
6
DOT
62
4
100
AcDbLine
10
90295.240000000005
20
35944.730000000003
30
0.0
11
90768.979999999996
21
36113.279999999999
31
0.0
0
LINE
5
990
100
AcDbEntity
8
1-0
6
DOT
62
4
100
AcDbLine
10
90768.979999999996
20
36113.279999999999
30
0.0
11
91251.729999999996
21
36251.860000000001
31
0.0
0
LINE
5
991
100
AcDbEntity
8
1-0
6
DOT
62
4
100
AcDbLine
10
91251.729999999996
20
36251.860000000001
30
0.0
11
91741.929999999993
21
36360.480000000003
31
0.0
0
LINE
5
992
100
AcDbEntity
8
1-0
6
DOT
62
4
100
AcDbLine
10
91741.929999999993
20
36360.480000000003
30
0.0
11
92237.229999999996
21
36441.650000000001
31
0.0
0
LINE
5
993
100
AcDbEntity
8
1-0
6
DOT
62
4
100
AcDbLine
10
92237.229999999996
20
36441.650000000001
30
0.0
11
92735.160000000003
21
36498.139999999999
31
0.0
0
LINE
5
994
100
AcDbEntity
8
1-0
6
DOT
62
4
100
AcDbLine
10
92735.160000000003
20
36498.139999999999
30
0.0
11
93233.320000000007
21
36532.620000000003
31
0.0
0
LINE
5
995
100
AcDbEntity
8
1-0
6
DOT
62
4
100
AcDbLine
10
93233.320000000007
20
36532.620000000003
30
0.0
11
93729.479999999996
21
36547.690000000002
31
0.0
0
LINE
5
996
100
AcDbEntity
8
1-0
6
DOT
62
4
100
AcDbLine
10
93729.479999999996
20
36547.690000000002
30
0.0
11
94223.320000000007
21
36544.980000000003
31
0.0
0
LINE
5
997
100
AcDbEntity
8
1-0
6
DOT
62
4
100
AcDbLine
10
94223.320000000007
20
36544.980000000003
30
0.0
11
94715.199999999997
21
36525.760000000002
31
0.0
0
LINE
5
998
100
AcDbEntity
8
1-0
6
DOT
62
4
100
AcDbLine
10
94715.199999999997
20
36525.760000000002
30
0.0
11
95205.600000000006
21
36491.190000000002
31
0.0
0
LINE
5
999
100
AcDbEntity
8
1-0
6
DOT
62
4
100
AcDbLine
10
95205.600000000006
20
36491.190000000002
30
0.0
11
95694.970000000001
21
36442.470000000001
31
0.0
0
LINE
5
99a
100
AcDbEntity
8
1-0
6
DOT
62
4
100
AcDbLine
10
95694.970000000001
20
36442.470000000001
30
0.0
11
96183.710000000006
21
36380.879999999997
31
0.0
0
LINE
5
99b
100
AcDbEntity
8
1-0
6
DOT
62
4
100
AcDbLine
10
96183.710000000006
20
36380.879999999997
30
0.0
11
96672.259999999995
21
36307.610000000001
31
0.0
0
LINE
5
99c
100
AcDbEntity
8
1-0
6
DOT
62
4
100
AcDbLine
10
96672.259999999995
20
36307.610000000001
30
0.0
11
97161.059999999998
21
36223.839999999997
31
0.0
0
LINE
5
99d
100
AcDbEntity
8
1-0
6
DOT
62
4
100
AcDbLine
10
97161.059999999998
20
36223.839999999997
30
0.0
11
97650.580000000002
21
36130.860000000001
31
0.0
0
LINE
5
99e
100
AcDbEntity
8
1-0
6
DOT
62
4
100
AcDbLine
10
97650.580000000002
20
36130.860000000001
30
0.0
11
98141.259999999995
21
36029.809999999998
31
0.0
0
LINE
5
99f
100
AcDbEntity
8
1-0
6
DOT
62
4
100
AcDbLine
10
98141.259999999995
20
36029.809999999998
30
0.0
11
98633.479999999996
21
35921.930000000000
31
0.0
0
LINE
5
9a0
100
AcDbEntity
8
1-0
6
DOT
62
4
100
AcDbLine
10
98633.479999999996
20
35921.930000000000
30
0.0
11
99127.699999999997
21
35808.470000000001
31
0.0
0
LINE
5
9a1
100
AcDbEntity
8
1-0
6
DOT
62
4
100
AcDbLine
10
99127.699999999997
20
35808.470000000001
30
0.0
11
99624.410000000003
21
35690.610000000001
31
0.0
0
LINE
5
9a2
100
AcDbEntity
8
1-0
6
DOT
62
4
100
AcDbLine
10
99624.410000000003
20
35690.610000000001
30
0.0
11
100123.970000000000
21
35569.580000000002
31
0.0
0
LINE
5
9a3
100
AcDbEntity
8
1-0
6
DOT
62
4
100
AcDbLine
10
100123.970000000000
20
35569.580000000002
30
0.0
11
100626.880000000000
21
35446.559999999998
31
0.0
0
LINE
5
9a4
100
AcDbEntity
8
1-0
6
DOT
62
4
100
AcDbLine
10
100626.880000000000
20
35446.559999999998
30
0.0
11
101133.530000000000
21
35322.839999999997
31
0.0
0
LINE
5
9a5
100
AcDbEntity
8
1-0
6
DOT
62
4
100
AcDbLine
10
101133.530000000000
20
35322.839999999997
30
0.0
11
101643.539999999990
21
35198.519999999997
31
0.0
0
LINE
5
9a6
100
AcDbEntity
8
1-0
6
DOT
62
4
100
AcDbLine
10
101643.539999999990
20
35198.519999999997
30
0.0
11
102149.560000000000
21
35064.879999999997
31
0.0
0
LINE
5
9a7
100
AcDbEntity
8
1-0
6
DOT
62
4
100
AcDbLine
10
102149.560000000000
20
35064.879999999997
30
0.0
11
102640.700000000000
21
34908.879999999997
31
0.0
0
LINE
5
9a8
100
AcDbEntity
8
1-0
6
DOT
62
4
100
AcDbLine
10
102640.700000000000
20
34908.879999999997
30
0.0
11
103106.100000000010
21
34717.339999999997
31
0.0
0
LINE
5
9a9
100
AcDbEntity
8
1-0
6
DOT
62
4
100
AcDbLine
10
103106.100000000010
20
34717.339999999997
30
0.0
11
103534.899999999990
21
34477.169999999998
31
0.0
0
LINE
5
9aa
100
AcDbEntity
8
1-0
6
DOT
62
4
100
AcDbLine
10
103534.899999999990
20
34477.169999999998
30
0.0
11
103916.220000000000
21
34175.199999999997
31
0.0
0
LINE
5
9ab
100
AcDbEntity
8
1-0
6
DOT
62
4
100
AcDbLine
10
103916.220000000000
20
34175.199999999997
30
0.0
11
104244.250000000000
21
33804.629999999997
31
0.0
0
LINE
5
9ac
100
AcDbEntity
8
1-0
6
DOT
62
4
100
AcDbLine
10
104244.250000000000
20
33804.629999999997
30
0.0
11
104543.620000000000
21
33396.150000000001
31
0.0
0
LINE
5
9ad
100
AcDbEntity
8
1-0
6
DOT
62
4
100
AcDbLine
10
104543.620000000000
20
33396.150000000001
30
0.0
11
104850.200000000000
21
32994.440000000002
31
0.0
0
LINE
5
9ae
100
AcDbEntity
8
1-0
6
DOT
62
4
100
AcDbLine
10
104850.200000000000
20
32994.440000000002
30
0.0
11
105199.870000000000
21
32644.259999999998
31
0.0
0
LINE
5
9af
100
AcDbEntity
8
1-0
6
DOT
62
4
100
AcDbLine
10
105199.870000000000
20
32644.259999999998
30
0.0
11
105617.450000000000
21
32376.759999999998
31
0.0
0
LINE
5
9b0
100
AcDbEntity
8
1-0
6
DOT
62
4
100
AcDbLine
10
105617.450000000000
20
32376.759999999998
30
0.0
11
106086.060000000000
21
32172.599999999999
31
0.0
0
LINE
5
9b1
100
AcDbEntity
8
1-0
6
DOT
62
4
100
AcDbLine
10
106086.060000000000
20
32172.599999999999
30
0.0
11
106579.149999999990
21
32000.639999999999
31
0.0
0
LINE
5
9b2
100
AcDbEntity
8
1-0
6
DOT
62
4
100
AcDbLine
10
106579.149999999990
20
32000.639999999999
30
0.0
11
107070.120000000000
21
31829.650000000001
31
0.0
0
LINE
5
9b3
100
AcDbEntity
8
1-0
6
DOT
62
4
100
AcDbLine
10
107070.120000000000
20
31829.650000000001
30
0.0
11
107532.390000000000
21
31628.500000000000
31
0.0
0
LINE
5
9b4
100
AcDbEntity
8
1-0
6
DOT
62
4
100
AcDbLine
10
107532.390000000000
20
31628.500000000000
30
0.0
11
107939.440000000000
21
31366.029999999999
31
0.0
0
LINE
5
9b5
100
AcDbEntity
8
1-0
6
DOT
62
4
100
AcDbLine
10
107939.440000000000
20
31366.029999999999
30
0.0
11
108267.530000000000
21
31013.459999999999
31
0.0
0
LINE
5
9b6
100
AcDbEntity
8
1-0
6
DOT
62
4
100
AcDbLine
10
108267.530000000000
20
31013.459999999999
30
0.0
11
108566.149999999990
21
30603.750000000000
31
0.0
0
LINE
5
9b7
100
AcDbEntity
8
1-0
6
DOT
62
4
100
AcDbLine
10
108566.149999999990
20
30603.750000000000
30
0.0
11
108935.570000000010
21
30218.459999999999
31
0.0
0
LINE
5
9b8
100
AcDbEntity
8
1-0
6
DOT
62
4
100
AcDbLine
10
108935.570000000010
20
30218.459999999999
30
0.0
11
109380.480000000000
21
29880.330000000002
31
0.0
0
LINE
5
9b9
100
AcDbEntity
8
1-0
6
DOT
62
4
100
AcDbLine
10
109380.480000000000
20
29880.330000000002
30
0.0
11
109882.250000000000
21
29597.500000000000
31
0.0
0
LINE
5
9ba
100
AcDbEntity
8
1-0
6
DOT
62
4
100
AcDbLine
10
109882.250000000000
20
29597.500000000000
30
0.0
11
110422.160000000000
21
29378.090000000000
31
0.0
0
LINE
5
9bb
100
AcDbEntity
8
1-0
6
DOT
62
4
100
AcDbLine
10
110422.160000000000
20
29378.090000000000
30
0.0
11
110981.530000000000
21
29230.189999999999
31
0.0
0
LINE
5
9bc
100
AcDbEntity
8
1-0
6
DOT
62
4
100
AcDbLine
10
110981.530000000000
20
29230.189999999999
30
0.0
11
111541.620000000000
21
29161.980000000000
31
0.0
0
LINE
5
9bd
100
AcDbEntity
8
1-0
6
DOT
62
4
100
AcDbLine
10
111541.620000000000
20
29161.980000000000
30
0.0
11
112083.759999999990
21
29181.549999999999
31
0.0
0
LINE
5
9be
100
AcDbEntity
8
1-0
6
DOT
62
4
100
AcDbLine
10
112083.759999999990
20
29181.549999999999
30
0.0
11
112589.220000000000
21
29297.060000000001
31
0.0
0
LINE
5
9bf
100
AcDbEntity
8
1-0
6
DOT
62
4
100
AcDbLine
10
112589.220000000000
20
29297.060000000001
30
0.0
11
113039.350000000010
21
29516.599999999999
31
0.0
0
LINE
5
9c0
100
AcDbEntity
8
1-0
6
DOT
62
4
100
AcDbLine
10
113039.350000000010
20
29516.599999999999
30
0.0
11
113417.470000000000
21
29845.209999999999
31
0.0
0
LINE
5
9c1
100
AcDbEntity
8
1-0
6
DOT
62
4
100
AcDbLine
10
113417.470000000000
20
29845.209999999999
30
0.0
11
113771.690000000000
21
30190.110000000001
31
0.0
0
LINE
5
9c2
100
AcDbEntity
8
1-0
6
DOT
62
4
100
AcDbLine
10
113771.690000000000
20
30190.110000000001
30
0.0
11
114190.170000000000
21
30405.130000000001
31
0.0
0
LINE
5
9c3
100
AcDbEntity
8
1-0
6
DOT
62
4
100
AcDbLine
10
114190.170000000000
20
30405.130000000001
30
0.0
11
114669.630000000000
21
30500.189999999999
31
0.0
0
LINE
5
9c4
100
AcDbEntity
8
1-0
6
DOT
62
4
100
AcDbLine
10
114669.630000000000
20
30500.189999999999
30
0.0
11
115191.250000000000
21
30511.619999999999
31
0.0
0
LINE
5
9c5
100
AcDbEntity
8
1-0
6
DOT
62
4
100
AcDbLine
10
115191.250000000000
20
30511.619999999999
30
0.0
11
115736.270000000000
21
30475.759999999998
31
0.0
0
LINE
5
9c6
100
AcDbEntity
8
1-0
6
DOT
62
4
100
AcDbLine
10
115736.270000000000
20
30475.759999999998
30
0.0
11
116285.940000000000
21
30428.930000000000
31
0.0
0
LINE
5
9c7
100
AcDbEntity
8
1-0
6
DOT
62
4
100
AcDbLine
10
116285.940000000000
20
30428.930000000000
30
0.0
11
116821.429999999990
21
30407.410000000000
31
0.0
0
LINE
5
9c8
100
AcDbEntity
8
1-0
6
DOT
62
4
100
AcDbLine
10
116821.429999999990
20
30407.410000000000
30
0.0
11
117323.960000000010
21
30447.540000000001
31
0.0
0
LINE
5
9c9
100
AcDbEntity
8
1-0
6
DOT
62
4
100
AcDbLine
10
117323.960000000010
20
30447.540000000001
30
0.0
11
117774.759999999990
21
30585.630000000001
31
0.0
0
LINE
5
9ca
100
AcDbEntity
8
1-0
6
DOT
62
4
100
AcDbLine
10
117774.759999999990
20
30585.630000000001
30
0.0
11
118160.140000000000
21
30848.869999999999
31
0.0
0
LINE
5
9cb
100
AcDbEntity
8
1-0
6
DOT
62
4
100
AcDbLine
10
118160.140000000000
20
30848.869999999999
30
0.0
11
118497.160000000000
21
31209.430000000000
31
0.0
0
LINE
5
9cc
100
AcDbEntity
8
1-0
6
DOT
62
4
100
AcDbLine
10
118497.160000000000
20
31209.430000000000
30
0.0
11
118814.259999999990
21
31619.049999999999
31
0.0
0
LINE
5
9cd
100
AcDbEntity
8
1-0
6
DOT
62
4
100
AcDbLine
10
118814.259999999990
20
31619.049999999999
30
0.0
11
119139.940000000000
21
32029.360000000001
31
0.0
0
LINE
5
9ce
100
AcDbEntity
8
1-0
6
DOT
62
4
100
AcDbLine
10
119139.940000000000
20
32029.360000000001
30
0.0
11
119499.539999999990
21
32396.959999999999
31
0.0
0
LINE
5
9cf
100
AcDbEntity
8
1-0
6
DOT
62
4
100
AcDbLine
10
119499.539999999990
20
32396.959999999999
30
0.0
11
119892.810000000000
21
32717.959999999999
31
0.0
0
LINE
5
9d0
100
AcDbEntity
8
1-0
6
DOT
62
4
100
AcDbLine
10
119892.810000000000
20
32717.959999999999
30
0.0
11
120307.490000000010
21
33007.250000000000
31
0.0
0
LINE
5
9d1
100
AcDbEntity
8
1-0
6
DOT
62
4
100
AcDbLine
10
120307.490000000010
20
33007.250000000000
30
0.0
11
120731.009999999990
21
33280.010000000002
31
0.0
0
LINE
5
9d2
100
AcDbEntity
8
1-0
6
DOT
62
4
100
AcDbLine
10
120731.009999999990
20
33280.010000000002
30
0.0
11
121151.009999999990
21
33551.180000000000
31
0.0
0
LINE
5
9d3
100
AcDbEntity
8
1-0
6
DOT
62
4
100
AcDbLine
10
121151.009999999990
20
33551.180000000000
30
0.0
11
121555.009999999990
21
33835.930000000000
31
0.0
0
LINE
5
9d4
100
AcDbEntity
8
1-0
6
DOT
62
4
100
AcDbLine
10
121555.009999999990
20
33835.930000000000
30
0.0
11
121930.590000000000
21
34149.269999999997
31
0.0
0
LINE
5
9d5
100
AcDbEntity
8
1-0
6
DOT
62
4
100
AcDbLine
10
121930.590000000000
20
34149.269999999997
30
0.0
11
122267.350000000010
21
34503.949999999997
31
0.0
0
LINE
5
9d6
100
AcDbEntity
8
1-0
6
DOT
62
4
100
AcDbLine
10
122267.350000000010
20
34503.949999999997
30
0.0
11
122568.800000000000
21
34896.540000000001
31
0.0
0
LINE
5
9d7
100
AcDbEntity
8
1-0
6
DOT
62
4
100
AcDbLine
10
122568.800000000000
20
34896.540000000001
30
0.0
11
122844.220000000000
21
35317.139999999999
31
0.0
0
LINE
5
9d8
100
AcDbEntity
8
1-0
6
DOT
62
4
100
AcDbLine
10
122844.220000000000
20
35317.139999999999
30
0.0
11
123102.950000000000
21
35755.709999999999
31
0.0
0
LINE
5
9d9
100
AcDbEntity
8
1-0
6
DOT
62
4
100
AcDbLine
10
123102.950000000000
20
35755.709999999999
30
0.0
11
123303.480000000000
21
36111.580000000002
31
0.0
0
LINE
5
9da
100
AcDbEntity
8
1-0
6
DOT
62
4
100
AcDbLine
10
119878.360000000000
20
62835.820000000000
30
0.0
11
119574.800000000000
21
62389.360000000001
31
0.0
0
LINE
5
9db
100
AcDbEntity
8
1-0
6
DOT
62
4
100
AcDbLine
10
119574.800000000000
20
62389.360000000001
30
0.0
11
119265.580000000000
21
61954.500000000000
31
0.0
0
LINE
5
9dc
100
AcDbEntity
8
1-0
6
DOT
62
4
100
AcDbLine
10
119265.580000000000
20
61954.500000000000
30
0.0
11
118945.120000000000
21
61542.790000000001
31
0.0
0
LINE
5
9dd
100
AcDbEntity
8
1-0
6
DOT
62
4
100
AcDbLine
10
118945.120000000000
20
61542.790000000001
30
0.0
11
118607.770000000000
21
61165.800000000003
31
0.0
0
LINE
5
9de
100
AcDbEntity
8
1-0
6
DOT
62
4
100
AcDbLine
10
118607.770000000000
20
61165.800000000003
30
0.0
11
118247.920000000000
21
60835.089999999997
31
0.0
0
LINE
5
9df
100
AcDbEntity
8
1-0
6
DOT
62
4
100
AcDbLine
10
118247.920000000000
20
60835.089999999997
30
0.0
11
117859.960000000010
21
60562.239999999998
31
0.0
0
LINE
5
9e0
100
AcDbEntity
8
1-0
6
DOT
62
4
100
AcDbLine
10
117859.960000000010
20
60562.239999999998
30
0.0
11
117438.280000000000
21
60358.739999999998
31
0.0
0
LINE
5
9e1
100
AcDbEntity
8
1-0
6
DOT
62
4
100
AcDbLine
10
117438.280000000000
20
60358.739999999998
30
0.0
11
116981.890000000000
21
60226.580000000002
31
0.0
0
LINE
5
9e2
100
AcDbEntity
8
1-0
6
DOT
62
4
100
AcDbLine
10
116981.890000000000
20
60226.580000000002
30
0.0
11
116496.890000000000
21
60153.339999999997
31
0.0
0
LINE
5
9e3
100
AcDbEntity
8
1-0
6
DOT
62
4
100
AcDbLine
10
116496.890000000000
20
60153.339999999997
30
0.0
11
115989.950000000000
21
60125.150000000001
31
0.0
0
LINE
5
9e4
100
AcDbEntity
8
1-0
6
DOT
62
4
100
AcDbLine
10
115989.950000000000
20
60125.150000000001
30
0.0
11
115467.880000000000
21
60128.099999999999
31
0.0
0
LINE
5
9e5
100
AcDbEntity
8
1-0
6
DOT
62
4
100
AcDbLine
10
115467.880000000000
20
60128.099999999999
30
0.0
11
114937.360000000000
21
60148.470000000001
31
0.0
0
LINE
5
9e6
100
AcDbEntity
8
1-0
6
DOT
62
4
100
AcDbLine
10
114937.360000000000
20
60148.470000000001
30
0.0
11
114801.460000000010
21
60154.790000000001
31
0.0
0
LINE
5
9e7
100
AcDbEntity
8
1-0
6
DOT
62
4
100
AcDbLine
10
76876.039999999994
20
13260.250000000000
30
0.0
11
77281.470000000001
21
13561.059999999999
31
0.0
0
LINE
5
9e8
100
AcDbEntity
8
1-0
6
DOT
62
4
100
AcDbLine
10
77281.470000000001
20
13561.059999999999
30
0.0
11
77688.770000000004
21
13858.090000000000
31
0.0
0
LINE
5
9e9
100
AcDbEntity
8
1-0
6
DOT
62
4
100
AcDbLine
10
77688.770000000004
20
13858.090000000000
30
0.0
11
78099.850000000006
21
14147.639999999999
31
0.0
0
LINE
5
9ea
100
AcDbEntity
8
1-0
6
DOT
62
4
100
AcDbLine
10
78099.850000000006
20
14147.639999999999
30
0.0
11
78516.619999999995
21
14425.900000000000
31
0.0
0
LINE
5
9eb
100
AcDbEntity
8
1-0
6
DOT
62
4
100
AcDbLine
10
78516.619999999995
20
14425.900000000000
30
0.0
11
78940.940000000002
21
14689.120000000001
31
0.0
0
LINE
5
9ec
100
AcDbEntity
8
1-0
6
DOT
62
4
100
AcDbLine
10
78940.940000000002
20
14689.120000000001
30
0.0
11
79374.729999999996
21
14933.530000000001
31
0.0
0
LINE
5
9ed
100
AcDbEntity
8
1-0
6
DOT
62
4
100
AcDbLine
10
79374.729999999996
20
14933.530000000001
30
0.0
11
79819.860000000001
21
15155.430000000000
31
0.0
0
LINE
5
9ee
100
AcDbEntity
8
1-0
6
DOT
62
4
100
AcDbLine
10
79819.860000000001
20
15155.430000000000
30
0.0
11
80277.800000000003
21
15351.559999999999
31
0.0
0
LINE
5
9ef
100
AcDbEntity
8
1-0
6
DOT
62
4
100
AcDbLine
10
80277.800000000003
20
15351.559999999999
30
0.0
11
80747.389999999999
21
15522.549999999999
31
0.0
0
LINE
5
9f0
100
AcDbEntity
8
1-0
6
DOT
62
4
100
AcDbLine
10
80747.389999999999
20
15522.549999999999
30
0.0
11
81226.440000000002
21
15670.320000000000
31
0.0
0
LINE
5
9f1
100
AcDbEntity
8
1-0
6
DOT
62
4
100
AcDbLine
10
81226.440000000002
20
15670.320000000000
30
0.0
11
81712.729999999996
21
15796.900000000000
31
0.0
0
LINE
5
9f2
100
AcDbEntity
8
1-0
6
DOT
62
4
100
AcDbLine
10
81712.729999999996
20
15796.900000000000
30
0.0
11
82204.059999999998
21
15904.270000000000
31
0.0
0
LINE
5
9f3
100
AcDbEntity
8
1-0
6
DOT
62
4
100
AcDbLine
10
82204.059999999998
20
15904.270000000000
30
0.0
11
82698.470000000001
21
15994.600000000000
31
0.0
0
LINE
5
9f4
100
AcDbEntity
8
1-0
6
DOT
62
4
100
AcDbLine
10
82698.470000000001
20
15994.600000000000
30
0.0
11
83195.130000000005
21
16070.740000000000
31
0.0
0
LINE
5
9f5
100
AcDbEntity
8
1-0
6
DOT
62
4
100
AcDbLine
10
83195.130000000005
20
16070.740000000000
30
0.0
11
83693.410000000003
21
16135.740000000000
31
0.0
0
LINE
5
9f6
100
AcDbEntity
8
1-0
6
DOT
62
4
100
AcDbLine
10
83693.410000000003
20
16135.740000000000
30
0.0
11
84192.729999999996
21
16192.629999999999
31
0.0
0
LINE
5
9f7
100
AcDbEntity
8
1-0
6
DOT
62
4
100
AcDbLine
10
84192.729999999996
20
16192.629999999999
30
0.0
11
84692.500000000000
21
16244.480000000000
31
0.0
0
LINE
5
9f8
100
AcDbEntity
8
1-0
6
DOT
62
4
100
AcDbLine
10
84692.500000000000
20
16244.480000000000
30
0.0
11
85192.119999999995
21
16294.309999999999
31
0.0
0
LINE
5
9f9
100
AcDbEntity
8
1-0
6
DOT
62
4
100
AcDbLine
10
85192.119999999995
20
16294.309999999999
30
0.0
11
85691.029999999999
21
16345.150000000000
31
0.0
0
LINE
5
9fa
100
AcDbEntity
8
1-0
6
DOT
62
4
100
AcDbLine
10
85691.029999999999
20
16345.150000000000
30
0.0
11
86188.589999999997
21
16400.060000000001
31
0.0
0
LINE
5
9fb
100
AcDbEntity
8
1-0
6
DOT
62
4
100
AcDbLine
10
86188.589999999997
20
16400.060000000001
30
0.0
11
86684.220000000001
21
16462.070000000000
31
0.0
0
LINE
5
9fc
100
AcDbEntity
8
1-0
6
DOT
62
4
100
AcDbLine
10
86684.220000000001
20
16462.070000000000
30
0.0
11
87177.339999999997
21
16534.240000000002
31
0.0
0
LINE
5
9fd
100
AcDbEntity
8
1-0
6
DOT
62
4
100
AcDbLine
10
87177.339999999997
20
16534.240000000002
30
0.0
11
87667.350000000006
21
16619.570000000000
31
0.0
0
LINE
5
9fe
100
AcDbEntity
8
1-0
6
DOT
62
4
100
AcDbLine
10
87667.350000000006
20
16619.570000000000
30
0.0
11
88153.679999999993
21
16721.160000000000
31
0.0
0
LINE
5
9ff
100
AcDbEntity
8
1-0
6
DOT
62
4
100
AcDbLine
10
88153.679999999993
20
16721.160000000000
30
0.0
11
88635.699999999997
21
16841.980000000000
31
0.0
0
LINE
5
a00
100
AcDbEntity
8
1-0
6
DOT
62
4
100
AcDbLine
10
88635.699999999997
20
16841.980000000000
30
0.0
11
89113.240000000005
21
16983.299999999999
31
0.0
0
LINE
5
a01
100
AcDbEntity
8
1-0
6
DOT
62
4
100
AcDbLine
10
89113.240000000005
20
16983.299999999999
30
0.0
11
89587.380000000005
21
17140.290000000001
31
0.0
0
LINE
5
a02
100
AcDbEntity
8
1-0
6
DOT
62
4
100
AcDbLine
10
89587.380000000005
20
17140.290000000001
30
0.0
11
90059.589999999997
21
17306.730000000000
31
0.0
0
LINE
5
a03
100
AcDbEntity
8
1-0
6
DOT
62
4
100
AcDbLine
10
90059.589999999997
20
17306.730000000000
30
0.0
11
90531.199999999997
21
17476.560000000001
31
0.0
0
LINE
5
a04
100
AcDbEntity
8
1-0
6
DOT
62
4
100
AcDbLine
10
90531.199999999997
20
17476.560000000001
30
0.0
11
91003.679999999993
21
17643.610000000001
31
0.0
0
LINE
5
a05
100
AcDbEntity
8
1-0
6
DOT
62
4
100
AcDbLine
10
91003.679999999993
20
17643.610000000001
30
0.0
11
91478.380000000005
21
17801.820000000000
31
0.0
0
LINE
5
a06
100
AcDbEntity
8
1-0
6
DOT
62
4
100
AcDbLine
10
91478.380000000005
20
17801.820000000000
30
0.0
11
91956.589999999997
21
17945.369999999999
31
0.0
0
LINE
5
a07
100
AcDbEntity
8
1-0
6
DOT
62
4
100
AcDbLine
10
91956.589999999997
20
17945.369999999999
30
0.0
11
92438.649999999994
21
18072.660000000000
31
0.0
0
LINE
5
a08
100
AcDbEntity
8
1-0
6
DOT
62
4
100
AcDbLine
10
92438.649999999994
20
18072.660000000000
30
0.0
11
92924.309999999998
21
18184.330000000002
31
0.0
0
LINE
5
a09
100
AcDbEntity
8
1-0
6
DOT
62
4
100
AcDbLine
10
92924.309999999998
20
18184.330000000002
30
0.0
11
93413.229999999996
21
18281.160000000000
31
0.0
0
LINE
5
a0a
100
AcDbEntity
8
1-0
6
DOT
62
4
100
AcDbLine
10
93413.229999999996
20
18281.160000000000
30
0.0
11
93905.169999999998
21
18363.830000000002
31
0.0
0
LINE
5
a0b
100
AcDbEntity
8
1-0
6
DOT
62
4
100
AcDbLine
10
93905.169999999998
20
18363.830000000002
30
0.0
11
94399.820000000007
21
18433.099999999999
31
0.0
0
LINE
5
a0c
100
AcDbEntity
8
1-0
6
DOT
62
4
100
AcDbLine
10
94399.820000000007
20
18433.099999999999
30
0.0
11
94896.960000000006
21
18489.740000000002
31
0.0
0
LINE
5
a0d
100
AcDbEntity
8
1-0
6
DOT
62
4
100
AcDbLine
10
94896.960000000006
20
18489.740000000002
30
0.0
11
95396.259999999995
21
18534.419999999998
31
0.0
0
LINE
5
a0e
100
AcDbEntity
8
1-0
6
DOT
62
4
100
AcDbLine
10
95396.259999999995
20
18534.419999999998
30
0.0
11
95897.490000000005
21
18567.900000000001
31
0.0
0
LINE
5
a0f
100
AcDbEntity
8
1-0
6
DOT
62
4
100
AcDbLine
10
95897.490000000005
20
18567.900000000001
30
0.0
11
96400.289999999994
21
18590.910000000000
31
0.0
0
LINE
5
a10
100
AcDbEntity
8
1-0
6
DOT
62
4
100
AcDbLine
10
96400.289999999994
20
18590.910000000000
30
0.0
11
96904.440000000002
21
18604.209999999999
31
0.0
0
LINE
5
a11
100
AcDbEntity
8
1-0
6
DOT
62
4
100
AcDbLine
10
96904.440000000002
20
18604.209999999999
30
0.0
11
97409.660000000003
21
18608.490000000002
31
0.0
0
LINE
5
a12
100
AcDbEntity
8
1-0
6
DOT
62
4
100
AcDbLine
10
97409.660000000003
20
18608.490000000002
30
0.0
11
97915.639999999999
21
18604.520000000000
31
0.0
0
LINE
5
a13
100
AcDbEntity
8
1-0
6
DOT
62
4
100
AcDbLine
10
97915.639999999999
20
18604.520000000000
30
0.0
11
98422.110000000001
21
18593.009999999998
31
0.0
0
LINE
5
a14
100
AcDbEntity
8
1-0
6
DOT
62
4
100
AcDbLine
10
98422.110000000001
20
18593.009999999998
30
0.0
11
98928.809999999998
21
18574.709999999999
31
0.0
0
LINE
5
a15
100
AcDbEntity
8
1-0
6
DOT
62
4
100
AcDbLine
10
98928.809999999998
20
18574.709999999999
30
0.0
11
99435.470000000001
21
18550.320000000000
31
0.0
0
LINE
5
a16
100
AcDbEntity
8
1-0
6
DOT
62
4
100
AcDbLine
10
99435.470000000001
20
18550.320000000000
30
0.0
11
99941.779999999999
21
18520.599999999999
31
0.0
0
LINE
5
a17
100
AcDbEntity
8
1-0
6
DOT
62
4
100
AcDbLine
10
99941.779999999999
20
18520.599999999999
30
0.0
11
100447.460000000010
21
18486.299999999999
31
0.0
0
LINE
5
a18
100
AcDbEntity
8
1-0
6
DOT
62
4
100
AcDbLine
10
100447.460000000010
20
18486.299999999999
30
0.0
11
100952.259999999990
21
18448.119999999999
31
0.0
0
LINE
5
a19
100
AcDbEntity
8
1-0
6
DOT
62
4
100
AcDbLine
10
100952.259999999990
20
18448.119999999999
30
0.0
11
101455.850000000010
21
18406.799999999999
31
0.0
0
LINE
5
a1a
100
AcDbEntity
8
1-0
6
DOT
62
4
100
AcDbLine
10
101455.850000000010
20
18406.799999999999
30
0.0
11
101958.020000000000
21
18363.040000000001
31
0.0
0
LINE
5
a1b
100
AcDbEntity
8
1-0
6
DOT
62
4
100
AcDbLine
10
101958.020000000000
20
18363.040000000001
30
0.0
11
102458.560000000000
21
18316.740000000002
31
0.0
0
LINE
5
a1c
100
AcDbEntity
8
1-0
6
DOT
62
4
100
AcDbLine
10
102458.560000000000
20
18316.740000000002
30
0.0
11
102957.500000000000
21
18266.730000000000
31
0.0
0
LINE
5
a1d
100
AcDbEntity
8
1-0
6
DOT
62
4
100
AcDbLine
10
102957.500000000000
20
18266.730000000000
30
0.0
11
103454.820000000010
21
18211.740000000002
31
0.0
0
LINE
5
a1e
100
AcDbEntity
8
1-0
6
DOT
62
4
100
AcDbLine
10
103454.820000000010
20
18211.740000000002
30
0.0
11
103950.550000000000
21
18150.509999999998
31
0.0
0
LINE
5
a1f
100
AcDbEntity
8
1-0
6
DOT
62
4
100
AcDbLine
10
103950.550000000000
20
18150.509999999998
30
0.0
11
104444.649999999990
21
18081.840000000000
31
0.0
0
LINE
5
a20
100
AcDbEntity
8
1-0
6
DOT
62
4
100
AcDbLine
10
104444.649999999990
20
18081.840000000000
30
0.0
11
104937.179999999990
21
18004.459999999999
31
0.0
0
LINE
5
a21
100
AcDbEntity
8
1-0
6
DOT
62
4
100
AcDbLine
10
104937.179999999990
20
18004.459999999999
30
0.0
11
105428.130000000000
21
17917.139999999999
31
0.0
0
LINE
5
a22
100
AcDbEntity
8
1-0
6
DOT
62
4
100
AcDbLine
10
105428.130000000000
20
17917.139999999999
30
0.0
11
105917.470000000000
21
17818.669999999998
31
0.0
0
LINE
5
a23
100
AcDbEntity
8
1-0
6
DOT
62
4
100
AcDbLine
10
105917.470000000000
20
17818.669999999998
30
0.0
11
106405.259999999990
21
17707.730000000000
31
0.0
0
LINE
5
a24
100
AcDbEntity
8
1-0
6
DOT
62
4
100
AcDbLine
10
106405.259999999990
20
17707.730000000000
30
0.0
11
106891.460000000010
21
17583.130000000001
31
0.0
0
LINE
5
a25
100
AcDbEntity
8
1-0
6
DOT
62
4
100
AcDbLine
10
106891.460000000010
20
17583.130000000001
30
0.0
11
107376.080000000000
21
17443.630000000001
31
0.0
0
LINE
5
a26
100
AcDbEntity
8
1-0
6
DOT
62
4
100
AcDbLine
10
107376.080000000000
20
17443.630000000001
30
0.0
11
107859.149999999990
21
17288.000000000000
31
0.0
0
LINE
5
a27
100
AcDbEntity
8
1-0
6
DOT
62
4
100
AcDbLine
10
107859.149999999990
20
17288.000000000000
30
0.0
11
108340.110000000000
21
17114.630000000001
31
0.0
0
LINE
5
a28
100
AcDbEntity
8
1-0
6
DOT
62
4
100
AcDbLine
10
108340.110000000000
20
17114.630000000001
30
0.0
11
108813.280000000000
21
16919.259999999998
31
0.0
0
LINE
5
a29
100
AcDbEntity
8
1-0
6
DOT
62
4
100
AcDbLine
10
108813.280000000000
20
16919.259999999998
30
0.0
11
109270.250000000000
21
16695.950000000001
31
0.0
0
LINE
5
a2a
100
AcDbEntity
8
1-0
6
DOT
62
4
100
AcDbLine
10
109270.250000000000
20
16695.950000000001
30
0.0
11
109702.590000000000
21
16438.889999999999
31
0.0
0
LINE
5
a2b
100
AcDbEntity
8
1-0
6
DOT
62
4
100
AcDbLine
10
109702.590000000000
20
16438.889999999999
30
0.0
11
110101.830000000000
21
16142.209999999999
31
0.0
0
LINE
5
a2c
100
AcDbEntity
8
1-0
6
DOT
62
4
100
AcDbLine
10
110101.830000000000
20
16142.209999999999
30
0.0
11
110459.539999999990
21
15800.080000000000
31
0.0
0
LINE
5
a2d
100
AcDbEntity
8
1-0
6
DOT
62
4
100
AcDbLine
10
110459.539999999990
20
15800.080000000000
30
0.0
11
110780.200000000000
21
15418.400000000000
31
0.0
0
LINE
5
a2e
100
AcDbEntity
8
1-0
6
DOT
62
4
100
AcDbLine
10
110780.200000000000
20
15418.400000000000
30
0.0
11
111099.759999999990
21
15031.910000000000
31
0.0
0
LINE
5
a2f
100
AcDbEntity
8
1-0
6
DOT
62
4
100
AcDbLine
10
111099.759999999990
20
15031.910000000000
30
0.0
11
111458.399999999990
21
14679.410000000000
31
0.0
0
LINE
5
a30
100
AcDbEntity
8
1-0
6
DOT
62
4
100
AcDbLine
10
111458.399999999990
20
14679.410000000000
30
0.0
11
111874.310000000000
21
14383.150000000000
31
0.0
0
LINE
5
a31
100
AcDbEntity
8
1-0
6
DOT
62
4
100
AcDbLine
10
111874.310000000000
20
14383.150000000000
30
0.0
11
112338.429999999990
21
14144.809999999999
31
0.0
0
LINE
5
a32
100
AcDbEntity
8
1-0
6
DOT
62
4
100
AcDbLine
10
112338.429999999990
20
14144.809999999999
30
0.0
11
112839.910000000000
21
13964.780000000001
31
0.0
0
LINE
5
a33
100
AcDbEntity
8
1-0
6
DOT
62
4
100
AcDbLine
10
112839.910000000000
20
13964.780000000001
30
0.0
11
113367.899999999990
21
13843.469999999999
31
0.0
0
LINE
5
a34
100
AcDbEntity
8
1-0
6
DOT
62
4
100
AcDbLine
10
113367.899999999990
20
13843.469999999999
30
0.0
11
113911.539999999990
21
13781.309999999999
31
0.0
0
LINE
5
a35
100
AcDbEntity
8
1-0
6
DOT
62
4
100
AcDbLine
10
113911.539999999990
20
13781.309999999999
30
0.0
11
114460.039999999990
21
13778.690000000001
31
0.0
0
LINE
5
a36
100
AcDbEntity
8
1-0
6
DOT
62
4
100
AcDbLine
10
114460.039999999990
20
13778.690000000001
30
0.0
11
115002.509999999990
21
13836.040000000001
31
0.0
0
LINE
5
a37
100
AcDbEntity
8
1-0
6
DOT
62
4
100
AcDbLine
10
115002.509999999990
20
13836.040000000001
30
0.0
11
115528.190000000000
21
13953.709999999999
31
0.0
0
LINE
5
a38
100
AcDbEntity
8
1-0
6
DOT
62
4
100
AcDbLine
10
115528.190000000000
20
13953.709999999999
30
0.0
11
116026.140000000000
21
14132.150000000000
31
0.0
0
LINE
5
a39
100
AcDbEntity
8
1-0
6
DOT
62
4
100
AcDbLine
10
116026.140000000000
20
14132.150000000000
30
0.0
11
116485.580000000000
21
14371.770000000000
31
0.0
0
LINE
5
a3a
100
AcDbEntity
8
1-0
6
DOT
62
4
100
AcDbLine
10
116485.580000000000
20
14371.770000000000
30
0.0
11
116901.899999999990
21
14666.629999999999
31
0.0
0
LINE
5
a3b
100
AcDbEntity
8
1-0
6
DOT
62
4
100
AcDbLine
10
116901.899999999990
20
14666.629999999999
30
0.0
11
117291.570000000010
21
14989.770000000000
31
0.0
0
LINE
5
a3c
100
AcDbEntity
8
1-0
6
DOT
62
4
100
AcDbLine
10
117291.570000000010
20
14989.770000000000
30
0.0
11
117675.340000000000
21
15309.780000000001
31
0.0
0
LINE
5
a3d
100
AcDbEntity
8
1-0
6
DOT
62
4
100
AcDbLine
10
117675.340000000000
20
15309.780000000001
30
0.0
11
118074.000000000000
21
15595.250000000000
31
0.0
0
LINE
5
a3e
100
AcDbEntity
8
1-0
6
DOT
62
4
100
AcDbLine
10
118074.000000000000
20
15595.250000000000
30
0.0
11
118506.640000000000
21
15817.590000000000
31
0.0
0
LINE
5
a3f
100
AcDbEntity
8
1-0
6
DOT
62
4
100
AcDbLine
10
118506.640000000000
20
15817.590000000000
30
0.0
11
118972.810000000000
21
15980.860000000001
31
0.0
0
LINE
5
a40
100
AcDbEntity
8
1-0
6
DOT
62
4
100
AcDbLine
10
118972.810000000000
20
15980.860000000001
30
0.0
11
119459.610000000000
21
16109.840000000000
31
0.0
0
LINE
5
a41
100
AcDbEntity
8
1-0
6
DOT
62
4
100
AcDbLine
10
119459.610000000000
20
16109.840000000000
30
0.0
11
119953.899999999990
21
16229.639999999999
31
0.0
0
LINE
5
a42
100
AcDbEntity
8
1-0
6
DOT
62
4
100
AcDbLine
10
119953.899999999990
20
16229.639999999999
30
0.0
11
120442.610000000000
21
16365.389999999999
31
0.0
0
LINE
5
a43
100
AcDbEntity
8
1-0
6
DOT
62
4
100
AcDbLine
10
120442.610000000000
20
16365.389999999999
30
0.0
11
120913.920000000000
21
16539.430000000000
31
0.0
0
LINE
5
a44
100
AcDbEntity
8
1-0
6
DOT
62
4
100
AcDbLine
10
120913.920000000000
20
16539.430000000000
30
0.0
11
121365.620000000000
21
16754.509999999998
31
0.0
0
LINE
5
a45
100
AcDbEntity
8
1-0
6
DOT
62
4
100
AcDbLine
10
121365.620000000000
20
16754.509999999998
30
0.0
11
121799.460000000010
21
17004.910000000000
31
0.0
0
LINE
5
a46
100
AcDbEntity
8
1-0
6
DOT
62
4
100
AcDbLine
10
121799.460000000010
20
17004.910000000000
30
0.0
11
122217.300000000000
21
17284.770000000000
31
0.0
0
LINE
5
a47
100
AcDbEntity
8
1-0
6
DOT
62
4
100
AcDbLine
10
122217.300000000000
20
17284.770000000000
30
0.0
11
122620.990000000010
21
17588.419999999998
31
0.0
0
LINE
5
a48
100
AcDbEntity
8
1-0
6
DOT
62
4
100
AcDbLine
10
122620.990000000010
20
17588.419999999998
30
0.0
11
123012.350000000010
21
17909.980000000000
31
0.0
0
LINE
5
a49
100
AcDbEntity
8
1-0
6
DOT
62
4
100
AcDbLine
10
123012.350000000010
20
17909.980000000000
30
0.0
11
123393.090000000000
21
18244.040000000001
31
0.0
0
LINE
5
a4a
100
AcDbEntity
8
1-0
6
DOT
62
4
100
AcDbLine
10
123393.090000000000
20
18244.040000000001
30
0.0
11
123763.820000000010
21
18588.590000000000
31
0.0
0
LINE
5
a4b
100
AcDbEntity
8
1-0
6
DOT
62
4
100
AcDbLine
10
123763.820000000010
20
18588.590000000000
30
0.0
11
124124.429999999990
21
18943.169999999998
31
0.0
0
LINE
5
a4c
100
AcDbEntity
8
1-0
6
DOT
62
4
100
AcDbLine
10
124124.429999999990
20
18943.169999999998
30
0.0
11
124475.000000000000
21
19307.389999999999
31
0.0
0
LINE
5
a4d
100
AcDbEntity
8
1-0
6
DOT
62
4
100
AcDbLine
10
124475.000000000000
20
19307.389999999999
30
0.0
11
124815.470000000000
21
19680.900000000001
31
0.0
0
LINE
5
a4e
100
AcDbEntity
8
1-0
6
DOT
62
4
100
AcDbLine
10
124815.470000000000
20
19680.900000000001
30
0.0
11
125145.820000000010
21
20063.290000000001
31
0.0
0
LINE
5
a4f
100
AcDbEntity
8
1-0
6
DOT
62
4
100
AcDbLine
10
125145.820000000010
20
20063.290000000001
30
0.0
11
125466.080000000000
21
20454.160000000000
31
0.0
0
LINE
5
a50
100
AcDbEntity
8
1-0
6
DOT
62
4
100
AcDbLine
10
125466.080000000000
20
20454.160000000000
30
0.0
11
125776.170000000000
21
20853.119999999999
31
0.0
0
LINE
5
a51
100
AcDbEntity
8
1-0
6
DOT
62
4
100
AcDbLine
10
125776.170000000000
20
20853.119999999999
30
0.0
11
126076.130000000000
21
21259.750000000000
31
0.0
0
LINE
5
a52
100
AcDbEntity
8
1-0
6
DOT
62
4
100
AcDbLine
10
126076.130000000000
20
21259.750000000000
30
0.0
11
126365.890000000000
21
21673.730000000000
31
0.0
0
LINE
5
a53
100
AcDbEntity
8
1-0
6
DOT
62
4
100
AcDbLine
10
126365.890000000000
20
21673.730000000000
30
0.0
11
126645.500000000000
21
22094.639999999999
31
0.0
0
LINE
5
a54
100
AcDbEntity
8
1-0
6
DOT
62
4
100
AcDbLine
10
126645.500000000000
20
22094.639999999999
30
0.0
11
126914.890000000000
21
22522.099999999999
31
0.0
0
LINE
5
a55
100
AcDbEntity
8
1-0
6
DOT
62
4
100
AcDbLine
10
126914.890000000000
20
22522.099999999999
30
0.0
11
127174.060000000000
21
22955.660000000000
31
0.0
0
LINE
5
a56
100
AcDbEntity
8
1-0
6
DOT
62
4
100
AcDbLine
10
127174.060000000000
20
22955.660000000000
30
0.0
11
127423.020000000000
21
23394.970000000001
31
0.0
0
LINE
5
a57
100
AcDbEntity
8
1-0
6
DOT
62
4
100
AcDbLine
10
127423.020000000000
20
23394.970000000001
30
0.0
11
127661.730000000000
21
23839.680000000000
31
0.0
0
LINE
5
a58
100
AcDbEntity
8
1-0
6
DOT
62
4
100
AcDbLine
10
127661.730000000000
20
23839.680000000000
30
0.0
11
127890.160000000000
21
24289.360000000001
31
0.0
0
LINE
5
a59
100
AcDbEntity
8
1-0
6
DOT
62
4
100
AcDbLine
10
127890.160000000000
20
24289.360000000001
30
0.0
11
128108.320000000010
21
24743.590000000000
31
0.0
0
LINE
5
a5a
100
AcDbEntity
8
1-0
6
DOT
62
4
100
AcDbLine
10
128108.320000000010
20
24743.590000000000
30
0.0
11
128316.190000000000
21
25202.049999999999
31
0.0
0
LINE
5
a5b
100
AcDbEntity
8
1-0
6
DOT
62
4
100
AcDbLine
10
128316.190000000000
20
25202.049999999999
30
0.0
11
128513.720000000000
21
25664.299999999999
31
0.0
0
LINE
5
a5c
100
AcDbEntity
8
1-0
6
DOT
62
4
100
AcDbLine
10
128513.720000000000
20
25664.299999999999
30
0.0
11
128700.950000000000
21
26129.939999999999
31
0.0
0
LINE
5
a5d
100
AcDbEntity
8
1-0
6
DOT
62
4
100
AcDbLine
10
128700.950000000000
20
26129.939999999999
30
0.0
11
128878.170000000000
21
26598.619999999999
31
0.0
0
LINE
5
a5e
100
AcDbEntity
8
1-0
6
DOT
62
4
100
AcDbLine
10
128878.170000000000
20
26598.619999999999
30
0.0
11
129046.660000000000
21
27069.869999999999
31
0.0
0
LINE
5
a5f
100
AcDbEntity
8
1-0
6
DOT
62
4
100
AcDbLine
10
129046.660000000000
20
27069.869999999999
30
0.0
11
129207.810000000000
21
27543.299999999999
31
0.0
0
LINE
5
a60
100
AcDbEntity
8
1-0
6
DOT
62
4
100
AcDbLine
10
129207.810000000000
20
27543.299999999999
30
0.0
11
129363.140000000000
21
28018.459999999999
31
0.0
0
LINE
5
a61
100
AcDbEntity
8
1-0
6
DOT
62
4
100
AcDbLine
10
129363.140000000000
20
28018.459999999999
30
0.0
11
129514.110000000000
21
28494.900000000001
31
0.0
0
LINE
5
a62
100
AcDbEntity
8
1-0
6
DOT
62
4
100
AcDbLine
10
129514.110000000000
20
28494.900000000001
30
0.0
11
129662.160000000000
21
28972.209999999999
31
0.0
0
LINE
5
a63
100
AcDbEntity
8
1-0
6
DOT
62
4
100
AcDbLine
10
129662.160000000000
20
28972.209999999999
30
0.0
11
129808.770000000000
21
29449.910000000000
31
0.0
0
LINE
5
a64
100
AcDbEntity
8
1-0
6
DOT
62
4
100
AcDbLine
10
129808.770000000000
20
29449.910000000000
30
0.0
11
129809.530000000000
21
29452.439999999999
31
0.0
0
LINE
5
a65
100
AcDbEntity
8
1-0
6
DOT
62
4
100
AcDbLine
10
86935.380000000005
20
76474.429999999993
30
0.0
11
86896.699999999997
21
75962.130000000005
31
0.0
0
LINE
5
a66
100
AcDbEntity
8
1-0
6
DOT
62
4
100
AcDbLine
10
86896.699999999997
20
75962.130000000005
30
0.0
11
86846.619999999995
21
75454.279999999999
31
0.0
0
LINE
5
a67
100
AcDbEntity
8
1-0
6
DOT
62
4
100
AcDbLine
10
86846.619999999995
20
75454.279999999999
30
0.0
11
86773.649999999994
21
74955.229999999996
31
0.0
0
LINE
5
a68
100
AcDbEntity
8
1-0
6
DOT
62
4
100
AcDbLine
10
86773.649999999994
20
74955.229999999996
30
0.0
11
86666.410000000003
21
74469.449999999997
31
0.0
0
LINE
5
a69
100
AcDbEntity
8
1-0
6
DOT
62
4
100
AcDbLine
10
86666.410000000003
20
74469.449999999997
30
0.0
11
86513.449999999997
21
74001.339999999997
31
0.0
0
LINE
5
a6a
100
AcDbEntity
8
1-0
6
DOT
62
4
100
AcDbLine
10
86513.449999999997
20
74001.339999999997
30
0.0
11
86303.880000000005
21
73555.270000000004
31
0.0
0
LINE
5
a6b
100
AcDbEntity
8
1-0
6
DOT
62
4
100
AcDbLine
10
86303.880000000005
20
73555.270000000004
30
0.0
11
86036.619999999995
21
73134.429999999993
31
0.0
0
LINE
5
a6c
100
AcDbEntity
8
1-0
6
DOT
62
4
100
AcDbLine
10
86036.619999999995
20
73134.429999999993
30
0.0
11
85718.809999999998
21
72741.149999999994
31
0.0
0
LINE
5
a6d
100
AcDbEntity
8
1-0
6
DOT
62
4
100
AcDbLine
10
85718.809999999998
20
72741.149999999994
30
0.0
11
85357.830000000002
21
72377.679999999993
31
0.0
0
LINE
5
a6e
100
AcDbEntity
8
1-0
6
DOT
62
4
100
AcDbLine
10
85357.830000000002
20
72377.679999999993
30
0.0
11
84961.050000000003
21
72046.259999999995
31
0.0
0
LINE
5
a6f
100
AcDbEntity
8
1-0
6
DOT
62
4
100
AcDbLine
10
84961.050000000003
20
72046.259999999995
30
0.0
11
84535.949999999997
21
71749.169999999998
31
0.0
0
LINE
5
a70
100
AcDbEntity
8
1-0
6
DOT
62
4
100
AcDbLine
10
84535.949999999997
20
71749.169999999998
30
0.0
11
84089.839999999997
21
71488.649999999994
31
0.0
0
LINE
5
a71
100
AcDbEntity
8
1-0
6
DOT
62
4
100
AcDbLine
10
84089.839999999997
20
71488.649999999994
30
0.0
11
83630.190000000002
21
71266.910000000003
31
0.0
0
LINE
5
a72
100
AcDbEntity
8
1-0
6
DOT
62
4
100
AcDbLine
10
83630.190000000002
20
71266.910000000003
30
0.0
11
83166.690000000002
21
71072.880000000005
31
0.0
0
LINE
5
a73
100
AcDbEntity
8
1-0
6
DOT
62
4
100
AcDbLine
10
83166.690000000002
20
71072.880000000005
30
0.0
11
82714.039999999994
21
70867.190000000002
31
0.0
0
LINE
5
a74
100
AcDbEntity
8
1-0
6
DOT
62
4
100
AcDbLine
10
82714.039999999994
20
70867.190000000002
30
0.0
11
82286.839999999997
21
70610.839999999997
31
0.0
0
LINE
5
a75
100
AcDbEntity
8
1-0
6
DOT
62
4
100
AcDbLine
10
82286.839999999997
20
70610.839999999997
30
0.0
11
81893.399999999994
21
70297.699999999997
31
0.0
0
LINE
5
a76
100
AcDbEntity
8
1-0
6
DOT
62
4
100
AcDbLine
10
81893.399999999994
20
70297.699999999997
30
0.0
11
81539.119999999995
21
69937.619999999995
31
0.0
0
LINE
5
a77
100
AcDbEntity
8
1-0
6
DOT
62
4
100
AcDbLine
10
81539.119999999995
20
69937.619999999995
30
0.0
11
81228.199999999997
21
69540.649999999994
31
0.0
0
LINE
5
a78
100
AcDbEntity
8
1-0
6
DOT
62
4
100
AcDbLine
10
81228.199999999997
20
69540.649999999994
30
0.0
11
80952.139999999999
21
69118.679999999993
31
0.0
0
LINE
5
a79
100
AcDbEntity
8
1-0
6
DOT
62
4
100
AcDbLine
10
80952.139999999999
20
69118.679999999993
30
0.0
11
80693.759999999995
21
68684.820000000007
31
0.0
0
LINE
5
a7a
100
AcDbEntity
8
1-0
6
DOT
62
4
100
AcDbLine
10
80693.759999999995
20
68684.820000000007
30
0.0
11
80435.919999999998
21
68252.139999999999
31
0.0
0
LINE
5
a7b
100
AcDbEntity
8
1-0
6
DOT
62
4
100
AcDbLine
10
80435.919999999998
20
68252.139999999999
30
0.0
11
80161.380000000005
21
67833.800000000003
31
0.0
0
LINE
5
a7c
100
AcDbEntity
8
1-0
6
DOT
62
4
100
AcDbLine
10
80161.380000000005
20
67833.800000000003
30
0.0
11
79852.929999999993
21
67442.899999999994
31
0.0
0
LINE
5
a7d
100
AcDbEntity
8
1-0
6
DOT
62
4
100
AcDbLine
10
79852.929999999993
20
67442.899999999994
30
0.0
11
79493.360000000001
21
67092.589999999997
31
0.0
0
LINE
5
a7e
100
AcDbEntity
8
1-0
6
DOT
62
4
100
AcDbLine
10
79493.360000000001
20
67092.589999999997
30
0.0
11
79070.759999999995
21
66792.649999999994
31
0.0
0
LINE
5
a7f
100
AcDbEntity
8
1-0
6
DOT
62
4
100
AcDbLine
10
79070.759999999995
20
66792.649999999994
30
0.0
11
78651.460000000006
21
66503.929999999993
31
0.0
0
LINE
5
a80
100
AcDbEntity
8
1-0
6
DOT
62
4
100
AcDbLine
10
78651.460000000006
20
66503.929999999993
30
0.0
11
78359.630000000005
21
66151.029999999999
31
0.0
0
LINE
5
a81
100
AcDbEntity
8
1-0
6
DOT
62
4
100
AcDbLine
10
78359.630000000005
20
66151.029999999999
30
0.0
11
78239.309999999998
21
65704.339999999997
31
0.0
0
LINE
5
a82
100
AcDbEntity
8
1-0
6
DOT
62
4
100
AcDbLine
10
78239.309999999998
20
65704.339999999997
30
0.0
11
78230.699999999997
21
65193.629999999997
31
0.0
0
LINE
5
a83
100
AcDbEntity
8
1-0
6
DOT
62
4
100
AcDbLine
10
78230.699999999997
20
65193.629999999997
30
0.0
11
78267.330000000002
21
64652.559999999998
31
0.0
0
LINE
5
a84
100
AcDbEntity
8
1-0
6
DOT
62
4
100
AcDbLine
10
78267.330000000002
20
64652.559999999998
30
0.0
11
78282.649999999994
21
64114.750000000000
31
0.0
0
LINE
5
a85
100
AcDbEntity
8
1-0
6
DOT
62
4
100
AcDbLine
10
78282.649999999994
20
64114.750000000000
30
0.0
11
78210.179999999993
21
63613.800000000003
31
0.0
0
LINE
5
a86
100
AcDbEntity
8
1-0
6
DOT
62
4
100
AcDbLine
10
78210.179999999993
20
63613.800000000003
30
0.0
11
78004.500000000000
21
63171.750000000000
31
0.0
0
LINE
5
a87
100
AcDbEntity
8
1-0
6
DOT
62
4
100
AcDbLine
10
78004.500000000000
20
63171.750000000000
30
0.0
11
77711.979999999996
21
62759.860000000001
31
0.0
0
LINE
5
a88
100
AcDbEntity
8
1-0
6
DOT
62
4
100
AcDbLine
10
77711.979999999996
20
62759.860000000001
30
0.0
11
77403.250000000000
21
62336.209999999999
31
0.0
0
LINE
5
a89
100
AcDbEntity
8
1-0
6
DOT
62
4
100
AcDbLine
10
77403.250000000000
20
62336.209999999999
30
0.0
11
77122.300000000003
21
61880.860000000001
31
0.0
0
LINE
5
a8a
100
AcDbEntity
8
1-0
6
DOT
62
4
100
AcDbLine
10
77122.300000000003
20
61880.860000000001
30
0.0
11
76880.839999999997
21
61400.540000000001
31
0.0
0
LINE
5
a8b
100
AcDbEntity
8
1-0
6
DOT
62
4
100
AcDbLine
10
76880.839999999997
20
61400.540000000001
30
0.0
11
76688.690000000002
21
60903.500000000000
31
0.0
0
LINE
5
a8c
100
AcDbEntity
8
1-0
6
DOT
62
4
100
AcDbLine
10
76688.690000000002
20
60903.500000000000
30
0.0
11
76555.589999999997
21
60398.070000000000
31
0.0
0
LINE
5
a8d
100
AcDbEntity
8
1-0
6
DOT
62
4
100
AcDbLine
10
76555.589999999997
20
60398.070000000000
30
0.0
11
76491.330000000002
21
59892.550000000003
31
0.0
0
LINE
5
a8e
100
AcDbEntity
8
1-0
6
DOT
62
4
100
AcDbLine
10
76491.330000000002
20
59892.550000000003
30
0.0
11
76505.720000000001
21
59395.260000000002
31
0.0
0
LINE
5
a8f
100
AcDbEntity
8
1-0
6
DOT
62
4
100
AcDbLine
10
76505.720000000001
20
59395.260000000002
30
0.0
11
76608.470000000001
21
58914.519999999997
31
0.0
0
LINE
5
a90
100
AcDbEntity
8
1-0
6
DOT
62
4
100
AcDbLine
10
76608.470000000001
20
58914.519999999997
30
0.0
11
76800.839999999997
21
58455.900000000001
31
0.0
0
LINE
5
a91
100
AcDbEntity
8
1-0
6
DOT
62
4
100
AcDbLine
10
76800.839999999997
20
58455.900000000001
30
0.0
11
77035.699999999997
21
58009.580000000002
31
0.0
0
LINE
5
a92
100
AcDbEntity
8
1-0
6
DOT
62
4
100
AcDbLine
10
77035.699999999997
20
58009.580000000002
30
0.0
11
77249.050000000003
21
57560.459999999999
31
0.0
0
LINE
5
a93
100
AcDbEntity
8
1-0
6
DOT
62
4
100
AcDbLine
10
77249.050000000003
20
57560.459999999999
30
0.0
11
77393.190000000002
21
57097.040000000001
31
0.0
0
LINE
5
a94
100
AcDbEntity
8
1-0
6
DOT
62
4
100
AcDbLine
10
77393.190000000002
20
57097.040000000001
30
0.0
11
77470.520000000004
21
56619.449999999997
31
0.0
0
LINE
5
a95
100
AcDbEntity
8
1-0
6
DOT
62
4
100
AcDbLine
10
77470.520000000004
20
56619.449999999997
30
0.0
11
77493.119999999995
21
56129.910000000003
31
0.0
0
LINE
5
a96
100
AcDbEntity
8
1-0
6
DOT
62
4
100
AcDbLine
10
77493.119999999995
20
56129.910000000003
30
0.0
11
77473.029999999999
21
55630.730000000003
31
0.0
0
LINE
5
a97
100
AcDbEntity
8
1-0
6
DOT
62
4
100
AcDbLine
10
77473.029999999999
20
55630.730000000003
30
0.0
11
77422.289999999994
21
55124.180000000000
31
0.0
0
LINE
5
a98
100
AcDbEntity
8
1-0
6
DOT
62
4
100
AcDbLine
10
77422.289999999994
20
55124.180000000000
30
0.0
11
77352.929999999993
21
54612.519999999997
31
0.0
0
LINE
5
a99
100
AcDbEntity
8
1-0
6
DOT
62
4
100
AcDbLine
10
77352.929999999993
20
54612.519999999997
30
0.0
11
77276.970000000001
21
54097.989999999998
31
0.0
0
LINE
5
a9a
100
AcDbEntity
8
1-0
6
DOT
62
4
100
AcDbLine
10
77276.970000000001
20
54097.989999999998
30
0.0
11
77206.479999999996
21
53582.910000000003
31
0.0
0
LINE
5
a9b
100
AcDbEntity
8
1-0
6
DOT
62
4
100
AcDbLine
10
77206.479999999996
20
53582.910000000003
30
0.0
11
77153.479999999996
21
53069.519999999997
31
0.0
0
LINE
5
a9c
100
AcDbEntity
8
1-0
6
DOT
62
4
100
AcDbLine
10
77153.479999999996
20
53069.519999999997
30
0.0
11
77130.039999999994
21
52560.089999999997
31
0.0
0
LINE
5
a9d
100
AcDbEntity
8
1-0
6
DOT
62
4
100
AcDbLine
10
77130.039999999994
20
52560.089999999997
30
0.0
11
77147.850000000006
21
52056.849999999999
31
0.0
0
LINE
5
a9e
100
AcDbEntity
8
1-0
6
DOT
62
4
100
AcDbLine
10
77147.850000000006
20
52056.849999999999
30
0.0
11
77207.809999999998
21
51560.180000000000
31
0.0
0
LINE
5
a9f
100
AcDbEntity
8
1-0
6
DOT
62
4
100
AcDbLine
10
77207.809999999998
20
51560.180000000000
30
0.0
11
77296.940000000002
21
51068.050000000003
31
0.0
0
LINE
5
aa0
100
AcDbEntity
8
1-0
6
DOT
62
4
100
AcDbLine
10
77296.940000000002
20
51068.050000000003
30
0.0
11
77401.460000000006
21
50578.309999999998
31
0.0
0
LINE
5
aa1
100
AcDbEntity
8
1-0
6
DOT
62
4
100
AcDbLine
10
77401.460000000006
20
50578.309999999998
30
0.0
11
77413.130000000005
21
50525.209999999999
31
0.0
0
LINE
5
aa2
100
AcDbEntity
8
1-0
6
DOT
62
4
100
AcDbLine
10
123357.470000000000
20
36495.660000000003
30
0.0
11
122892.200000000000
21
36673.129999999997
31
0.0
0
LINE
5
aa3
100
AcDbEntity
8
1-0
6
DOT
62
4
100
AcDbLine
10
122892.200000000000
20
36673.129999999997
30
0.0
11
122430.679999999990
21
36862.169999999998
31
0.0
0
LINE
5
aa4
100
AcDbEntity
8
1-0
6
DOT
62
4
100
AcDbLine
10
122430.679999999990
20
36862.169999999998
30
0.0
11
121976.750000000000
21
37074.430000000000
31
0.0
0
LINE
5
aa5
100
AcDbEntity
8
1-0
6
DOT
62
4
100
AcDbLine
10
121976.750000000000
20
37074.430000000000
30
0.0
11
121534.200000000000
21
37321.400000000001
31
0.0
0
LINE
5
aa6
100
AcDbEntity
8
1-0
6
DOT
62
4
100
AcDbLine
10
121534.200000000000
20
37321.400000000001
30
0.0
11
121109.560000000000
21
37610.660000000003
31
0.0
0
LINE
5
aa7
100
AcDbEntity
8
1-0
6
DOT
62
4
100
AcDbLine
10
121109.560000000000
20
37610.660000000003
30
0.0
11
120715.009999999990
21
37941.519999999997
31
0.0
0
LINE
5
aa8
100
AcDbEntity
8
1-0
6
DOT
62
4
100
AcDbLine
10
120715.009999999990
20
37941.519999999997
30
0.0
11
120363.399999999990
21
38312.370000000003
31
0.0
0
LINE
5
aa9
100
AcDbEntity
8
1-0
6
DOT
62
4
100
AcDbLine
10
120363.399999999990
20
38312.370000000003
30
0.0
11
120067.450000000000
21
38721.559999999998
31
0.0
0
LINE
5
aaa
100
AcDbEntity
8
1-0
6
DOT
62
4
100
AcDbLine
10
120067.450000000000
20
38721.559999999998
30
0.0
11
119840.130000000000
21
39167.449999999997
31
0.0
0
LINE
5
aab
100
AcDbEntity
8
1-0
6
DOT
62
4
100
AcDbLine
10
119840.130000000000
20
39167.449999999997
30
0.0
11
119690.380000000000
21
39647.559999999998
31
0.0
0
LINE
5
aac
100
AcDbEntity
8
1-0
6
DOT
62
4
100
AcDbLine
10
119690.380000000000
20
39647.559999999998
30
0.0
11
119606.980000000000
21
40154.839999999997
31
0.0
0
LINE
5
aad
100
AcDbEntity
8
1-0
6
DOT
62
4
100
AcDbLine
10
119606.980000000000
20
40154.839999999997
30
0.0
11
119571.890000000000
21
40680.910000000003
31
0.0
0
LINE
5
aae
100
AcDbEntity
8
1-0
6
DOT
62
4
100
AcDbLine
10
119571.890000000000
20
40680.910000000003
30
0.0
11
119567.160000000000
21
41217.220000000001
31
0.0
0
LINE
5
aaf
100
AcDbEntity
8
1-0
6
DOT
62
4
100
AcDbLine
10
119567.160000000000
20
41217.220000000001
30
0.0
11
119574.750000000000
21
41755.300000000003
31
0.0
0
LINE
5
ab0
100
AcDbEntity
8
1-0
6
DOT
62
4
100
AcDbLine
10
119574.750000000000
20
41755.300000000003
30
0.0
11
119576.679999999990
21
42286.680000000000
31
0.0
0
LINE
5
ab1
100
AcDbEntity
8
1-0
6
DOT
62
4
100
AcDbLine
10
119576.679999999990
20
42286.680000000000
30
0.0
11
119554.920000000000
21
42802.860000000001
31
0.0
0
LINE
5
ab2
100
AcDbEntity
8
1-0
6
DOT
62
4
100
AcDbLine
10
119554.920000000000
20
42802.860000000001
30
0.0
11
119491.460000000010
21
43295.349999999999
31
0.0
0
LINE
5
ab3
100
AcDbEntity
8
1-0
6
DOT
62
4
100
AcDbLine
10
119491.460000000010
20
43295.349999999999
30
0.0
11
119368.360000000000
21
43755.680000000000
31
0.0
0
LINE
5
ab4
100
AcDbEntity
8
1-0
6
DOT
62
4
100
AcDbLine
10
119368.360000000000
20
43755.680000000000
30
0.0
11
119167.560000000000
21
44175.320000000000
31
0.0
0
LINE
5
ab5
100
AcDbEntity
8
1-0
6
DOT
62
4
100
AcDbLine
10
119167.560000000000
20
44175.320000000000
30
0.0
11
118871.660000000000
21
44546.199999999997
31
0.0
0
LINE
5
ab6
100
AcDbEntity
8
1-0
6
DOT
62
4
100
AcDbLine
10
118871.660000000000
20
44546.199999999997
30
0.0
11
118496.410000000000
21
44878.389999999999
31
0.0
0
LINE
5
ab7
100
AcDbEntity
8
1-0
6
DOT
62
4
100
AcDbLine
10
118496.410000000000
20
44878.389999999999
30
0.0
11
118106.090000000000
21
45208.900000000001
31
0.0
0
LINE
5
ab8
100
AcDbEntity
8
1-0
6
DOT
62
4
100
AcDbLine
10
118106.090000000000
20
45208.900000000001
30
0.0
11
117768.940000000000
21
45576.790000000001
31
0.0
0
LINE
5
ab9
100
AcDbEntity
8
1-0
6
DOT
62
4
100
AcDbLine
10
117768.940000000000
20
45576.790000000001
30
0.0
11
117546.490000000010
21
46014.519999999997
31
0.0
0
LINE
5
aba
100
AcDbEntity
8
1-0
6
DOT
62
4
100
AcDbLine
10
117546.490000000010
20
46014.519999999997
30
0.0
11
117456.600000000010
21
46510.239999999998
31
0.0
0
LINE
5
abb
100
AcDbEntity
8
1-0
6
DOT
62
4
100
AcDbLine
10
117456.600000000010
20
46510.239999999998
30
0.0
11
117499.259999999990
21
47034.290000000001
31
0.0
0
LINE
5
abc
100
AcDbEntity
8
1-0
6
DOT
62
4
100
AcDbLine
10
117499.259999999990
20
47034.290000000001
30
0.0
11
117674.509999999990
21
47556.830000000002
31
0.0
0
LINE
5
abd
100
AcDbEntity
8
1-0
6
DOT
62
4
100
AcDbLine
10
117674.509999999990
20
47556.830000000002
30
0.0
11
117982.320000000010
21
48048.080000000002
31
0.0
0
LINE
5
abe
100
AcDbEntity
8
1-0
6
DOT
62
4
100
AcDbLine
10
117982.320000000010
20
48048.080000000002
30
0.0
11
118408.080000000000
21
48488.610000000001
31
0.0
0
LINE
5
abf
100
AcDbEntity
8
1-0
6
DOT
62
4
100
AcDbLine
10
118408.080000000000
20
48488.610000000001
30
0.0
11
118902.390000000000
21
48883.400000000001
31
0.0
0
LINE
5
ac0
100
AcDbEntity
8
1-0
6
DOT
62
4
100
AcDbLine
10
118902.390000000000
20
48883.400000000001
30
0.0
11
119410.710000000010
21
49241.019999999997
31
0.0
0
LINE
5
ac1
100
AcDbEntity
8
1-0
6
DOT
62
4
100
AcDbLine
10
119410.710000000010
20
49241.019999999997
30
0.0
11
119878.520000000000
21
49570.110000000001
31
0.0
0
LINE
5
ac2
100
AcDbEntity
8
1-0
6
DOT
62
4
100
AcDbLine
10
119878.520000000000
20
49570.110000000001
30
0.0
11
120251.240000000010
21
49879.290000000001
31
0.0
0
LINE
5
ac3
100
AcDbEntity
8
1-0
6
DOT
62
4
100
AcDbLine
10
120251.240000000010
20
49879.290000000001
30
0.0
11
120474.289999999990
21
50177.169999999998
31
0.0
0
LINE
5
ac4
100
AcDbEntity
8
1-0
6
DOT
62
4
100
AcDbLine
10
120474.289999999990
20
50177.169999999998
30
0.0
11
120493.190000000000
21
50472.370000000003
31
0.0
0
LINE
5
ac5
100
AcDbEntity
8
1-0
6
DOT
62
4
100
AcDbLine
10
120493.190000000000
20
50472.370000000003
30
0.0
11
120277.360000000000
21
50773.669999999998
31
0.0
0
LINE
5
ac6
100
AcDbEntity
8
1-0
6
DOT
62
4
100
AcDbLine
10
120277.360000000000
20
50773.669999999998
30
0.0
11
119896.870000000000
21
51090.629999999997
31
0.0
0
LINE
5
ac7
100
AcDbEntity
8
1-0
6
DOT
62
4
100
AcDbLine
10
119896.870000000000
20
51090.629999999997
30
0.0
11
119447.980000000000
21
51432.959999999999
31
0.0
0
LINE
5
ac8
100
AcDbEntity
8
1-0
6
DOT
62
4
100
AcDbLine
10
119447.980000000000
20
51432.959999999999
30
0.0
11
119027.020000000000
21
51810.370000000003
31
0.0
0
LINE
5
ac9
100
AcDbEntity
8
1-0
6
DOT
62
4
100
AcDbLine
10
119027.020000000000
20
51810.370000000003
30
0.0
11
118730.140000000000
21
52232.610000000001
31
0.0
0
LINE
5
aca
100
AcDbEntity
8
1-0
6
DOT
62
4
100
AcDbLine
10
118730.140000000000
20
52232.610000000001
30
0.0
11
118609.190000000000
21
52702.199999999997
31
0.0
0
LINE
5
acb
100
AcDbEntity
8
1-0
6
DOT
62
4
100
AcDbLine
10
118609.190000000000
20
52702.199999999997
30
0.0
11
118609.630000000000
21
53204.559999999998
31
0.0
0
LINE
5
acc
100
AcDbEntity
8
1-0
6
DOT
62
4
100
AcDbLine
10
118609.630000000000
20
53204.559999999998
30
0.0
11
118661.450000000000
21
53722.559999999998
31
0.0
0
LINE
5
acd
100
AcDbEntity
8
1-0
6
DOT
62
4
100
AcDbLine
10
118661.450000000000
20
53722.559999999998
30
0.0
11
118694.630000000000
21
54239.110000000001
31
0.0
0
LINE
5
ace
100
AcDbEntity
8
1-0
6
DOT
62
4
100
AcDbLine
10
118694.630000000000
20
54239.110000000001
30
0.0
11
118645.370000000000
21
54738.580000000002
31
0.0
0
LINE
5
acf
100
AcDbEntity
8
1-0
6
DOT
62
4
100
AcDbLine
10
118645.370000000000
20
54738.580000000002
30
0.0
11
118512.420000000000
21
55219.970000000001
31
0.0
0
LINE
5
ad0
100
AcDbEntity
8
1-0
6
DOT
62
4
100
AcDbLine
10
118512.420000000000
20
55219.970000000001
30
0.0
11
118330.160000000000
21
55690.730000000003
31
0.0
0
LINE
5
ad1
100
AcDbEntity
8
1-0
6
DOT
62
4
100
AcDbLine
10
118330.160000000000
20
55690.730000000003
30
0.0
11
118248.660000000000
21
55883.959999999999
31
0.0
0
CIRCLE
5
ad2
100
AcDbEntity
8
1-0
6
CONTINUOUS
62
4
100
AcDbCircle
10
70967.250000000000
20
20673.400000000001
30
0.0
40
99.999999069885
0
CIRCLE
5
ad3
100
AcDbEntity
8
1-0
6
CONTINUOUS
62
4
100
AcDbCircle
10
73350.889999999999
20
30822.740000000002
30
0.0
40
99.999999069885
0
CIRCLE
5
ad4
100
AcDbEntity
8
1-0
6
CONTINUOUS
62
4
100
AcDbCircle
10
49874.800000000003
20
8666.080000000000
30
0.0
40
99.999999069885
0
CIRCLE
5
ad5
100
AcDbEntity
8
1-0
6
CONTINUOUS
62
4
100
AcDbCircle
10
69821.119999999995
20
7203.610000000000
30
0.0
40
99.999999069885
0
CIRCLE
5
ad6
100
AcDbEntity
8
1-0
6
CONTINUOUS
62
4
100
AcDbCircle
10
73518.229999999996
20
39879.269999999997
30
0.0
40
99.999999069885
0
CIRCLE
5
ad7
100
AcDbEntity
8
1-0
6
CONTINUOUS
62
4
100
AcDbCircle
10
70393.210000000006
20
12733.950000000001
30
0.0
40
99.999999069885
0
CIRCLE
5
ad8
100
AcDbEntity
8
1-0
6
CONTINUOUS
62
4
100
AcDbCircle
10
59848.040000000001
20
7934.850000000000
30
0.0
40
99.999999069885
0
CIRCLE
5
ad9
100
AcDbEntity
8
1-0
6
CONTINUOUS
62
4
100
AcDbCircle
10
74523.369999999995
20
49218.989999999998
30
0.0
40
99.999999069885
0
CIRCLE
5
ada
100
AcDbEntity
8
1-0
6
CONTINUOUS
62
4
100
AcDbCircle
10
76346.669999999998
20
58635.019999999997
30
0.0
40
99.999999069885
0
CIRCLE
5
adb
100
AcDbEntity
8
1-0
6
CONTINUOUS
62
5
100
AcDbCircle
10
-18276.180000000000
20
114165.590000000000
30
0.0
40
499.999995349426
0
CIRCLE
5
adc
100
AcDbEntity
8
1-0
6
CONTINUOUS
62
5
100
AcDbCircle
10
-13057.110000000001
20
86656.279999999999
30
0.0
40
499.999995349426
0
CIRCLE
5
add
100
AcDbEntity
8
1-0
6
CONTINUOUS
62
5
100
AcDbCircle
10
-18276.180000000000
20
114165.590000000000
30
0.0
40
299.999997209656
0
CIRCLE
5
ade
100
AcDbEntity
8
1-0
6
CONTINUOUS
62
5
100
AcDbCircle
10
-13057.110000000001
20
86656.279999999999
30
0.0
40
299.999997209656
0
CIRCLE
5
adf
100
AcDbEntity
8
1-0
6
CONTINUOUS
62
4
100
AcDbCircle
10
3848.970000000000
20
26627.689999999999
30
0.0
40
99.999999069885
0
CIRCLE
5
ae0
100
AcDbEntity
8
1-0
6
CONTINUOUS
62
4
100
AcDbCircle
10
30447.480000000000
20
12947.570000000000
30
0.0
40
99.999999069885
0
CIRCLE
5
ae1
100
AcDbEntity
8
1-0
6
CONTINUOUS
62
4
100
AcDbCircle
10
40117.389999999999
20
10814.270000000000
30
0.0
40
99.999999069885
0
CIRCLE
5
ae2
100
AcDbEntity
8
1-0
6
CONTINUOUS
62
4
100
AcDbCircle
10
13028.520000000000
20
22263.770000000000
30
0.0
40
99.999999069885
0
CIRCLE
5
ae3
100
AcDbEntity
8
1-0
6
CONTINUOUS
62
4
100
AcDbCircle
10
21452.299999999999
20
17641.240000000002
30
0.0
40
99.999999069885
0
TEXT
5
ae4
100
AcDbEntity
8
1-0
62
6
100
AcDbText
10
74862.470
20
25569.220
30
0.0
40
585.000
1
名古曽滝跡
41
1.083
50
0.000
100
AcDbText
0
TEXT
5
ae5
100
AcDbEntity
8
1-0
62
6
100
AcDbText
10
35602.970
20
30476.660
30
0.0
40
585.000
1
大　沢　池
41
1.083
50
0.000
100
AcDbText
0
TEXT
5
ae6
100
AcDbEntity
8
1-0
62
3
100
AcDbText
10
75703.660
20
4861.000
30
0.0
40
292.500
1
100
41
1.000
50
0.000
100
AcDbText
0
TEXT
5
ae7
100
AcDbEntity
8
1-0
62
3
100
AcDbText
10
73308.260
20
5997.190
30
0.0
40
292.500
1
事
41
1.000
50
0.000
100
AcDbText
0
TEXT
5
ae8
100
AcDbEntity
8
1-0
62
3
100
AcDbText
10
73893.260
20
5997.190
30
0.0
40
292.500
1
業
41
1.000
50
0.000
100
AcDbText
0
TEXT
5
ae9
100
AcDbEntity
8
1-0
62
3
100
AcDbText
10
74478.260
20
5997.190
30
0.0
40
292.500
1
名
41
1.000
50
0.000
100
AcDbText
0
TEXT
5
aea
100
AcDbEntity
8
1-0
62
3
100
AcDbText
10
73308.260
20
3757.610
30
0.0
40
292.500
1
調
41
1.000
50
0.000
100
AcDbText
0
TEXT
5
aeb
100
AcDbEntity
8
1-0
62
3
100
AcDbText
10
74478.260
20
3757.610
30
0.0
40
292.500
1
製
41
1.000
50
0.000
100
AcDbText
0
TEXT
5
aec
100
AcDbEntity
8
1-0
62
3
100
AcDbText
10
75384.210
20
4861.000
30
0.0
40
292.500
1
1/
41
1.000
50
0.000
100
AcDbText
0
TEXT
5
aed
100
AcDbEntity
8
1-0
62
3
100
AcDbText
10
75355.370
20
5960.630
30
0.0
40
292.500
1
大沢の池環境管理プロジェクト
41
1.000
50
0.000
100
AcDbText
0
TEXT
5
aee
100
AcDbEntity
8
1-0
62
3
100
AcDbText
10
73308.260
20
4320.110
30
0.0
40
292.500
1
測
41
1.000
50
0.000
100
AcDbText
0
TEXT
5
aef
100
AcDbEntity
8
1-0
62
3
100
AcDbText
10
74478.260
20
4320.110
30
0.0
40
292.500
1
量
41
1.000
50
0.000
100
AcDbText
0
TEXT
5
af0
100
AcDbEntity
8
1-0
62
3
100
AcDbText
10
77042.200
20
4861.000
30
0.0
40
292.500
1
図面番号
41
1.000
50
0.000
100
AcDbText
0
TEXT
5
af1
100
AcDbEntity
8
1-0
62
3
100
AcDbText
10
73308.260
20
4877.400
30
0.0
40
292.500
1
縮
41
1.000
50
0.000
100
AcDbText
0
TEXT
5
af2
100
AcDbEntity
8
1-0
62
3
100
AcDbText
10
74478.260
20
4877.400
30
0.0
40
292.500
1
尺
41
1.000
50
0.000
100
AcDbText
0
TEXT
5
af3
100
AcDbEntity
8
1-0
62
3
100
AcDbText
10
76219.040
20
3735.700
30
0.0
40
292.500
1
平成17年12月1日
41
1.000
50
0.000
100
AcDbText
0
TEXT
5
af4
100
AcDbEntity
8
1-0
62
3
100
AcDbText
10
75038.480
20
4298.200
30
0.0
40
292.500
1
平成13年8月17日～平成17年11月6日
41
1.000
50
0.000
100
AcDbText
0
TEXT
5
af5
100
AcDbEntity
8
1-0
62
3
100
AcDbText
10
75802.380
20
3173.200
30
0.0
40
292.500
1
ソウギョ・バスターズ
41
1.000
50
0.000
100
AcDbText
0
TEXT
5
af6
100
AcDbEntity
8
1-0
62
3
100
AcDbText
10
73308.260
20
3195.110
30
0.0
40
292.500
1
作
41
1.000
50
0.000
100
AcDbText
0
TEXT
5
af7
100
AcDbEntity
8
1-0
62
3
100
AcDbText
10
73698.260
20
3195.110
30
0.0
40
292.500
1
業
41
1.000
50
0.000
100
AcDbText
0
TEXT
5
af8
100
AcDbEntity
8
1-0
62
3
100
AcDbText
10
74088.260
20
3195.110
30
0.0
40
292.500
1
機
41
1.000
50
0.000
100
AcDbText
0
TEXT
5
af9
100
AcDbEntity
8
1-0
62
3
100
AcDbText
10
74478.260
20
3195.110
30
0.0
40
292.500
1
関
41
1.000
50
0.000
100
AcDbText
0
TEXT
5
afa
100
AcDbEntity
8
1-0
62
3
100
AcDbText
10
73308.260
20
5434.690
30
0.0
40
292.500
1
図
41
1.000
50
0.000
100
AcDbText
0
TEXT
5
afb
100
AcDbEntity
8
1-0
62
3
100
AcDbText
10
73893.260
20
5434.690
30
0.0
40
292.500
1
面
41
1.000
50
0.000
100
AcDbText
0
TEXT
5
afc
100
AcDbEntity
8
1-0
62
3
100
AcDbText
10
74478.260
20
5434.690
30
0.0
40
292.500
1
名
41
1.000
50
0.000
100
AcDbText
0
TEXT
5
afd
100
AcDbEntity
8
1-0
62
3
100
AcDbText
10
76080.160
20
5412.780
30
0.0
40
292.500
1
菊ヶ島現況平面図
41
1.000
50
0.000
100
AcDbText
0
TEXT
5
afe
100
AcDbEntity
8
1-0
62
3
100
AcDbText
10
10123.200
20
45286.270
30
0.0
40
341.250
1
Scale　1/100
41
1.000
50
0.000
100
AcDbText
0
TEXT
5
aff
100
AcDbEntity
8
1-0
62
7
100
AcDbText
10
9725.090
20
44782.510
30
0.0
40
195.000
1
0
41
1.000
50
0.000
100
AcDbText
0
TEXT
5
b00
100
AcDbEntity
8
1-0
62
6
100
AcDbText
10
5444.490
20
49137.560
30
0.0
40
585.000
1
大覚寺菊ヶ島現況平面図
41
1.083
50
0.000
100
AcDbText
0
TEXT
5
b01
100
AcDbEntity
8
1-0
62
7
100
AcDbText
10
12686.200
20
44760.980
30
0.0
40
195.000
1
3
41
1.000
50
0.000
100
AcDbText
0
TEXT
5
b02
100
AcDbEntity
8
1-0
62
7
100
AcDbText
10
10685.530
20
44760.980
30
0.0
40
195.000
1
1
41
1.000
50
0.000
100
AcDbText
0
TEXT
5
b03
100
AcDbEntity
8
1-0
62
7
100
AcDbText
10
13685.530
20
44760.980
30
0.0
40
195.000
1
4 m
41
1.000
50
0.000
100
AcDbText
0
TEXT
5
b04
100
AcDbEntity
8
1-0
62
7
100
AcDbText
10
8691.260
20
44773.810
30
0.0
40
195.000
1
1
41
1.000
50
0.000
100
AcDbText
0
TEXT
5
b05
100
AcDbEntity
8
1-0
62
6
100
AcDbText
10
8090.860
20
47105.490
30
0.0
40
585.000
1
縮尺 壱百分之壱
41
1.083
50
0.000
100
AcDbText
0
TEXT
5
b06
100
AcDbEntity
8
1-0
62
7
100
AcDbText
10
11685.860
20
44754.570
30
0.0
40
195.000
1
2
41
1.000
50
0.000
100
AcDbText
0
TEXT
5
b07
100
AcDbEntity
8
1-0
62
4
100
AcDbText
10
0.000
20
0.000
30
0.0
40
146.250
1
（7.88）
41
1.000
50
0.000
100
AcDbText
0
TEXT
5
b08
100
AcDbEntity
8
1-0
62
4
100
AcDbText
10
171.090
20
116926.940
30
0.0
40
146.250
1
8.38
41
1.000
50
269.994
100
AcDbText
0
TEXT
5
b09
100
AcDbEntity
8
1-0
62
4
100
AcDbText
10
9980.260
20
118797.870
30
0.0
40
146.250
1
8.43
41
1.000
50
270.004
100
AcDbText
0
TEXT
5
b0a
100
AcDbEntity
8
1-0
62
4
100
AcDbText
10
-699.660
20
117677.600
30
0.0
40
146.250
1
（8.08）
41
1.000
50
270.001
100
AcDbText
0
TEXT
5
b0b
100
AcDbEntity
8
1-0
62
4
100
AcDbText
10
0.000
20
0.000
30
0.0
40
146.250
1
8.30
41
1.000
50
0.000
100
AcDbText
0
TEXT
5
b0c
100
AcDbEntity
8
1-0
62
4
100
AcDbText
10
0.000
20
0.000
30
0.0
40
146.250
1
8.18
41
1.000
50
0.000
100
AcDbText
0
TEXT
5
b0d
100
AcDbEntity
8
1-0
62
6
100
AcDbText
10
62257.310
20
61195.320
30
0.0
40
585.000
1
9.0
41
1.083
50
270.000
100
AcDbText
0
TEXT
5
b0e
100
AcDbEntity
8
1-0
62
4
100
AcDbText
10
0.000
20
0.000
30
0.0
40
146.250
1
8.10
41
1.000
50
0.000
100
AcDbText
0
TEXT
5
b0f
100
AcDbEntity
8
1-0
62
4
100
AcDbText
10
0.000
20
0.000
30
0.0
40
146.250
1
（7.33）
41
1.000
50
0.000
100
AcDbText
0
TEXT
5
b10
100
AcDbEntity
8
1-0
62
6
100
AcDbText
10
50998.850
20
42119.790
30
0.0
40
585.000
1
菊ヶ島
41
1.083
50
0.000
100
AcDbText
0
TEXT
5
b11
100
AcDbEntity
8
1-0
62
2
100
AcDbText
10
64753.860
20
43988.570
30
0.0
40
390.000
1
9.07
41
1.050
50
270.000
100
AcDbText
0
TEXT
5
b12
100
AcDbEntity
8
1-0
62
2
100
AcDbText
10
44621.960
20
40693.710
30
0.0
40
390.000
1
（8.50）
41
1.050
50
270.000
100
AcDbText
0
TEXT
5
b13
100
AcDbEntity
8
1-0
62
2
100
AcDbText
10
64237.280
20
44413.980
30
0.0
40
390.000
1
（9.07）
41
1.050
50
270.000
100
AcDbText
0
TEXT
5
b14
100
AcDbEntity
8
1-0
62
7
100
AcDbText
10
0.000
20
0.000
30
0.0
40
195.000
1
No.2
41
1.000
50
0.000
100
AcDbText
0
TEXT
5
b15
100
AcDbEntity
8
1-0
62
2
100
AcDbText
10
15661.210
20
34690.050
30
0.0
40
390.000
1
8.34
41
1.050
50
270.000
100
AcDbText
0
TEXT
5
b16
100
AcDbEntity
8
1-0
62
2
100
AcDbText
10
5276.260
20
33239.410
30
0.0
40
390.000
1
（8.46）
41
1.050
50
270.000
100
AcDbText
0
TEXT
5
b17
100
AcDbEntity
8
1-0
62
2
100
AcDbText
10
15132.530
20
35110.840
30
0.0
40
390.000
1
（8.17）
41
1.050
50
270.000
100
AcDbText
0
TEXT
5
b18
100
AcDbEntity
8
1-0
62
2
100
AcDbText
10
5807.810
20
32850.120
30
0.0
40
390.000
1
8.46
41
1.050
50
270.000
100
AcDbText
0
TEXT
5
b19
100
AcDbEntity
8
1-0
62
2
100
AcDbText
10
73328.370
20
39573.510
30
0.0
40
390.000
1
T-83
41
1.050
50
270.000
100
AcDbText
0
TEXT
5
b1a
100
AcDbEntity
8
1-0
62
2
100
AcDbText
10
25473.880
20
36555.740
30
0.0
40
390.000
1
8.48
41
1.050
50
270.000
100
AcDbText
0
TEXT
5
b1b
100
AcDbEntity
8
1-0
62
2
100
AcDbText
10
34745.100
20
38854.330
30
0.0
40
390.000
1
（8.42）
41
1.050
50
270.000
100
AcDbText
0
TEXT
5
b1c
100
AcDbEntity
8
1-0
62
2
100
AcDbText
10
45123.890
20
40298.580
30
0.0
40
390.000
1
8.70
41
1.050
50
270.000
100
AcDbText
0
TEXT
5
b1d
100
AcDbEntity
8
1-0
62
2
100
AcDbText
10
24978.450
20
36981.810
30
0.0
40
390.000
1
（8.22）
41
1.050
50
270.000
100
AcDbText
0
TEXT
5
b1e
100
AcDbEntity
8
1-0
62
2
100
AcDbText
10
35302.190
20
38418.350
30
0.0
40
390.000
1
8.55
41
1.050
50
270.000
100
AcDbText
0
TEXT
5
b1f
100
AcDbEntity
8
1-0
62
7
100
AcDbText
10
0.000
20
0.000
30
0.0
40
195.000
1
No.3
41
1.000
50
0.000
100
AcDbText
0
TEXT
5
b20
100
AcDbEntity
8
1-0
62
2
100
AcDbText
10
74298.830
20
48894.620
30
0.0
40
390.000
1
T-82
41
1.050
50
270.000
100
AcDbText
0
TEXT
5
b21
100
AcDbEntity
8
1-0
62
2
100
AcDbText
10
70774.040
20
20387.420
30
0.0
40
390.000
1
T-85
41
1.050
50
270.000
100
AcDbText
0
TEXT
5
b22
100
AcDbEntity
8
1-0
62
6
100
AcDbText
10
39644.390
20
56360.990
30
0.0
40
585.000
1
8.5
41
1.083
50
299.995
100
AcDbText
0
TEXT
5
b23
100
AcDbEntity
8
1-0
62
2
100
AcDbText
10
69594.800
20
6847.360
30
0.0
40
390.000
1
T-1
41
1.050
50
270.000
100
AcDbText
0
TEXT
5
b24
100
AcDbEntity
8
1-0
62
2
100
AcDbText
10
59684.920
20
7604.370
30
0.0
40
390.000
1
T-2
41
1.050
50
270.000
100
AcDbText
0
TEXT
5
b25
100
AcDbEntity
8
1-0
62
2
100
AcDbText
10
39918.530
20
10515.410
30
0.0
40
390.000
1
T-4
41
1.050
50
270.000
100
AcDbText
0
TEXT
5
b26
100
AcDbEntity
8
1-0
62
2
100
AcDbText
10
21252.900
20
17396.440
30
0.0
40
390.000
1
T-6
41
1.050
50
270.000
100
AcDbText
0
TEXT
5
b27
100
AcDbEntity
8
1-0
62
2
100
AcDbText
10
30258.450
20
12655.910
30
0.0
40
390.000
1
T-5
41
1.050
50
270.000
100
AcDbText
0
TEXT
5
b28
100
AcDbEntity
8
1-0
62
2
100
AcDbText
10
70179.760
20
12404.460
30
0.0
40
390.000
1
T-86
41
1.050
50
270.000
100
AcDbText
0
TEXT
5
b29
100
AcDbEntity
8
1-0
62
2
100
AcDbText
10
49687.800
20
8381.160
30
0.0
40
390.000
1
T-3
41
1.050
50
270.000
100
AcDbText
0
TEXT
5
b2a
100
AcDbEntity
8
1-0
62
2
100
AcDbText
10
12841.750
20
21927.340
30
0.0
40
390.000
1
T-7
41
1.050
50
270.000
100
AcDbText
0
TEXT
5
b2b
100
AcDbEntity
8
1-0
62
2
100
AcDbText
10
73166.970
20
30529.030
30
0.0
40
390.000
1
T-84
41
1.050
50
270.000
100
AcDbText
0
TEXT
5
b2c
100
AcDbEntity
8
1-0
62
2
100
AcDbText
10
76157.080
20
58372.860
30
0.0
40
390.000
1
T-81
41
1.050
50
270.000
100
AcDbText
0
TEXT
5
b2d
100
AcDbEntity
8
1-0
62
2
100
AcDbText
10
3673.260
20
26295.090
30
0.0
40
390.000
1
T-8
41
1.050
50
270.000
100
AcDbText
0
TEXT
5
b2e
100
AcDbEntity
8
1-0
62
6
100
AcDbText
10
47851.640
20
56694.580
30
0.0
40
585.000
1
庭湖石
41
1.083
50
0.000
100
AcDbText
0
POINT
5
b2f
100
AcDbEntity
8
1-0
62
7
100
AcDbPoint
10
30447.480000000000
20
12947.570000000000
30
0.0
0
POINT
5
b30
100
AcDbEntity
8
1-0
62
7
100
AcDbPoint
10
21452.299999999999
20
17641.240000000002
30
0.0
0
POINT
5
b31
100
AcDbEntity
8
1-0
62
7
100
AcDbPoint
10
3848.970000000000
20
26627.689999999999
30
0.0
0
POINT
5
b32
100
AcDbEntity
8
1-0
62
7
100
AcDbPoint
10
74523.369999999995
20
49218.989999999998
30
0.0
0
POINT
5
b33
100
AcDbEntity
8
1-0
62
7
100
AcDbPoint
10
76346.669999999998
20
58635.019999999997
30
0.0
0
POINT
5
b34
100
AcDbEntity
8
1-0
62
7
100
AcDbPoint
10
13028.520000000000
20
22263.770000000000
30
0.0
0
POINT
5
b35
100
AcDbEntity
8
1-0
62
7
100
AcDbPoint
10
70393.210000000006
20
12733.950000000001
30
0.0
0
POINT
5
b36
100
AcDbEntity
8
1-0
62
7
100
AcDbPoint
10
73518.229999999996
20
39879.269999999997
30
0.0
0
POINT
5
b37
100
AcDbEntity
8
1-0
62
7
100
AcDbPoint
10
49874.800000000003
20
8666.080000000000
30
0.0
0
POINT
5
b38
100
AcDbEntity
8
1-0
62
7
100
AcDbPoint
10
70967.250000000000
20
20673.400000000001
30
0.0
0
POINT
5
b39
100
AcDbEntity
8
1-0
62
7
100
AcDbPoint
10
0.000000000000
20
0.000000000000
30
0.0
0
POINT
5
b3a
100
AcDbEntity
8
1-0
62
7
100
AcDbPoint
10
0.000000000000
20
0.000000000000
30
0.0
0
POINT
5
b3b
100
AcDbEntity
8
1-0
62
7
100
AcDbPoint
10
40117.389999999999
20
10814.270000000000
30
0.0
0
POINT
5
b3c
100
AcDbEntity
8
1-0
62
7
100
AcDbPoint
10
59848.040000000001
20
7934.850000000000
30
0.0
0
POINT
5
b3d
100
AcDbEntity
8
1-0
62
7
100
AcDbPoint
10
69821.119999999995
20
7203.610000000000
30
0.0
0
POINT
5
b3e
100
AcDbEntity
8
1-0
62
7
100
AcDbPoint
10
143.570000000000
20
117660.149999999990
30
0.0
0
POINT
5
b3f
100
AcDbEntity
8
1-0
62
7
100
AcDbPoint
10
0.000000000000
20
0.000000000000
30
0.0
0
POINT
5
b40
100
AcDbEntity
8
1-0
62
7
100
AcDbPoint
10
73350.889999999999
20
30822.740000000002
30
0.0
0
POINT
5
b41
100
AcDbEntity
8
1-0
62
7
100
AcDbPoint
10
5776.660000000000
20
33230.500000000000
30
0.0
0
POINT
5
b42
100
AcDbEntity
8
1-0
62
7
100
AcDbPoint
10
35254.260000000002
20
38822.940000000002
30
0.0
0
POINT
5
b43
100
AcDbEntity
8
1-0
62
7
100
AcDbPoint
10
45075.680000000000
20
40686.250000000000
30
0.0
0
POINT
5
b44
100
AcDbEntity
8
1-0
62
7
100
AcDbPoint
10
25426.180000000000
20
36958.379999999997
30
0.0
0
POINT
5
b45
100
AcDbEntity
8
1-0
62
7
100
AcDbPoint
10
0.000000000000
20
0.000000000000
30
0.0
0
POINT
5
b46
100
AcDbEntity
8
1-0
62
7
100
AcDbPoint
10
0.000000000000
20
0.000000000000
30
0.0
0
POINT
5
b47
100
AcDbEntity
8
1-0
62
7
100
AcDbPoint
10
64725.190000000002
20
44414.120000000003
30
0.0
0
POINT
5
b48
100
AcDbEntity
8
1-0
62
7
100
AcDbPoint
10
15601.430000000000
20
35094.419999999998
30
0.0
0
ENDSEC
0
EOF
