0
SECTION
2
HEADER
9
$ACADVER
1
AC1009
9
$EXTMIN
10
0.000
20
0.000
30
0.0
9
$EXTMAX
10
84100.000
20
59400.000
30
0.0
9
$LTSCALE
40
100.000
9
$PDMODE
70
0
9
$PDSIZE
40
40.0
0
ENDSEC
0
SECTION
2
TABLES
0
TABLE
2
LTYPE
70
9
0
LTYPE
5
1f4
2
CONTINUOUS
70
64
3
SolidLine
72
65
73
0
40
0.0
0
LTYPE
5
1f5
2
DOT
70
64
3
--  --  --  --  --  --  --  --     
72
65
73
2
40
3.000
49
1.000
49
-2.000
0
LTYPE
5
1f6
2
DASHED
70
64
3
----    ----    ----    ----    
72
65
73
2
40
5.000
49
2.000
49
-3.000
0
LTYPE
5
1f7
2
DASHED2
70
64
3
------  ------  ------  ------ 
72
65
73
2
40
10.000
49
4.000
49
-6.000
0
LTYPE
5
1f8
2
CENTER
70
64
3
----- - ----- - ----- - ----- - 
72
65
73
4
40
10.000
49
6.000
49
-3.000
49
1.000
49
-3.000
0
LTYPE
5
1f9
2
CENTER2
70
64
3
----------  --  ----------  -- 
72
65
73
4
40
17.000
49
12.000
49
-5.000
49
2.000
49
-5.000
0
LTYPE
5
1fa
2
PHANTOM
70
64
3
--- - - --- - - --- - - --- - -
72
65
73
6
40
13.000
49
5.000
49
-3.000
49
1.000
49
-3.000
49
1.000
49
-3.000
0
LTYPE
5
1fb
2
PHANTOM2
70
64
3
--------  -  -  --------  -  -
72
65
73
6
40
20.000
49
6.000
49
-5.000
49
2.000
49
-5.000
49
2.000
49
-5.000
0
LTYPE
5
1fc
2
HIDDEN
70
64
3
-   -   -   -   -   -   -   -   
72
65
73
2
40
3.000
49
0.500
49
-2.500
0
ENDTAB
0
TABLE
2
STYLE
70
1
0
STYLE
5
1fd
100
AcDbSymbolTableRecord
100
AcDbTextStyleTableRecord
2
STANDARD
70
0
40
0.0
41
1.0
50
0.0
71
0
42
0.0
3
txt.shx
4
extfont.shx
0
STYLE
5
1fe
100
AcDbSymbolTableRecord
100
AcDbTextStyleTableRecord
2
TATEGAKI
70
4
40
0.0
41
1.0
50
0.0
71
0
42
0.0
3
txt.shx
4
extfont.shx
0
STYLE
5
1ff
100
AcDbSymbolTableRecord
100
AcDbTextStyleTableRecord
2
DIM
70
0
40
0.0
41
0.75
50
0.0
71
0
42
0.0
3
txt.shx
4
extfont.shx
0
STYLE
5
200
100
AcDbSymbolTableRecord
100
AcDbTextStyleTableRecord
2
_Gothic_
70
0
40
0.0
41
1.0
50
0.0
71
0
42
0.0
3
MS Gothic
4

0
STYLE
5
201
100
AcDbSymbolTableRecord
100
AcDbTextStyleTableRecord
2
_TateGothic_
70
4
40
0.0
41
1.0
50
0.0
71
0
42
0.0
3
@MS Gothic
4

0
ENDTAB
0
TABLE
2
LAYER
5
403
100
AcDbSymbolTable
70
10
0
LAYER
5
404
100
AcDbSymbolTableRecord
100
AcDbLayerTableRecord
2
1-0
70
0
62
7
6
CONTINUOUS
0
LAYER
5
405
100
AcDbSymbolTableRecord
100
AcDbLayerTableRecord
2
2-0
70
0
62
-7
6
CONTINUOUS
0
ENDTAB
0
ENDSEC
0
SECTION
2
ENTITIES
0
LINE
5
406
100
AcDbEntity
8
1-0
6
CONTINUOUS
62
4
100
AcDbLine
10
11336.639999999999
20
10551.230000000000
30
0.0
11
10651.180000000000
21
10855.610000000001
31
0.0
0
LINE
5
407
100
AcDbEntity
8
1-0
6
CONTINUOUS
62
3
100
AcDbLine
10
34829.220000000001
20
8629.230000000000
30
0.0
11
35142.300000000003
21
8123.920000000000
31
0.0
0
LINE
5
408
100
AcDbEntity
8
1-0
6
DOT
62
4
100
AcDbLine
10
39953.550000000003
20
16935.810000000001
30
0.0
11
44010.379999999997
21
17932.330000000002
31
0.0
0
LINE
5
409
100
AcDbEntity
8
1-0
6
CONTINUOUS
62
4
100
AcDbLine
10
27127.320000000000
20
8639.320000000000
30
0.0
11
26877.380000000001
21
8645.410000000000
31
0.0
0
LINE
5
40a
100
AcDbEntity
8
1-0
6
CONTINUOUS
62
4
100
AcDbLine
10
36153.080000000002
20
8590.870000000001
30
0.0
11
35403.379999999997
21
8570.100000000000
31
0.0
0
LINE
5
40b
100
AcDbEntity
8
1-0
6
CONTINUOUS
62
4
100
AcDbLine
10
9349.700000000001
20
11347.620000000001
30
0.0
11
9166.660000000000
21
11027.459999999999
31
0.0
0
LINE
5
40c
100
AcDbEntity
8
1-0
6
DOT
62
4
100
AcDbLine
10
9793.850000000000
20
20652.180000000000
30
0.0
11
12302.549999999999
21
18993.830000000002
31
0.0
0
LINE
5
40d
100
AcDbEntity
8
1-0
6
DOT
62
4
100
AcDbLine
10
6058.750000000000
20
22874.410000000000
30
0.0
11
9793.850000000000
21
20652.180000000000
31
0.0
0
LINE
5
40e
100
AcDbEntity
8
1-0
6
DOT
62
4
100
AcDbLine
10
32974.029999999999
20
14652.610000000001
30
0.0
11
35580.900000000001
21
14548.389999999999
31
0.0
0
LINE
5
40f
100
AcDbEntity
8
1-0
6
DOT
62
4
100
AcDbLine
10
27780.639999999999
20
14860.219999999999
30
0.0
11
32974.029999999999
21
14652.610000000001
31
0.0
0
LINE
5
410
100
AcDbEntity
8
1-0
6
CONTINUOUS
62
4
100
AcDbLine
10
64491.480000000003
20
6855.980000000000
30
0.0
11
63690.760000000002
21
11294.180000000000
31
0.0
0
LINE
5
411
100
AcDbEntity
8
1-0
6
CONTINUOUS
62
3
100
AcDbLine
10
49993.889999999999
20
8085.090000000000
30
0.0
11
57312.230000000003
21
7392.420000000000
31
0.0
0
LINE
5
412
100
AcDbEntity
8
1-0
6
CONTINUOUS
62
4
100
AcDbLine
10
60000.089999999997
20
12150.990000000000
30
0.0
11
60545.739999999998
21
7837.580000000000
31
0.0
0
LINE
5
413
100
AcDbEntity
8
1-0
6
CONTINUOUS
62
4
100
AcDbLine
10
38421.510000000002
20
8578.680000000000
30
0.0
11
38171.599999999999
21
8571.770000000000
31
0.0
0
LINE
5
414
100
AcDbEntity
8
1-0
6
CONTINUOUS
62
4
100
AcDbLine
10
37167.599999999999
20
8543.950000000001
30
0.0
11
36917.690000000002
21
8537.040000000001
31
0.0
0
LINE
5
415
100
AcDbEntity
8
1-0
6
CONTINUOUS
62
4
100
AcDbLine
10
31969.730000000000
20
8521.280000000001
30
0.0
11
31719.790000000001
21
8527.370000000001
31
0.0
0
LINE
5
416
100
AcDbEntity
8
1-0
6
CONTINUOUS
62
4
100
AcDbLine
10
6895.200000000000
20
12885.809999999999
30
0.0
11
6595.550000000000
21
12533.910000000000
31
0.0
0
LINE
5
417
100
AcDbEntity
8
1-0
6
CONTINUOUS
62
4
100
AcDbLine
10
8424.500000000000
20
12040.670000000000
30
0.0
11
7773.410000000000
21
12412.910000000000
31
0.0
0
LINE
5
418
100
AcDbEntity
8
1-0
6
CONTINUOUS
62
4
100
AcDbLine
10
6990.390000000000
20
12804.770000000000
30
0.0
11
6800.050000000000
21
12966.850000000000
31
0.0
0
LINE
5
419
100
AcDbEntity
8
1-0
6
CONTINUOUS
62
4
100
AcDbLine
10
35905.269999999997
20
8508.980000000000
30
0.0
11
35655.370000000003
21
8502.070000000000
31
0.0
0
LINE
5
41a
100
AcDbEntity
8
1-0
6
CONTINUOUS
62
3
100
AcDbLine
10
35040.250000000000
20
12183.690000000001
30
0.0
11
36613.250000000000
21
19065.689999999999
31
0.0
0
LINE
5
41b
100
AcDbEntity
8
1-0
6
CONTINUOUS
62
4
100
AcDbLine
10
39925.199999999997
20
8695.360000000001
30
0.0
11
39175.500000000000
21
8674.600000000000
31
0.0
0
LINE
5
41c
100
AcDbEntity
8
1-0
6
CONTINUOUS
62
4
100
AcDbLine
10
23188.810000000001
20
8810.350000000000
30
0.0
11
22439.060000000001
21
8828.620000000001
31
0.0
0
LINE
5
41d
100
AcDbEntity
8
1-0
6
CONTINUOUS
62
4
100
AcDbLine
10
35780.300000000003
20
8505.510000000000
30
0.0
11
35788.599999999999
21
8205.629999999999
31
0.0
0
LINE
5
41e
100
AcDbEntity
8
1-0
6
DASHED2
62
3
100
AcDbLine
10
34829.220000000001
20
8629.230000000000
30
0.0
11
35635.040000000001
21
12154.700000000001
31
0.0
0
LINE
5
41f
100
AcDbEntity
8
1-0
6
CONTINUOUS
62
3
100
AcDbLine
10
2754.880000000000
20
23834.950000000001
30
0.0
11
10302.889999999999
21
16543.480000000000
31
0.0
0
LINE
5
420
100
AcDbEntity
8
1-0
6
DOT
62
4
100
AcDbLine
10
23263.580000000002
20
15233.850000000000
30
0.0
11
27780.639999999999
21
14860.219999999999
31
0.0
0
LINE
5
421
100
AcDbEntity
8
1-0
6
CONTINUOUS
62
4
100
AcDbLine
10
55656.709999999999
20
8051.120000000000
30
0.0
11
55357.940000000002
21
8078.330000000000
31
0.0
0
LINE
5
422
100
AcDbEntity
8
1-0
6
CONTINUOUS
62
4
100
AcDbLine
10
54405.339999999997
20
8064.670000000000
30
0.0
11
54378.110000000001
21
7765.910000000000
31
0.0
0
LINE
5
423
100
AcDbEntity
8
1-0
6
CONTINUOUS
62
4
100
AcDbLine
10
54563.779999999999
20
8150.660000000000
30
0.0
11
54265.010000000002
21
8177.860000000000
31
0.0
0
LINE
5
424
100
AcDbEntity
8
1-0
6
DOT
62
4
100
AcDbLine
10
20424.709999999999
20
41484.029999999999
30
0.0
11
22291.230000000000
21
40830.040000000001
31
0.0
0
LINE
5
425
100
AcDbEntity
8
1-0
6
CONTINUOUS
62
4
100
AcDbLine
10
51864.529999999999
20
8496.860000000001
30
0.0
11
51067.839999999997
21
8569.400000000000
31
0.0
0
LINE
5
426
100
AcDbEntity
8
1-0
6
CONTINUOUS
62
4
100
AcDbLine
10
55914.730000000003
20
8128.040000000000
30
0.0
11
55118.040000000001
21
8200.580000000000
31
0.0
0
LINE
5
427
100
AcDbEntity
8
1-0
6
CONTINUOUS
62
4
100
AcDbLine
10
54455.110000000001
20
8060.140000000000
30
0.0
11
54355.529999999999
21
8069.200000000000
31
0.0
0
LINE
5
428
100
AcDbEntity
8
1-0
6
DOT
62
4
100
AcDbLine
10
32255.709999999999
20
16973.099999999999
30
0.0
11
36130.680000000000
21
16954.340000000000
31
0.0
0
LINE
5
429
100
AcDbEntity
8
1-0
6
CONTINUOUS
62
4
100
AcDbLine
10
55498.260000000002
20
7965.140000000000
30
0.0
11
55471.040000000001
21
7666.370000000000
31
0.0
0
LINE
5
42a
100
AcDbEntity
8
1-0
6
DOT
62
4
100
AcDbLine
10
36734.370000000003
20
16951.410000000000
30
0.0
11
39953.550000000003
21
16935.810000000001
31
0.0
0
LINE
5
42b
100
AcDbEntity
8
1-0
6
CONTINUOUS
62
4
100
AcDbLine
10
55548.040000000001
20
7960.610000000000
30
0.0
11
55448.459999999999
21
7969.670000000000
31
0.0
0
LINE
5
42c
100
AcDbEntity
8
1-0
6
CONTINUOUS
62
3
100
AcDbLine
10
35142.300000000003
20
8123.920000000000
30
0.0
11
42381.010000000002
21
8187.090000000000
31
0.0
0
LINE
5
42d
100
AcDbEntity
8
1-0
6
CONTINUOUS
62
3
100
AcDbLine
10
4087.860000000000
20
15600.209999999999
30
0.0
11
5622.890000000000
21
14343.559999999999
31
0.0
0
LINE
5
42e
100
AcDbEntity
8
1-0
6
DOT
62
4
100
AcDbLine
10
25528.779999999999
20
56434.129999999997
30
0.0
11
26896.939999999999
21
57808.610000000001
31
0.0
0
LINE
5
42f
100
AcDbEntity
8
1-0
6
DOT
62
4
100
AcDbLine
10
22626.130000000001
20
54361.440000000002
30
0.0
11
20950.650000000001
21
43368.580000000002
31
0.0
0
LINE
5
430
100
AcDbEntity
8
1-0
6
DOT
62
4
100
AcDbLine
10
24416.570000000000
20
55023.760000000002
30
0.0
11
25528.779999999999
21
56434.129999999997
31
0.0
0
LINE
5
431
100
AcDbEntity
8
1-0
6
DOT
62
4
100
AcDbLine
10
12302.549999999999
20
18993.830000000002
30
0.0
11
15159.389999999999
21
17025.720000000001
31
0.0
0
LINE
5
432
100
AcDbEntity
8
1-0
6
DOT
62
4
100
AcDbLine
10
15159.389999999999
20
17025.720000000001
30
0.0
11
16123.200000000001
21
13656.299999999999
31
0.0
0
LINE
5
433
100
AcDbEntity
8
1-0
6
CONTINUOUS
62
3
100
AcDbLine
10
49150.760000000002
20
12152.660000000000
30
0.0
11
54046.870000000003
21
12151.910000000000
31
0.0
0
LINE
5
434
100
AcDbEntity
8
1-0
6
DOT
62
4
100
AcDbLine
10
23230.320000000000
20
54015.309999999998
30
0.0
11
24416.570000000000
21
55023.760000000002
31
0.0
0
LINE
5
435
100
AcDbEntity
8
1-0
6
CONTINUOUS
62
3
100
AcDbLine
10
49860.260000000002
20
8779.790000000001
30
0.0
11
56568.120000000003
21
8168.970000000000
31
0.0
0
LINE
5
436
100
AcDbEntity
8
1-0
6
CONTINUOUS
62
7
100
AcDbLine
10
64491.480000000003
20
6855.980000000000
30
0.0
11
64370.029999999999
21
6219.900000000000
31
0.0
0
LINE
5
437
100
AcDbEntity
8
1-0
6
DOT
62
4
100
AcDbLine
10
22291.230000000000
20
40830.040000000001
30
0.0
11
22118.930000000000
21
44248.949999999997
31
0.0
0
LINE
5
438
100
AcDbEntity
8
1-0
6
DOT
62
4
100
AcDbLine
10
22118.930000000000
20
44248.949999999997
30
0.0
11
23230.320000000000
21
54015.309999999998
31
0.0
0
LINE
5
439
100
AcDbEntity
8
1-0
6
DOT
62
4
100
AcDbLine
10
20950.650000000001
20
43368.580000000002
30
0.0
11
20424.709999999999
21
41484.029999999999
31
0.0
0
LINE
5
43a
100
AcDbEntity
8
1-0
6
CONTINUOUS
62
7
100
AcDbLine
10
60545.739999999998
20
7045.540000000000
30
0.0
11
60545.739999999998
21
7837.580000000000
31
0.0
0
LINE
5
43b
100
AcDbEntity
8
1-0
6
CONTINUOUS
62
4
100
AcDbLine
10
33475.519999999997
20
8484.580000000000
30
0.0
11
33468.230000000003
21
8184.670000000000
31
0.0
0
LINE
5
43c
100
AcDbEntity
8
1-0
6
CONTINUOUS
62
3
100
AcDbLine
10
36507.629999999997
20
17287.970000000001
30
0.0
11
36531.459999999999
21
17817.820000000000
31
0.0
0
LINE
5
43d
100
AcDbEntity
8
1-0
6
CONTINUOUS
62
3
100
AcDbLine
10
71391.320000000007
20
2089.990000000000
30
0.0
11
70994.839999999997
21
3864.610000000000
31
0.0
0
LINE
5
43e
100
AcDbEntity
8
1-0
6
CONTINUOUS
62
3
100
AcDbLine
10
76629.179999999993
20
-1420.420000000000
30
0.0
11
77525.910000000003
21
-2301.650000000000
31
0.0
0
LINE
5
43f
100
AcDbEntity
8
1-0
6
CONTINUOUS
62
3
100
AcDbLine
10
75721.399999999994
20
730.730000000000
30
0.0
11
76629.179999999993
21
-1420.420000000000
31
0.0
0
LINE
5
440
100
AcDbEntity
8
1-0
6
CONTINUOUS
62
3
100
AcDbLine
10
74422.580000000002
20
4021.540000000000
30
0.0
11
75721.399999999994
21
730.730000000000
31
0.0
0
LINE
5
441
100
AcDbEntity
8
1-0
6
CONTINUOUS
62
3
100
AcDbLine
10
77525.910000000003
20
-2301.650000000000
30
0.0
11
79537.869999999995
21
2.000000000000
31
0.0
0
LINE
5
442
100
AcDbEntity
8
1-0
6
CONTINUOUS
62
3
100
AcDbLine
10
71860.229999999996
20
7171.620000000000
30
0.0
11
73464.380000000005
21
10573.520000000000
31
0.0
0
LINE
5
443
100
AcDbEntity
8
1-0
6
CONTINUOUS
62
3
100
AcDbLine
10
71107.699999999997
20
4379.310000000000
30
0.0
11
72282.500000000000
21
1843.770000000000
31
0.0
0
LINE
5
444
100
AcDbEntity
8
1-0
6
CONTINUOUS
62
3
100
AcDbLine
10
14564.670000000000
20
8452.320000000000
30
0.0
11
33872.339999999997
21
8112.840000000000
31
0.0
0
LINE
5
445
100
AcDbEntity
8
1-0
6
CONTINUOUS
62
3
100
AcDbLine
10
35635.040000000001
20
12154.700000000001
30
0.0
11
23925.689999999999
21
12725.209999999999
31
0.0
0
LINE
5
446
100
AcDbEntity
8
1-0
6
CONTINUOUS
62
3
100
AcDbLine
10
66274.990000000005
20
6236.530000000000
30
0.0
11
70480.190000000002
21
4622.180000000000
31
0.0
0
LINE
5
447
100
AcDbEntity
8
1-0
6
CONTINUOUS
62
3
100
AcDbLine
10
9335.660000000000
20
10946.830000000000
30
0.0
11
14564.670000000000
21
8452.320000000000
31
0.0
0
LINE
5
448
100
AcDbEntity
8
1-0
6
CONTINUOUS
62
3
100
AcDbLine
10
72282.500000000000
20
1843.770000000000
30
0.0
11
72319.119999999995
21
-2347.060000000000
31
0.0
0
LINE
5
449
100
AcDbEntity
8
1-0
6
CONTINUOUS
62
3
100
AcDbLine
10
71107.699999999997
20
4379.310000000000
30
0.0
11
70646.179999999993
21
4596.990000000000
31
0.0
0
LINE
5
44a
100
AcDbEntity
8
1-0
6
DASHED2
62
3
100
AcDbLine
10
70646.179999999993
20
4596.990000000000
30
0.0
11
71860.229999999996
21
7171.620000000000
31
0.0
0
LINE
5
44b
100
AcDbEntity
8
1-0
6
CONTINUOUS
62
3
100
AcDbLine
10
73693.509999999995
20
10461.190000000001
30
0.0
11
72693.940000000002
21
8341.440000000001
31
0.0
0
LINE
5
44c
100
AcDbEntity
8
1-0
6
CONTINUOUS
62
3
100
AcDbLine
10
2942.170000000000
20
26564.900000000001
30
0.0
11
2910.400000000000
21
27197.509999999998
31
0.0
0
LINE
5
44d
100
AcDbEntity
8
1-0
6
CONTINUOUS
62
4
100
AcDbLine
10
3564.300000000000
20
16625.540000000001
30
0.0
11
3308.530000000000
21
17330.590000000000
31
0.0
0
LINE
5
44e
100
AcDbEntity
8
1-0
6
CONTINUOUS
62
3
100
AcDbLine
10
0.000000000000
20
0.000000000000
30
0.0
11
0.000000000000
21
0.000000000000
31
0.0
0
LINE
5
44f
100
AcDbEntity
8
1-0
6
CONTINUOUS
62
4
100
AcDbLine
10
-3617.680000000000
20
4553.980000000000
30
0.0
11
-3460.890000000000
21
4809.740000000000
31
0.0
0
LINE
5
450
100
AcDbEntity
8
1-0
6
CONTINUOUS
62
4
100
AcDbLine
10
76072.110000000001
20
182.650000000000
30
0.0
11
75931.330000000002
21
-141.660000000000
31
0.0
0
LINE
5
451
100
AcDbEntity
8
1-0
6
CONTINUOUS
62
4
100
AcDbLine
10
1100.040000000000
20
2282.920000000000
30
0.0
11
1132.840000000000
21
2429.300000000000
31
0.0
0
LINE
5
452
100
AcDbEntity
8
1-0
6
CONTINUOUS
62
4
100
AcDbLine
10
75472.440000000002
20
1021.050000000000
30
0.0
11
75796.779999999999
21
880.290000000000
31
0.0
0
LINE
5
453
100
AcDbEntity
8
1-0
6
CONTINUOUS
62
4
100
AcDbLine
10
72300.259999999995
20
-188.120000000000
30
0.0
11
72319.119999999995
21
-2347.060000000000
31
0.0
0
LINE
5
454
100
AcDbEntity
8
1-0
6
CONTINUOUS
62
4
100
AcDbLine
10
75839.570000000007
20
90.870000000000
30
0.0
11
76163.880000000005
21
-49.880000000000
31
0.0
0
LINE
5
455
100
AcDbEntity
8
1-0
6
CONTINUOUS
62
4
100
AcDbLine
10
76439.240000000005
20
-747.510000000000
30
0.0
11
76298.460000000006
21
-1071.830000000000
31
0.0
0
LINE
5
456
100
AcDbEntity
8
1-0
6
CONTINUOUS
62
3
100
AcDbLine
10
33872.339999999997
20
8112.840000000000
30
0.0
11
34224.879999999997
21
8616.350000000000
31
0.0
0
LINE
5
457
100
AcDbEntity
8
1-0
6
CONTINUOUS
62
3
100
AcDbLine
10
64370.029999999999
20
6219.900000000000
30
0.0
11
66023.160000000003
21
5980.340000000000
31
0.0
0
LINE
5
458
100
AcDbEntity
8
1-0
6
CONTINUOUS
62
3
100
AcDbLine
10
7542.200000000000
20
12709.219999999999
30
0.0
11
10605.620000000001
21
10957.910000000000
31
0.0
0
LINE
5
459
100
AcDbEntity
8
1-0
6
CONTINUOUS
62
3
100
AcDbLine
10
34829.220000000001
20
8629.230000000000
30
0.0
11
48216.150000000001
21
9000.049999999999
31
0.0
0
LINE
5
45a
100
AcDbEntity
8
1-0
6
CONTINUOUS
62
3
100
AcDbLine
10
57312.230000000003
20
7392.420000000000
30
0.0
11
59407.260000000002
21
7319.630000000000
31
0.0
0
LINE
5
45b
100
AcDbEntity
8
1-0
6
CONTINUOUS
62
3
100
AcDbLine
10
3307.070000000000
20
17752.459999999999
30
0.0
11
4087.860000000000
21
15600.209999999999
31
0.0
0
LINE
5
45c
100
AcDbEntity
8
1-0
6
CONTINUOUS
62
3
100
AcDbLine
10
66023.160000000003
20
5980.340000000000
30
0.0
11
70101.470000000001
21
4364.860000000000
31
0.0
0
LINE
5
45d
100
AcDbEntity
8
1-0
6
CONTINUOUS
62
3
100
AcDbLine
10
10605.620000000001
20
10957.910000000000
30
0.0
11
14813.080000000000
21
9089.530000000001
31
0.0
0
LINE
5
45e
100
AcDbEntity
8
1-0
6
CONTINUOUS
62
4
100
AcDbLine
10
37042.629999999997
20
8540.490000000000
30
0.0
11
37051.599999999999
21
8215.840000000000
31
0.0
0
LINE
5
45f
100
AcDbEntity
8
1-0
6
CONTINUOUS
62
4
100
AcDbLine
10
31844.759999999998
20
8524.330000000000
30
0.0
11
31837.459999999999
21
8224.420000000000
31
0.0
0
LINE
5
460
100
AcDbEntity
8
1-0
6
CONTINUOUS
62
4
100
AcDbLine
10
38669.309999999998
20
8660.570000000000
30
0.0
11
37919.620000000003
21
8639.810000000000
31
0.0
0
LINE
5
461
100
AcDbEntity
8
1-0
6
CONTINUOUS
62
3
100
AcDbLine
10
72315.949999999997
20
6941.630000000000
30
0.0
11
63690.760000000002
21
11294.180000000000
31
0.0
0
LINE
5
462
100
AcDbEntity
8
1-0
6
CONTINUOUS
62
4
100
AcDbLine
10
32221.459999999999
20
8590.170000000000
30
0.0
11
31471.709999999999
21
8608.430000000000
31
0.0
0
LINE
5
463
100
AcDbEntity
8
1-0
6
CONTINUOUS
62
4
100
AcDbLine
10
39552.430000000000
20
8610.010000000000
30
0.0
11
39563.110000000001
21
8224.190000000001
31
0.0
0
LINE
5
464
100
AcDbEntity
8
1-0
6
DASHED2
62
3
100
AcDbLine
10
34224.879999999997
20
8616.350000000000
30
0.0
11
35040.250000000000
21
12183.690000000001
31
0.0
0
LINE
5
465
100
AcDbEntity
8
1-0
6
CONTINUOUS
62
3
100
AcDbLine
10
34224.879999999997
20
8616.350000000000
30
0.0
11
14813.080000000000
21
9089.530000000001
31
0.0
0
LINE
5
466
100
AcDbEntity
8
1-0
6
CONTINUOUS
62
3
100
AcDbLine
10
1689.300000000000
20
19535.910000000000
30
0.0
11
3307.070000000000
21
17752.459999999999
31
0.0
0
LINE
5
467
100
AcDbEntity
8
1-0
6
CONTINUOUS
62
3
100
AcDbLine
10
2105.380000000000
20
24473.259999999998
30
0.0
11
2754.880000000000
21
23834.950000000001
31
0.0
0
LINE
5
468
100
AcDbEntity
8
1-0
6
CONTINUOUS
62
3
100
AcDbLine
10
35635.040000000001
20
12154.700000000001
30
0.0
11
49150.760000000002
21
12152.660000000000
31
0.0
0
LINE
5
469
100
AcDbEntity
8
1-0
6
CONTINUOUS
62
3
100
AcDbLine
10
10302.889999999999
20
16543.480000000000
30
0.0
11
14770.959999999999
21
13915.370000000001
31
0.0
0
LINE
5
46a
100
AcDbEntity
8
1-0
6
CONTINUOUS
62
3
100
AcDbLine
10
35635.040000000001
20
12154.700000000001
30
0.0
11
36736.269999999997
21
16972.590000000000
31
0.0
0
LINE
5
46b
100
AcDbEntity
8
1-0
6
CONTINUOUS
62
3
100
AcDbLine
10
49993.889999999999
20
8085.090000000000
30
0.0
11
48476.769999999997
21
8240.290000000001
31
0.0
0
LINE
5
46c
100
AcDbEntity
8
1-0
6
CONTINUOUS
62
3
100
AcDbLine
10
42381.010000000002
20
8187.090000000000
30
0.0
11
48476.769999999997
21
8240.290000000001
31
0.0
0
LINE
5
46d
100
AcDbEntity
8
1-0
6
CONTINUOUS
62
3
100
AcDbLine
10
34224.879999999997
20
8616.350000000000
30
0.0
11
34829.220000000001
21
8629.230000000000
31
0.0
0
LINE
5
46e
100
AcDbEntity
8
1-0
6
CONTINUOUS
62
3
100
AcDbLine
10
5622.890000000000
20
14343.559999999999
30
0.0
11
7542.200000000000
21
12709.219999999999
31
0.0
0
LINE
5
46f
100
AcDbEntity
8
1-0
6
CONTINUOUS
62
3
100
AcDbLine
10
48216.150000000001
20
9000.049999999999
30
0.0
11
49860.260000000002
21
8779.790000000001
31
0.0
0
LINE
5
470
100
AcDbEntity
8
1-0
6
CONTINUOUS
62
3
100
AcDbLine
10
60545.739999999998
20
7045.540000000000
30
0.0
11
59407.260000000002
21
7319.630000000000
31
0.0
0
LINE
5
471
100
AcDbEntity
8
1-0
6
CONTINUOUS
62
4
100
AcDbLine
10
54821.809999999998
20
8227.580000000000
30
0.0
11
54025.110000000001
21
8300.120000000001
31
0.0
0
LINE
5
472
100
AcDbEntity
8
1-0
6
DASHED2
62
3
100
AcDbLine
10
1001.190000000000
20
20018.419999999998
30
0.0
11
2105.380000000000
21
24473.259999999998
31
0.0
0
LINE
5
473
100
AcDbEntity
8
1-0
6
CONTINUOUS
62
4
100
AcDbLine
10
21072.450000000001
20
8786.920000000000
30
0.0
11
20822.509999999998
21
8793.010000000000
31
0.0
0
LINE
5
474
100
AcDbEntity
8
1-0
6
CONTINUOUS
62
4
100
AcDbLine
10
29064.599999999999
20
8592.090000000000
30
0.0
11
28814.669999999998
21
8598.180000000000
31
0.0
0
LINE
5
475
100
AcDbEntity
8
1-0
6
CONTINUOUS
62
3
100
AcDbLine
10
2548.430000000000
20
17364.860000000001
30
0.0
11
3192.290000000000
21
16354.420000000000
31
0.0
0
LINE
5
476
100
AcDbEntity
8
1-0
6
DASHED2
62
3
100
AcDbLine
10
1689.300000000000
20
19535.910000000000
30
0.0
11
2866.330000000000
21
24284.639999999999
31
0.0
0
LINE
5
477
100
AcDbEntity
8
1-0
6
CONTINUOUS
62
3
100
AcDbLine
10
3101.810000000000
20
29164.720000000001
30
0.0
11
2105.380000000000
21
24473.259999999998
31
0.0
0
LINE
5
478
100
AcDbEntity
8
1-0
6
CONTINUOUS
62
4
100
AcDbLine
10
22812.099999999999
20
8744.510000000000
30
0.0
11
22802.730000000000
21
8359.700000000001
31
0.0
0
LINE
5
479
100
AcDbEntity
8
1-0
6
CONTINUOUS
62
4
100
AcDbLine
10
19809.389999999999
20
8817.709999999999
30
0.0
11
19800.320000000000
21
8444.910000000000
31
0.0
0
LINE
5
47a
100
AcDbEntity
8
1-0
6
CONTINUOUS
62
4
100
AcDbLine
10
30734.279999999999
20
8626.420000000000
30
0.0
11
29984.529999999999
21
8644.690000000001
31
0.0
0
LINE
5
47b
100
AcDbEntity
8
1-0
6
CONTINUOUS
62
4
100
AcDbLine
10
21324.189999999999
20
8855.810000000000
30
0.0
11
20574.430000000000
21
8874.070000000000
31
0.0
0
LINE
5
47c
100
AcDbEntity
8
1-0
6
CONTINUOUS
62
4
100
AcDbLine
10
25333.889999999999
20
8758.060000000000
30
0.0
11
24584.139999999999
21
8776.330000000000
31
0.0
0
LINE
5
47d
100
AcDbEntity
8
1-0
6
CONTINUOUS
62
4
100
AcDbLine
10
37415.400000000001
20
8625.850000000000
30
0.0
11
36665.709999999999
21
8605.080000000000
31
0.0
0
LINE
5
47e
100
AcDbEntity
8
1-0
6
CONTINUOUS
62
4
100
AcDbLine
10
33852.230000000003
20
8550.420000000000
30
0.0
11
33102.480000000003
21
8568.690000000001
31
0.0
0
LINE
5
47f
100
AcDbEntity
8
1-0
6
CONTINUOUS
62
4
100
AcDbLine
10
67599.089999999997
20
5621.100000000000
30
0.0
11
67365.720000000001
21
5710.680000000000
31
0.0
0
LINE
5
480
100
AcDbEntity
8
1-0
6
CONTINUOUS
62
4
100
AcDbLine
10
41298.680000000000
20
8733.400000000000
30
0.0
11
40548.980000000003
21
8712.639999999999
31
0.0
0
LINE
5
481
100
AcDbEntity
8
1-0
6
CONTINUOUS
62
4
100
AcDbLine
10
70357.210000000006
20
4615.820000000000
30
0.0
11
69657.039999999994
21
4884.620000000000
31
0.0
0
LINE
5
482
100
AcDbEntity
8
1-0
6
CONTINUOUS
62
4
100
AcDbLine
10
67850.399999999994
20
5578.180000000000
30
0.0
11
67150.229999999996
21
5846.980000000000
31
0.0
0
LINE
5
483
100
AcDbEntity
8
1-0
6
CONTINUOUS
62
4
100
AcDbLine
10
41050.870000000003
20
8651.510000000000
30
0.0
11
40800.959999999999
21
8644.600000000000
31
0.0
0
LINE
5
484
100
AcDbEntity
8
1-0
6
CONTINUOUS
62
4
100
AcDbLine
10
65173.760000000002
20
6539.620000000000
30
0.0
11
64465.269999999997
21
6785.680000000000
31
0.0
0
LINE
5
485
100
AcDbEntity
8
1-0
6
CONTINUOUS
62
4
100
AcDbLine
10
25082.150000000001
20
8689.170000000000
30
0.0
11
24832.209999999999
21
8695.260000000000
31
0.0
0
LINE
5
486
100
AcDbEntity
8
1-0
6
CONTINUOUS
62
4
100
AcDbLine
10
27379.060000000001
20
8708.209999999999
30
0.0
11
26629.299999999999
21
8726.480000000000
31
0.0
0
LINE
5
487
100
AcDbEntity
8
1-0
6
CONTINUOUS
62
3
100
AcDbLine
10
2754.880000000000
20
23834.950000000001
30
0.0
11
3853.000000000000
21
29005.180000000000
31
0.0
0
LINE
5
488
100
AcDbEntity
8
1-0
6
CONTINUOUS
62
3
100
AcDbLine
10
3192.290000000000
20
16354.420000000000
30
0.0
11
3970.850000000000
21
14456.170000000000
31
0.0
0
LINE
5
489
100
AcDbEntity
8
1-0
6
CONTINUOUS
62
4
100
AcDbLine
10
28939.639999999999
20
8595.139999999999
30
0.0
11
28932.340000000000
21
8295.230000000000
31
0.0
0
LINE
5
48a
100
AcDbEntity
8
1-0
6
CONTINUOUS
62
4
100
AcDbLine
10
30482.540000000001
20
8557.530000000001
30
0.0
11
30232.610000000001
21
8563.620000000001
31
0.0
0
LINE
5
48b
100
AcDbEntity
8
1-0
6
CONTINUOUS
62
4
100
AcDbLine
10
24957.180000000000
20
8692.219999999999
30
0.0
11
24949.889999999999
21
8392.310000000000
31
0.0
0
LINE
5
48c
100
AcDbEntity
8
1-0
6
CONTINUOUS
62
4
100
AcDbLine
10
29316.349999999999
20
8660.990000000000
30
0.0
11
28566.590000000000
21
8679.250000000000
31
0.0
0
LINE
5
48d
100
AcDbEntity
8
1-0
6
CONTINUOUS
62
4
100
AcDbLine
10
33600.489999999998
20
8481.530000000001
30
0.0
11
33350.559999999998
21
8487.620000000001
31
0.0
0
LINE
5
48e
100
AcDbEntity
8
1-0
6
CONTINUOUS
62
3
100
AcDbLine
10
1689.300000000000
20
19535.910000000000
30
0.0
11
1001.190000000000
21
20018.419999999998
31
0.0
0
LINE
5
48f
100
AcDbEntity
8
1-0
6
CONTINUOUS
62
3
100
AcDbLine
10
1777.560000000000
20
18374.139999999999
30
0.0
11
2548.430000000000
21
17364.860000000001
31
0.0
0
LINE
5
490
100
AcDbEntity
8
1-0
6
CONTINUOUS
62
4
100
AcDbLine
10
14234.500000000000
20
9264.389999999999
30
0.0
11
13549.040000000001
21
9568.780000000001
31
0.0
0
LINE
5
491
100
AcDbEntity
8
1-0
6
CONTINUOUS
62
4
100
AcDbLine
10
6072.910000000000
20
13773.180000000000
30
0.0
11
5501.890000000000
21
14259.440000000001
31
0.0
0
LINE
5
492
100
AcDbEntity
8
1-0
6
CONTINUOUS
62
3
100
AcDbLine
10
19732.630000000001
20
12942.620000000001
30
0.0
11
23925.689999999999
21
12725.209999999999
31
0.0
0
LINE
5
493
100
AcDbEntity
8
1-0
6
CONTINUOUS
62
3
100
AcDbLine
10
1689.300000000000
20
19535.910000000000
30
0.0
11
1777.560000000000
21
18374.139999999999
31
0.0
0
LINE
5
494
100
AcDbEntity
8
1-0
6
CONTINUOUS
62
4
100
AcDbLine
10
66719.419999999998
20
5985.590000000000
30
0.0
11
66019.259999999995
21
6254.370000000000
31
0.0
0
LINE
5
495
100
AcDbEntity
8
1-0
6
CONTINUOUS
62
4
100
AcDbLine
10
8136.750000000000
20
12041.040000000001
30
0.0
11
7919.710000000000
21
12165.120000000001
31
0.0
0
LINE
5
496
100
AcDbEntity
8
1-0
6
CONTINUOUS
62
4
100
AcDbLine
10
5695.010000000000
20
13907.809999999999
30
0.0
11
5325.470000000000
21
13473.840000000000
31
0.0
0
LINE
5
497
100
AcDbEntity
8
1-0
6
CONTINUOUS
62
4
100
AcDbLine
10
15391.629999999999
20
8925.389999999999
30
0.0
11
15141.690000000001
21
8931.480000000000
31
0.0
0
LINE
5
498
100
AcDbEntity
8
1-0
6
CONTINUOUS
62
4
100
AcDbLine
10
66342.440000000002
20
6049.960000000000
30
0.0
11
66277.100000000006
21
5879.770000000000
31
0.0
0
LINE
5
499
100
AcDbEntity
8
1-0
6
CONTINUOUS
62
4
100
AcDbLine
10
58116.459999999999
20
7889.460000000000
30
0.0
11
58080.010000000002
21
7451.940000000000
31
0.0
0
LINE
5
49a
100
AcDbEntity
8
1-0
6
CONTINUOUS
62
4
100
AcDbLine
10
12260.190000000001
20
10059.059999999999
30
0.0
11
12102.450000000001
21
9703.740000000000
31
0.0
0
LINE
5
49b
100
AcDbEntity
8
1-0
6
CONTINUOUS
62
4
100
AcDbLine
10
4405.270000000000
20
14972.049999999999
30
0.0
11
4044.220000000000
21
14531.000000000000
31
0.0
0
LINE
5
49c
100
AcDbEntity
8
1-0
6
CONTINUOUS
62
4
100
AcDbLine
10
7273.100000000000
20
12751.180000000000
30
0.0
11
6702.090000000000
21
13237.430000000000
31
0.0
0
LINE
5
49d
100
AcDbEntity
8
1-0
6
CONTINUOUS
62
4
100
AcDbLine
10
22937.070000000000
20
8741.459999999999
30
0.0
11
22687.130000000001
21
8747.549999999999
31
0.0
0
LINE
5
49e
100
AcDbEntity
8
1-0
6
CONTINUOUS
62
4
100
AcDbLine
10
27002.349999999999
20
8642.370000000001
30
0.0
11
26995.060000000001
21
8342.459999999999
31
0.0
0
LINE
5
49f
100
AcDbEntity
8
1-0
6
CONTINUOUS
62
3
100
AcDbLine
10
3970.850000000000
20
14456.170000000000
30
0.0
11
6527.370000000000
21
12573.379999999999
31
0.0
0
LINE
5
4a0
100
AcDbEntity
8
1-0
6
CONTINUOUS
62
4
100
AcDbLine
10
4785.700000000000
20
14844.760000000000
30
0.0
11
4205.380000000000
21
15319.850000000000
31
0.0
0
LINE
5
4a1
100
AcDbEntity
8
1-0
6
CONTINUOUS
62
4
100
AcDbLine
10
15643.370000000001
20
8994.280000000001
30
0.0
11
14893.620000000001
21
9012.549999999999
31
0.0
0
LINE
5
4a2
100
AcDbEntity
8
1-0
6
CONTINUOUS
62
4
100
AcDbLine
10
13975.590000000000
20
9297.310000000000
30
0.0
11
13747.100000000000
21
9398.780000000001
31
0.0
0
LINE
5
4a3
100
AcDbEntity
8
1-0
6
CONTINUOUS
62
4
100
AcDbLine
10
42260.870000000003
20
8685.030000000001
30
0.0
11
42010.959999999999
21
8678.120000000001
31
0.0
0
LINE
5
4a4
100
AcDbEntity
8
1-0
6
CONTINUOUS
62
4
100
AcDbLine
10
8028.230000000000
20
12103.080000000000
30
0.0
11
7745.330000000000
21
11608.240000000000
31
0.0
0
LINE
5
4a5
100
AcDbEntity
8
1-0
6
CONTINUOUS
62
4
100
AcDbLine
10
64912.989999999998
20
6550.790000000000
30
0.0
11
64676.820000000000
21
6632.820000000000
31
0.0
0
LINE
5
4a6
100
AcDbEntity
8
1-0
6
CONTINUOUS
62
4
100
AcDbLine
10
16739.650000000001
20
8892.520000000000
30
0.0
11
16729.580000000002
21
8477.850000000000
31
0.0
0
LINE
5
4a7
100
AcDbEntity
8
1-0
6
CONTINUOUS
62
4
100
AcDbLine
10
10963.469999999999
20
10634.879999999999
30
0.0
11
10841.740000000000
21
10360.690000000001
31
0.0
0
LINE
5
4a8
100
AcDbEntity
8
1-0
6
CONTINUOUS
62
4
100
AcDbLine
10
48257.199999999997
20
8843.209999999999
30
0.0
11
48009.430000000000
21
8876.410000000000
31
0.0
0
LINE
5
4a9
100
AcDbEntity
8
1-0
6
CONTINUOUS
62
4
100
AcDbLine
10
58496.400000000001
20
7933.070000000000
30
0.0
11
57748.959999999999
21
7995.320000000000
31
0.0
0
LINE
5
4aa
100
AcDbEntity
8
1-0
6
CONTINUOUS
62
4
100
AcDbLine
10
9458.219999999999
20
11285.570000000000
30
0.0
11
9241.180000000000
21
11409.660000000000
31
0.0
0
LINE
5
4ab
100
AcDbEntity
8
1-0
6
CONTINUOUS
62
4
100
AcDbLine
10
43910.580000000002
20
8805.760000000000
30
0.0
11
43160.889999999999
21
8784.990000000000
31
0.0
0
LINE
5
4ac
100
AcDbEntity
8
1-0
6
CONTINUOUS
62
4
100
AcDbLine
10
47219.019999999997
20
8822.360000000001
30
0.0
11
46969.120000000003
21
8815.450000000001
31
0.0
0
LINE
5
4ad
100
AcDbEntity
8
1-0
6
CONTINUOUS
62
4
100
AcDbLine
10
58241.029999999999
20
7879.080000000000
30
0.0
11
57991.879999999997
21
7899.830000000000
31
0.0
0
LINE
5
4ae
100
AcDbEntity
8
1-0
6
CONTINUOUS
62
4
100
AcDbLine
10
3345.090000000000
20
16811.959999999999
30
0.0
11
3259.830000000000
21
17046.970000000001
31
0.0
0
LINE
5
4af
100
AcDbEntity
8
1-0
6
CONTINUOUS
62
4
100
AcDbLine
10
20186.099999999999
20
8883.549999999999
30
0.0
11
19436.340000000000
21
8901.820000000000
31
0.0
0
LINE
5
4b0
100
AcDbEntity
8
1-0
6
CONTINUOUS
62
4
100
AcDbLine
10
64794.889999999999
20
6591.800000000000
30
0.0
11
64671.570000000000
21
6236.700000000000
31
0.0
0
LINE
5
4b1
100
AcDbEntity
8
1-0
6
CONTINUOUS
62
4
100
AcDbLine
10
71915.679999999993
20
2397.620000000000
30
0.0
11
71476.929999999993
21
2194.330000000000
31
0.0
0
LINE
5
4b2
100
AcDbEntity
8
1-0
6
CONTINUOUS
62
4
100
AcDbLine
10
18671.660000000000
20
8920.459999999999
30
0.0
11
17921.900000000001
21
8938.730000000000
31
0.0
0
LINE
5
4b3
100
AcDbEntity
8
1-0
6
CONTINUOUS
62
4
100
AcDbLine
10
16864.619999999999
20
8889.469999999999
30
0.0
11
16614.680000000000
21
8895.560000000000
31
0.0
0
LINE
5
4b4
100
AcDbEntity
8
1-0
6
CONTINUOUS
62
4
100
AcDbLine
10
12374.450000000001
20
10008.320000000000
30
0.0
11
12145.959999999999
21
10109.790000000001
31
0.0
0
LINE
5
4b5
100
AcDbEntity
8
1-0
6
CONTINUOUS
62
4
100
AcDbLine
10
51606.510000000002
20
8419.940000000001
30
0.0
11
51307.739999999998
21
8447.150000000000
31
0.0
0
LINE
5
4b6
100
AcDbEntity
8
1-0
6
CONTINUOUS
62
4
100
AcDbLine
10
51497.830000000002
20
8329.430000000000
30
0.0
11
51398.250000000000
21
8338.490000000000
31
0.0
0
LINE
5
4b7
100
AcDbEntity
8
1-0
6
CONTINUOUS
62
4
100
AcDbLine
10
52458.860000000001
20
8241.920000000000
30
0.0
11
52359.279999999999
21
8250.980000000000
31
0.0
0
LINE
5
4b8
100
AcDbEntity
8
1-0
6
CONTINUOUS
62
4
100
AcDbLine
10
52825.559999999998
20
8409.350000000000
30
0.0
11
52028.870000000003
21
8481.889999999999
31
0.0
0
LINE
5
4b9
100
AcDbEntity
8
1-0
6
CONTINUOUS
62
4
100
AcDbLine
10
52567.529999999999
20
8332.430000000000
30
0.0
11
52268.769999999997
21
8359.639999999999
31
0.0
0
LINE
5
4ba
100
AcDbEntity
8
1-0
6
CONTINUOUS
62
4
100
AcDbLine
10
51448.059999999998
20
8333.959999999999
30
0.0
11
51420.830000000002
21
8035.190000000000
31
0.0
0
LINE
5
4bb
100
AcDbEntity
8
1-0
6
CONTINUOUS
62
4
100
AcDbLine
10
53480.900000000001
20
8148.860000000000
30
0.0
11
53381.320000000000
21
8157.920000000000
31
0.0
0
LINE
5
4bc
100
AcDbEntity
8
1-0
6
CONTINUOUS
62
4
100
AcDbLine
10
53847.599999999999
20
8316.290000000001
30
0.0
11
53050.900000000001
21
8388.830000000000
31
0.0
0
LINE
5
4bd
100
AcDbEntity
8
1-0
6
CONTINUOUS
62
4
100
AcDbLine
10
30357.570000000000
20
8560.580000000000
30
0.0
11
30350.279999999999
21
8260.670000000000
31
0.0
0
LINE
5
4be
100
AcDbEntity
8
1-0
6
CONTINUOUS
62
4
100
AcDbLine
10
42135.889999999999
20
8681.570000000000
30
0.0
11
42146.669999999998
21
8292.180000000000
31
0.0
0
LINE
5
4bf
100
AcDbEntity
8
1-0
6
CONTINUOUS
62
4
100
AcDbLine
10
53431.120000000003
20
8153.390000000000
30
0.0
11
53403.900000000001
21
7854.620000000000
31
0.0
0
LINE
5
4c0
100
AcDbEntity
8
1-0
6
CONTINUOUS
62
4
100
AcDbLine
10
53589.570000000000
20
8239.370000000001
30
0.0
11
53290.800000000003
21
8266.580000000000
31
0.0
0
LINE
5
4c1
100
AcDbEntity
8
1-0
6
CONTINUOUS
62
4
100
AcDbLine
10
52409.089999999997
20
8246.450000000001
30
0.0
11
52381.870000000003
21
7947.680000000000
31
0.0
0
LINE
5
4c2
100
AcDbEntity
8
1-0
6
CONTINUOUS
62
4
100
AcDbLine
10
66459.130000000005
20
6005.160000000000
30
0.0
11
66225.740000000005
21
6094.760000000000
31
0.0
0
LINE
5
4c3
100
AcDbEntity
8
1-0
6
CONTINUOUS
62
4
100
AcDbLine
10
68899.839999999997
20
5121.760000000000
30
0.0
11
68828.149999999994
21
4935.030000000000
31
0.0
0
LINE
5
4c4
100
AcDbEntity
8
1-0
6
CONTINUOUS
62
4
100
AcDbLine
10
69267.820000000007
20
5034.030000000000
30
0.0
11
68567.660000000003
21
5302.830000000000
31
0.0
0
LINE
5
4c5
100
AcDbEntity
8
1-0
6
CONTINUOUS
62
4
100
AcDbLine
10
71402.250000000000
20
3505.760000000000
30
0.0
11
71154.110000000001
21
3390.780000000000
31
0.0
0
LINE
5
4c6
100
AcDbEntity
8
1-0
6
CONTINUOUS
62
4
100
AcDbLine
10
39677.400000000001
20
8613.469999999999
30
0.0
11
39427.489999999998
21
8606.560000000000
31
0.0
0
LINE
5
4c7
100
AcDbEntity
8
1-0
6
CONTINUOUS
62
4
100
AcDbLine
10
49428.589999999997
20
8686.290000000001
30
0.0
11
49180.820000000000
21
8719.490000000000
31
0.0
0
LINE
5
4c8
100
AcDbEntity
8
1-0
6
CONTINUOUS
62
4
100
AcDbLine
10
69016.509999999995
20
5076.960000000000
30
0.0
11
68783.139999999999
21
5166.540000000000
31
0.0
0
LINE
5
4c9
100
AcDbEntity
8
1-0
6
CONTINUOUS
62
4
100
AcDbLine
10
72177.580000000002
20
-456.450000000000
30
0.0
11
72171.050000000003
21
293.540000000000
31
0.0
0
LINE
5
4ca
100
AcDbEntity
8
1-0
6
CONTINUOUS
62
4
100
AcDbLine
10
15266.660000000000
20
8928.440000000001
30
0.0
11
15256.959999999999
21
8529.270000000000
31
0.0
0
LINE
5
4cb
100
AcDbEntity
8
1-0
6
CONTINUOUS
62
4
100
AcDbLine
10
12633.360000000001
20
9975.410000000000
30
0.0
11
11947.910000000000
21
10279.790000000001
31
0.0
0
LINE
5
4cc
100
AcDbEntity
8
1-0
6
CONTINUOUS
62
4
100
AcDbLine
10
11077.730000000000
20
10584.139999999999
30
0.0
11
10849.240000000000
21
10685.610000000001
31
0.0
0
LINE
5
4cd
100
AcDbEntity
8
1-0
6
CONTINUOUS
62
4
100
AcDbLine
10
38296.540000000001
20
8575.219999999999
30
0.0
11
38306.489999999998
21
8216.350000000000
31
0.0
0
LINE
5
4ce
100
AcDbEntity
8
1-0
6
CONTINUOUS
62
4
100
AcDbLine
10
18419.919999999998
20
8851.570000000000
30
0.0
11
18169.980000000000
21
8857.660000000000
31
0.0
0
LINE
5
4cf
100
AcDbEntity
8
1-0
6
CONTINUOUS
62
4
100
AcDbLine
10
18294.950000000001
20
8854.620000000001
30
0.0
11
18285.189999999999
21
8453.150000000000
31
0.0
0
LINE
5
4d0
100
AcDbEntity
8
1-0
6
CONTINUOUS
62
4
100
AcDbLine
10
17116.360000000001
20
8958.360000000001
30
0.0
11
16366.610000000001
21
8976.629999999999
31
0.0
0
LINE
5
4d1
100
AcDbEntity
8
1-0
6
CONTINUOUS
62
4
100
AcDbLine
10
20947.480000000000
20
8789.969999999999
30
0.0
11
20937.830000000002
21
8393.820000000000
31
0.0
0
LINE
5
4d2
100
AcDbEntity
8
1-0
6
CONTINUOUS
62
4
100
AcDbLine
10
49304.690000000002
20
8702.889999999999
30
0.0
11
49246.089999999997
21
8265.340000000000
31
0.0
0
LINE
5
4d3
100
AcDbEntity
8
1-0
6
CONTINUOUS
62
4
100
AcDbLine
10
59905.180000000000
20
7815.690000000000
30
0.0
11
59157.739999999998
21
7877.950000000000
31
0.0
0
LINE
5
4d4
100
AcDbEntity
8
1-0
6
CONTINUOUS
62
4
100
AcDbLine
10
59649.809999999998
20
7761.710000000000
30
0.0
11
59400.660000000003
21
7782.460000000000
31
0.0
0
LINE
5
4d5
100
AcDbEntity
8
1-0
6
CONTINUOUS
62
4
100
AcDbLine
10
9745.969999999999
20
11285.209999999999
30
0.0
11
9094.879999999999
21
11657.450000000001
31
0.0
0
LINE
5
4d6
100
AcDbEntity
8
1-0
6
CONTINUOUS
62
4
100
AcDbLine
10
19934.360000000001
20
8814.660000000000
30
0.0
11
19684.419999999998
21
8820.750000000000
31
0.0
0
LINE
5
4d7
100
AcDbEntity
8
1-0
6
CONTINUOUS
62
4
100
AcDbLine
10
49686.339999999997
20
8727.420000000000
30
0.0
11
48942.959999999999
21
8827.020000000000
31
0.0
0
LINE
5
4d8
100
AcDbEntity
8
1-0
6
CONTINUOUS
62
4
100
AcDbLine
10
4502.010000000000
20
14892.860000000001
30
0.0
11
4308.560000000000
21
15051.230000000000
31
0.0
0
LINE
5
4d9
100
AcDbEntity
8
1-0
6
CONTINUOUS
62
4
100
AcDbLine
10
13861.330000000000
20
9348.040000000001
30
0.0
11
13681.370000000001
21
8942.690000000001
31
0.0
0
LINE
5
4da
100
AcDbEntity
8
1-0
6
CONTINUOUS
62
4
100
AcDbLine
10
71968.229999999996
20
2284.200000000000
30
0.0
11
71863.130000000005
21
2511.020000000000
31
0.0
0
LINE
5
4db
100
AcDbEntity
8
1-0
6
CONTINUOUS
62
4
100
AcDbLine
10
3302.460000000000
20
16929.459999999999
30
0.0
11
2915.340000000000
21
16789.040000000001
31
0.0
0
LINE
5
4dc
100
AcDbEntity
8
1-0
6
CONTINUOUS
62
4
100
AcDbLine
10
42508.660000000003
20
8766.930000000000
30
0.0
11
41758.970000000001
21
8746.160000000000
31
0.0
0
LINE
5
4dd
100
AcDbEntity
8
1-0
6
CONTINUOUS
62
3
100
AcDbLine
10
70480.190000000002
20
4622.180000000000
30
0.0
11
70646.179999999993
21
4596.990000000000
31
0.0
0
LINE
5
4de
100
AcDbEntity
8
1-0
6
CONTINUOUS
62
3
100
AcDbLine
10
0.000000000000
20
0.000000000000
30
0.0
11
0.000000000000
21
0.000000000000
31
0.0
0
LINE
5
4df
100
AcDbEntity
8
1-0
6
CONTINUOUS
62
3
100
AcDbLine
10
7417.880000000000
20
-2151.410000000000
30
0.0
11
6592.920000000000
21
626.580000000000
31
0.0
0
LINE
5
4e0
100
AcDbEntity
8
1-0
6
CONTINUOUS
62
4
100
AcDbLine
10
0.000000000000
20
0.000000000000
30
0.0
11
0.000000000000
21
0.000000000000
31
0.0
0
LINE
5
4e1
100
AcDbEntity
8
1-0
6
CONTINUOUS
62
3
100
AcDbLine
10
2811.740000000000
20
1745.530000000000
30
0.0
11
-1005.880000000000
21
2601.250000000000
31
0.0
0
LINE
5
4e2
100
AcDbEntity
8
1-0
6
CONTINUOUS
62
4
100
AcDbLine
10
0.000000000000
20
0.000000000000
30
0.0
11
0.000000000000
21
0.000000000000
31
0.0
0
LINE
5
4e3
100
AcDbEntity
8
1-0
6
CONTINUOUS
62
3
100
AcDbLine
10
6592.920000000000
20
626.580000000000
30
0.0
11
2811.740000000000
21
1745.530000000000
31
0.0
0
LINE
5
4e4
100
AcDbEntity
8
1-0
6
CONTINUOUS
62
4
100
AcDbLine
10
0.000000000000
20
0.000000000000
30
0.0
11
0.000000000000
21
0.000000000000
31
0.0
0
LINE
5
4e5
100
AcDbEntity
8
1-0
6
CONTINUOUS
62
4
100
AcDbLine
10
0.000000000000
20
0.000000000000
30
0.0
11
0.000000000000
21
0.000000000000
31
0.0
0
LINE
5
4e6
100
AcDbEntity
8
1-0
6
CONTINUOUS
62
3
100
AcDbLine
10
-1005.880000000000
20
2601.250000000000
30
0.0
11
-5091.900000000000
21
5105.700000000000
31
0.0
0
LINE
5
4e7
100
AcDbEntity
8
1-0
6
CONTINUOUS
62
4
100
AcDbLine
10
-439.500000000000
20
19927.480000000000
30
0.0
11
-586.850000000000
21
19542.580000000002
31
0.0
0
LINE
5
4e8
100
AcDbEntity
8
1-0
6
CONTINUOUS
62
4
100
AcDbLine
10
0.000000000000
20
0.000000000000
30
0.0
11
0.000000000000
21
0.000000000000
31
0.0
0
LINE
5
4e9
100
AcDbEntity
8
1-0
6
CONTINUOUS
62
4
100
AcDbLine
10
0.000000000000
20
0.000000000000
30
0.0
11
0.000000000000
21
0.000000000000
31
0.0
0
LINE
5
4ea
100
AcDbEntity
8
1-0
6
CONTINUOUS
62
4
100
AcDbLine
10
0.000000000000
20
0.000000000000
30
0.0
11
0.000000000000
21
0.000000000000
31
0.0
0
LINE
5
4eb
100
AcDbEntity
8
1-0
6
CONTINUOUS
62
4
100
AcDbLine
10
3781.540000000000
20
49503.410000000003
30
0.0
11
4998.850000000000
21
49376.709999999999
31
0.0
0
LINE
5
4ec
100
AcDbEntity
8
1-0
6
CONTINUOUS
62
3
100
AcDbLine
10
5215.140000000000
20
54879.410000000003
30
0.0
11
5035.940000000000
21
54521.010000000002
31
0.0
0
LINE
5
4ed
100
AcDbEntity
8
1-0
6
CONTINUOUS
62
3
100
AcDbLine
10
5125.540000000000
20
53087.410000000003
30
0.0
11
5252.240000000000
21
49630.110000000001
31
0.0
0
LINE
5
4ee
100
AcDbEntity
8
1-0
6
CONTINUOUS
62
3
100
AcDbLine
10
5125.540000000000
20
47711.410000000003
30
0.0
11
4998.850000000000
21
49376.709999999999
31
0.0
0
LINE
5
4ef
100
AcDbEntity
8
1-0
6
CONTINUOUS
62
3
100
AcDbLine
10
4946.340000000000
20
56850.610000000001
30
0.0
11
5304.740000000000
21
56313.000000000000
31
0.0
0
LINE
5
4f0
100
AcDbEntity
8
1-0
6
CONTINUOUS
62
3
100
AcDbLine
10
5632.320000000000
20
48996.629999999997
30
0.0
11
5241.130000000000
21
49231.199999999997
31
0.0
0
LINE
5
4f1
100
AcDbEntity
8
1-0
6
CONTINUOUS
62
4
100
AcDbLine
10
5125.540000000000
20
53087.410000000003
30
0.0
11
4998.850000000000
21
49630.110000000001
31
0.0
0
LINE
5
4f2
100
AcDbEntity
8
1-0
6
CONTINUOUS
62
3
100
AcDbLine
10
5125.540000000000
20
55775.400000000001
30
0.0
11
5215.140000000000
21
54879.410000000003
31
0.0
0
LINE
5
4f3
100
AcDbEntity
8
1-0
6
CONTINUOUS
62
4
100
AcDbLine
10
4618.760000000000
20
50010.180000000000
30
0.0
11
4855.660000000000
21
49615.230000000003
31
0.0
0
LINE
5
4f4
100
AcDbEntity
8
1-0
6
CONTINUOUS
62
4
100
AcDbLine
10
5035.930000000000
20
54879.410000000003
30
0.0
11
5215.140000000000
21
54521.010000000002
31
0.0
0
LINE
5
4f5
100
AcDbEntity
8
1-0
6
CONTINUOUS
62
4
100
AcDbLine
10
5632.320000000000
20
48996.629999999997
30
0.0
11
5395.420000000000
21
49391.589999999997
31
0.0
0
LINE
5
4f6
100
AcDbEntity
8
1-0
6
CONTINUOUS
62
3
100
AcDbLine
10
3781.540000000000
20
49503.410000000003
30
0.0
11
4998.850000000000
21
49630.110000000001
31
0.0
0
LINE
5
4f7
100
AcDbEntity
8
1-0
6
CONTINUOUS
62
4
100
AcDbLine
10
3333.550000000000
20
49503.410000000003
30
0.0
11
6917.540000000000
21
49503.410000000003
31
0.0
0
LINE
5
4f8
100
AcDbEntity
8
1-0
6
CONTINUOUS
62
4
100
AcDbLine
10
450.640000000000
20
20015.040000000001
30
0.0
11
-1043.630000000000
21
20587.070000000000
31
0.0
0
LINE
5
4f9
100
AcDbEntity
8
1-0
6
CONTINUOUS
62
4
100
AcDbLine
10
-512.830000000000
20
2798.180000000000
30
0.0
11
-447.220000000000
21
3090.920000000000
31
0.0
0
LINE
5
4fa
100
AcDbEntity
8
1-0
6
CONTINUOUS
62
3
100
AcDbLine
10
0.000000000000
20
0.000000000000
30
0.0
11
0.000000000000
21
0.000000000000
31
0.0
0
LINE
5
4fb
100
AcDbEntity
8
1-0
6
CONTINUOUS
62
4
100
AcDbLine
10
-5675.170000000000
20
5646.370000000000
30
0.0
11
-5176.500000000000
21
5312.700000000000
31
0.0
0
LINE
5
4fc
100
AcDbEntity
8
1-0
6
CONTINUOUS
62
4
100
AcDbLine
10
-549.420000000000
20
2806.370000000000
30
0.0
11
-476.230000000000
21
2789.970000000000
31
0.0
0
LINE
5
4fd
100
AcDbEntity
8
1-0
6
CONTINUOUS
62
3
100
AcDbLine
10
-2566.830000000000
20
21384.330000000002
30
0.0
11
1001.190000000000
21
20018.419999999998
31
0.0
0
LINE
5
4fe
100
AcDbEntity
8
1-0
6
CONTINUOUS
62
4
100
AcDbLine
10
1063.450000000000
20
2291.130000000000
30
0.0
11
1136.630000000000
21
2274.720000000000
31
0.0
0
LINE
5
4ff
100
AcDbEntity
8
1-0
6
CONTINUOUS
62
4
100
AcDbLine
10
785.430000000000
20
2250.970000000000
30
0.0
11
1370.910000000000
21
2119.740000000000
31
0.0
0
LINE
5
500
100
AcDbEntity
8
1-0
6
CONTINUOUS
62
4
100
AcDbLine
10
-3765.850000000000
20
4527.500000000000
30
0.0
11
-3574.010000000000
21
4409.920000000000
31
0.0
0
LINE
5
501
100
AcDbEntity
8
1-0
6
CONTINUOUS
62
4
100
AcDbLine
10
-849.300000000000
20
2668.630000000000
30
0.0
11
-263.840000000000
21
2537.400000000000
31
0.0
0
LINE
5
502
100
AcDbEntity
8
1-0
6
CONTINUOUS
62
4
100
AcDbLine
10
-3388.660000000000
20
20930.410000000000
30
0.0
11
-3537.930000000000
21
20148.639999999999
31
0.0
0
LINE
5
503
100
AcDbEntity
8
1-0
6
CONTINUOUS
62
4
100
AcDbLine
10
979.340000000000
20
2258.750000000000
30
0.0
11
1198.880000000000
21
2209.540000000000
31
0.0
0
LINE
5
504
100
AcDbEntity
8
1-0
6
CONTINUOUS
62
4
100
AcDbLine
10
-1984.300000000000
20
3552.820000000000
30
0.0
11
-1920.350000000000
21
3513.620000000000
31
0.0
0
LINE
5
505
100
AcDbEntity
8
1-0
6
CONTINUOUS
62
4
100
AcDbLine
10
-2100.510000000000
20
3506.750000000000
30
0.0
11
-1908.660000000000
21
3389.170000000000
31
0.0
0
LINE
5
506
100
AcDbEntity
8
1-0
6
CONTINUOUS
62
4
100
AcDbLine
10
0.000000000000
20
0.000000000000
30
0.0
11
0.000000000000
21
0.000000000000
31
0.0
0
LINE
5
507
100
AcDbEntity
8
1-0
6
CONTINUOUS
62
4
100
AcDbLine
10
0.000000000000
20
0.000000000000
30
0.0
11
0.000000000000
21
0.000000000000
31
0.0
0
LINE
5
508
100
AcDbEntity
8
1-0
6
CONTINUOUS
62
3
100
AcDbLine
10
0.000000000000
20
0.000000000000
30
0.0
11
0.000000000000
21
0.000000000000
31
0.0
0
LINE
5
509
100
AcDbEntity
8
1-0
6
CONTINUOUS
62
4
100
AcDbLine
10
0.000000000000
20
0.000000000000
30
0.0
11
0.000000000000
21
0.000000000000
31
0.0
0
LINE
5
50a
100
AcDbEntity
8
1-0
6
CONTINUOUS
62
4
100
AcDbLine
10
-5317.980000000000
20
5708.170000000000
30
0.0
11
-5255.630000000000
21
5666.460000000000
31
0.0
0
LINE
5
50b
100
AcDbEntity
8
1-0
6
CONTINUOUS
62
4
100
AcDbLine
10
-87.820000000000
20
20007.009999999998
30
0.0
11
-648.180000000000
21
20221.529999999999
31
0.0
0
LINE
5
50c
100
AcDbEntity
8
1-0
6
CONTINUOUS
62
4
100
AcDbLine
10
0.000000000000
20
0.000000000000
30
0.0
11
0.000000000000
21
0.000000000000
31
0.0
0
LINE
5
50d
100
AcDbEntity
8
1-0
6
CONTINUOUS
62
3
100
AcDbLine
10
-264.300000000000
20
19499.380000000001
30
0.0
11
-2044.450000000000
21
19737.840000000000
31
0.0
0
LINE
5
50e
100
AcDbEntity
8
1-0
6
CONTINUOUS
62
3
100
AcDbLine
10
370.670000000000
20
19504.900000000001
30
0.0
11
-264.300000000000
21
19499.380000000001
31
0.0
0
LINE
5
50f
100
AcDbEntity
8
1-0
6
CONTINUOUS
62
3
100
AcDbLine
10
1001.190000000000
20
20018.419999999998
30
0.0
11
370.670000000000
21
19504.900000000001
31
0.0
0
LINE
5
510
100
AcDbEntity
8
1-0
6
CONTINUOUS
62
4
100
AcDbLine
10
-3290.440000000000
20
20911.660000000000
30
0.0
11
-3486.890000000000
21
20949.180000000000
31
0.0
0
LINE
5
511
100
AcDbEntity
8
1-0
6
CONTINUOUS
62
4
100
AcDbLine
10
-2527.830000000000
20
21173.270000000000
30
0.0
11
-4099.440000000000
21
21473.360000000001
31
0.0
0
LINE
5
512
100
AcDbEntity
8
1-0
6
CONTINUOUS
62
4
100
AcDbLine
10
-346.100000000000
20
19891.730000000000
30
0.0
11
-532.900000000000
21
19963.230000000000
31
0.0
0
LINE
5
513
100
AcDbEntity
8
1-0
6
CONTINUOUS
62
4
100
AcDbLine
10
5125.540000000000
20
55775.400000000001
30
0.0
11
5035.930000000000
21
54879.410000000003
31
0.0
0
LINE
5
514
100
AcDbEntity
8
1-0
6
CONTINUOUS
62
4
100
AcDbLine
10
11731.809999999999
20
48566.820000000000
30
0.0
11
11731.809999999999
21
48624.940000000002
31
0.0
0
LINE
5
515
100
AcDbEntity
8
1-0
6
CONTINUOUS
62
4
100
AcDbLine
10
14331.799999999999
20
48566.820000000000
30
0.0
11
14331.799999999999
21
48666.820000000000
31
0.0
0
LINE
5
516
100
AcDbEntity
8
1-0
6
CONTINUOUS
62
4
100
AcDbLine
10
15831.809999999999
20
48566.820000000000
30
0.0
11
15831.809999999999
21
48647.529999999999
31
0.0
0
LINE
5
517
100
AcDbEntity
8
1-0
6
CONTINUOUS
62
4
100
AcDbLine
10
11331.809999999999
20
48626.820000000000
30
0.0
11
16331.799999999999
21
48626.820000000000
31
0.0
0
LINE
5
518
100
AcDbEntity
8
1-0
6
CONTINUOUS
62
4
100
AcDbLine
10
15331.809999999999
20
48566.820000000000
30
0.0
11
15331.809999999999
21
48666.820000000000
31
0.0
0
LINE
5
519
100
AcDbEntity
8
1-0
6
CONTINUOUS
62
4
100
AcDbLine
10
16331.799999999999
20
48566.820000000000
30
0.0
11
16331.799999999999
21
48666.820000000000
31
0.0
0
LINE
5
51a
100
AcDbEntity
8
1-0
6
CONTINUOUS
62
4
100
AcDbLine
10
13831.809999999999
20
48566.820000000000
30
0.0
11
13831.809999999999
21
48647.529999999999
31
0.0
0
LINE
5
51b
100
AcDbEntity
8
1-0
6
CONTINUOUS
62
4
100
AcDbLine
10
13831.809999999999
20
48566.820000000000
30
0.0
11
13831.809999999999
21
48647.529999999999
31
0.0
0
LINE
5
51c
100
AcDbEntity
8
1-0
6
CONTINUOUS
62
4
100
AcDbLine
10
12131.809999999999
20
48566.820000000000
30
0.0
11
12131.809999999999
21
48626.550000000003
31
0.0
0
LINE
5
51d
100
AcDbEntity
8
1-0
6
CONTINUOUS
62
4
100
AcDbLine
10
11531.809999999999
20
48566.820000000000
30
0.0
11
11531.809999999999
21
48624.930000000000
31
0.0
0
LINE
5
51e
100
AcDbEntity
8
1-0
6
CONTINUOUS
62
4
100
AcDbLine
10
11831.809999999999
20
48566.820000000000
30
0.0
11
11831.809999999999
21
48647.529999999999
31
0.0
0
LINE
5
51f
100
AcDbEntity
8
1-0
6
CONTINUOUS
62
4
100
AcDbLine
10
12831.809999999999
20
48566.820000000000
30
0.0
11
12831.809999999999
21
48647.529999999999
31
0.0
0
LINE
5
520
100
AcDbEntity
8
1-0
6
CONTINUOUS
62
4
100
AcDbLine
10
12231.799999999999
20
48566.820000000000
30
0.0
11
12231.799999999999
21
48628.160000000003
31
0.0
0
LINE
5
521
100
AcDbEntity
8
1-0
6
CONTINUOUS
62
4
100
AcDbLine
10
75632.259999999995
20
6224.880000000000
30
0.0
11
82913.500000000000
21
6224.880000000000
31
0.0
0
LINE
5
522
100
AcDbEntity
8
1-0
6
CONTINUOUS
62
4
100
AcDbLine
10
75632.259999999995
20
2860.300000000000
30
0.0
11
82913.500000000000
21
2860.300000000000
31
0.0
0
LINE
5
523
100
AcDbEntity
8
1-0
6
CONTINUOUS
62
4
100
AcDbLine
10
75632.259999999995
20
3985.300000000000
30
0.0
11
82913.500000000000
21
3985.300000000000
31
0.0
0
LINE
5
524
100
AcDbEntity
8
1-0
6
CONTINUOUS
62
4
100
AcDbLine
10
75632.259999999995
20
5662.380000000000
30
0.0
11
82913.500000000000
21
5662.380000000000
31
0.0
0
LINE
5
525
100
AcDbEntity
8
1-0
6
CONTINUOUS
62
4
100
AcDbLine
10
77184.330000000002
20
6224.880000000000
30
0.0
11
77184.330000000002
21
2860.300000000000
31
0.0
0
LINE
5
526
100
AcDbEntity
8
1-0
6
CONTINUOUS
62
4
100
AcDbLine
10
75632.259999999995
20
4547.800000000000
30
0.0
11
82913.500000000000
21
4547.800000000000
31
0.0
0
LINE
5
527
100
AcDbEntity
8
1-0
6
CONTINUOUS
62
4
100
AcDbLine
10
75632.259999999995
20
3422.800000000000
30
0.0
11
82913.500000000000
21
3422.800000000000
31
0.0
0
LINE
5
528
100
AcDbEntity
8
1-0
6
CONTINUOUS
62
4
100
AcDbLine
10
75632.259999999995
20
6224.880000000000
30
0.0
11
75632.259999999995
21
2860.300000000000
31
0.0
0
LINE
5
529
100
AcDbEntity
8
1-0
6
CONTINUOUS
62
4
100
AcDbLine
10
82913.500000000000
20
6224.880000000000
30
0.0
11
82913.500000000000
21
2860.300000000000
31
0.0
0
LINE
5
52a
100
AcDbEntity
8
1-0
6
CONTINUOUS
62
4
100
AcDbLine
10
11331.809999999999
20
48566.820000000000
30
0.0
11
11331.809999999999
21
48666.820000000000
31
0.0
0
LINE
5
52b
100
AcDbEntity
8
1-0
6
CONTINUOUS
62
4
100
AcDbLine
10
79142.669999999998
20
5099.880000000000
30
0.0
11
79142.669999999998
21
4547.800000000000
31
0.0
0
LINE
5
52c
100
AcDbEntity
8
1-0
6
CONTINUOUS
62
4
100
AcDbLine
10
81028.089999999997
20
5099.880000000000
30
0.0
11
81028.089999999997
21
4547.800000000000
31
0.0
0
LINE
5
52d
100
AcDbEntity
8
1-0
6
CONTINUOUS
62
4
100
AcDbLine
10
75632.259999999995
20
5099.880000000000
30
0.0
11
82913.500000000000
21
5099.880000000000
31
0.0
0
LINE
5
52e
100
AcDbEntity
8
1-0
6
CONTINUOUS
62
4
100
AcDbLine
10
13831.809999999999
20
48566.820000000000
30
0.0
11
13831.809999999999
21
48647.529999999999
31
0.0
0
LINE
5
52f
100
AcDbEntity
8
1-0
6
CONTINUOUS
62
4
100
AcDbLine
10
6469.540000000000
20
49503.410000000003
30
0.0
11
5252.240000000000
21
49630.110000000001
31
0.0
0
LINE
5
530
100
AcDbEntity
8
1-0
6
CONTINUOUS
62
4
100
AcDbLine
10
5632.330000000000
20
50010.190000000002
30
0.0
11
5246.870000000000
21
49778.830000000002
31
0.0
0
LINE
5
531
100
AcDbEntity
8
1-0
6
CONTINUOUS
62
4
100
AcDbLine
10
5125.540000000000
20
47711.410000000003
30
0.0
11
5252.240000000000
21
49376.709999999999
31
0.0
0
LINE
5
532
100
AcDbEntity
8
1-0
6
CONTINUOUS
62
4
100
AcDbLine
10
5215.140000000000
20
54521.010000000002
30
0.0
11
5125.540000000000
21
54162.610000000001
31
0.0
0
LINE
5
533
100
AcDbEntity
8
1-0
6
CONTINUOUS
62
4
100
AcDbLine
10
4491.890000000000
20
50137.059999999998
30
0.0
11
5759.200000000000
21
48869.760000000002
31
0.0
0
LINE
5
534
100
AcDbEntity
8
1-0
6
CONTINUOUS
62
3
100
AcDbLine
10
5632.330000000000
20
50010.190000000002
30
0.0
11
5395.410000000000
21
49615.230000000003
31
0.0
0
LINE
5
535
100
AcDbEntity
8
1-0
6
CONTINUOUS
62
3
100
AcDbLine
10
4946.340000000000
20
56313.010000000002
30
0.0
11
4946.340000000000
21
56850.610000000001
31
0.0
0
LINE
5
536
100
AcDbEntity
8
1-0
6
CONTINUOUS
62
4
100
AcDbLine
10
5759.200000000000
20
50137.059999999998
30
0.0
11
4491.880000000000
21
48869.760000000002
31
0.0
0
LINE
5
537
100
AcDbEntity
8
1-0
6
CONTINUOUS
62
3
100
AcDbLine
10
6469.540000000000
20
49503.410000000003
30
0.0
11
5252.240000000000
21
49376.709999999999
31
0.0
0
LINE
5
538
100
AcDbEntity
8
1-0
6
CONTINUOUS
62
3
100
AcDbLine
10
5304.740000000000
20
56313.000000000000
30
0.0
11
5304.740000000000
21
56850.610000000001
31
0.0
0
LINE
5
539
100
AcDbEntity
8
1-0
6
CONTINUOUS
62
4
100
AcDbLine
10
5125.540000000000
20
55775.400000000001
30
0.0
11
5125.540000000000
21
46815.410000000003
31
0.0
0
LINE
5
53a
100
AcDbEntity
8
1-0
6
CONTINUOUS
62
3
100
AcDbLine
10
4618.760000000000
20
50010.180000000000
30
0.0
11
5004.220000000000
21
49778.830000000002
31
0.0
0
LINE
5
53b
100
AcDbEntity
8
1-0
6
CONTINUOUS
62
4
100
AcDbLine
10
4618.760000000000
20
48996.629999999997
30
0.0
11
5009.960000000000
21
49231.199999999997
31
0.0
0
LINE
5
53c
100
AcDbEntity
8
1-0
6
CONTINUOUS
62
4
100
AcDbLine
10
13831.809999999999
20
48566.820000000000
30
0.0
11
13831.809999999999
21
48647.529999999999
31
0.0
0
LINE
5
53d
100
AcDbEntity
8
1-0
6
CONTINUOUS
62
4
100
AcDbLine
10
12331.809999999999
20
48566.820000000000
30
0.0
11
12331.809999999999
21
48666.820000000000
31
0.0
0
LINE
5
53e
100
AcDbEntity
8
1-0
6
CONTINUOUS
62
4
100
AcDbLine
10
11431.809999999999
20
48566.820000000000
30
0.0
11
11431.809999999999
21
48624.930000000000
31
0.0
0
LINE
5
53f
100
AcDbEntity
8
1-0
6
CONTINUOUS
62
4
100
AcDbLine
10
12031.809999999999
20
48566.820000000000
30
0.0
11
12031.809999999999
21
48624.940000000002
31
0.0
0
LINE
5
540
100
AcDbEntity
8
1-0
6
CONTINUOUS
62
4
100
AcDbLine
10
13331.809999999999
20
48566.820000000000
30
0.0
11
13331.809999999999
21
48666.820000000000
31
0.0
0
LINE
5
541
100
AcDbEntity
8
1-0
6
CONTINUOUS
62
4
100
AcDbLine
10
11331.809999999999
20
48566.820000000000
30
0.0
11
16331.799999999999
21
48566.820000000000
31
0.0
0
LINE
5
542
100
AcDbEntity
8
1-0
6
CONTINUOUS
62
4
100
AcDbLine
10
11631.809999999999
20
48566.820000000000
30
0.0
11
11631.809999999999
21
48626.550000000003
31
0.0
0
LINE
5
543
100
AcDbEntity
8
1-0
6
CONTINUOUS
62
4
100
AcDbLine
10
14831.809999999999
20
48566.820000000000
30
0.0
11
14831.809999999999
21
48647.529999999999
31
0.0
0
LINE
5
544
100
AcDbEntity
8
1-0
6
CONTINUOUS
62
3
100
AcDbLine
10
5035.940000000000
20
54521.010000000002
30
0.0
11
5125.540000000000
21
54162.610000000001
31
0.0
0
LINE
5
545
100
AcDbEntity
8
1-0
6
CONTINUOUS
62
3
100
AcDbLine
10
4618.760000000000
20
48996.629999999997
30
0.0
11
4855.670000000000
21
49391.580000000002
31
0.0
0
LINE
5
546
100
AcDbEntity
8
1-0
6
CONTINUOUS
62
4
100
AcDbLine
10
14331.799999999999
20
48566.820000000000
30
0.0
11
14331.799999999999
21
48666.820000000000
31
0.0
0
LINE
5
547
100
AcDbEntity
8
1-0
6
CONTINUOUS
62
4
100
AcDbLine
10
11931.809999999999
20
48566.820000000000
30
0.0
11
11931.809999999999
21
48623.320000000000
31
0.0
0
LINE
5
548
100
AcDbEntity
8
1-0
6
CONTINUOUS
62
4
100
AcDbLine
10
-3056.470000000000
20
21070.590000000000
30
0.0
11
-3645.830000000000
21
21183.139999999999
31
0.0
0
LINE
5
549
100
AcDbEntity
8
1-0
6
CONTINUOUS
62
4
100
AcDbLine
10
77580.869999999995
20
-2180.430000000000
30
0.0
11
77227.360000000001
21
-2183.510000000000
31
0.0
0
LINE
5
54a
100
AcDbEntity
8
1-0
6
CONTINUOUS
62
4
100
AcDbLine
10
79371.429999999993
20
1.460000000000
30
0.0
11
79395.289999999994
21
-351.300000000000
31
0.0
0
LINE
5
54b
100
AcDbEntity
8
1-0
6
CONTINUOUS
62
4
100
AcDbLine
10
78713.619999999995
20
-751.730000000000
30
0.0
11
78737.460000000006
21
-1104.470000000000
31
0.0
0
LINE
5
54c
100
AcDbEntity
8
1-0
6
CONTINUOUS
62
4
100
AcDbLine
10
79559.720000000001
20
-163.000000000000
30
0.0
11
79207.000000000000
21
-186.840000000000
31
0.0
0
LINE
5
54d
100
AcDbEntity
8
1-0
6
CONTINUOUS
62
4
100
AcDbLine
10
76692.410000000003
20
-1657.830000000000
30
0.0
11
76689.330000000002
21
-1304.290000000000
31
0.0
0
LINE
5
54e
100
AcDbEntity
8
1-0
6
CONTINUOUS
62
4
100
AcDbLine
10
77405.669999999998
20
-2358.740000000000
30
0.0
11
77402.550000000003
21
-2005.200000000000
31
0.0
0
LINE
5
54f
100
AcDbEntity
8
1-0
6
CONTINUOUS
62
4
100
AcDbLine
10
73099.729999999996
20
6068.840000000000
30
0.0
11
73043.240000000005
21
5719.820000000000
31
0.0
0
LINE
5
550
100
AcDbEntity
8
1-0
6
CONTINUOUS
62
4
100
AcDbLine
10
78244.110000000001
20
-1669.370000000000
30
0.0
11
77891.360000000001
21
-1693.200000000000
31
0.0
0
LINE
5
551
100
AcDbEntity
8
1-0
6
CONTINUOUS
62
4
100
AcDbLine
10
50542.570000000000
20
8486.580000000000
30
0.0
11
50245.239999999998
21
8526.420000000000
31
0.0
0
LINE
5
552
100
AcDbEntity
8
1-0
6
CONTINUOUS
62
4
100
AcDbLine
10
50430.169999999998
20
8400.750000000000
30
0.0
11
50331.089999999997
21
8414.020000000000
31
0.0
0
LINE
5
553
100
AcDbEntity
8
1-0
6
CONTINUOUS
62
3
100
AcDbLine
10
56568.120000000003
20
8168.970000000000
30
0.0
11
60545.739999999998
21
7837.580000000000
31
0.0
0
LINE
5
554
100
AcDbEntity
8
1-0
6
CONTINUOUS
62
4
100
AcDbLine
10
78901.919999999998
20
-916.180000000000
30
0.0
11
78549.160000000003
21
-940.030000000000
31
0.0
0
LINE
5
555
100
AcDbEntity
8
1-0
6
CONTINUOUS
62
3
100
AcDbLine
10
54046.870000000003
20
12151.910000000000
30
0.0
11
60000.089999999997
21
12150.990000000000
31
0.0
0
LINE
5
556
100
AcDbEntity
8
1-0
6
CONTINUOUS
62
4
100
AcDbLine
10
74067.110000000001
20
4300.590000000000
30
0.0
11
74416.139999999999
21
4244.120000000000
31
0.0
0
LINE
5
557
100
AcDbEntity
8
1-0
6
CONTINUOUS
62
4
100
AcDbLine
10
74738.190000000002
20
2881.400000000000
30
0.0
11
75062.529999999999
21
2740.640000000000
31
0.0
0
LINE
5
558
100
AcDbEntity
8
1-0
6
CONTINUOUS
62
4
100
AcDbLine
10
74269.860000000001
20
4446.860000000000
30
0.0
11
74213.380000000005
21
4097.850000000000
31
0.0
0
LINE
5
559
100
AcDbEntity
8
1-0
6
CONTINUOUS
62
3
100
AcDbLine
10
-3839.010000000000
20
21627.250000000000
30
0.0
11
-2566.830000000000
21
21384.330000000002
31
0.0
0
LINE
5
55a
100
AcDbEntity
8
1-0
6
CONTINUOUS
62
4
100
AcDbLine
10
74371.059999999998
20
3811.560000000000
30
0.0
11
74695.399999999994
21
3670.810000000000
31
0.0
0
LINE
5
55b
100
AcDbEntity
8
1-0
6
CONTINUOUS
62
4
100
AcDbLine
10
74970.729999999996
20
2973.180000000000
30
0.0
11
74829.990000000005
21
2648.860000000000
31
0.0
0
LINE
5
55c
100
AcDbEntity
8
1-0
6
CONTINUOUS
62
4
100
AcDbLine
10
72311.919999999998
20
6733.560000000000
30
0.0
11
72660.919999999998
21
6677.070000000000
31
0.0
0
LINE
5
55d
100
AcDbEntity
8
1-0
6
CONTINUOUS
62
4
100
AcDbLine
10
75105.309999999998
20
1951.220000000000
30
0.0
11
75429.660000000003
21
1810.460000000000
31
0.0
0
LINE
5
55e
100
AcDbEntity
8
1-0
6
CONTINUOUS
62
4
100
AcDbLine
10
72896.970000000001
20
5922.570000000000
30
0.0
11
73246.000000000000
21
5866.090000000000
31
0.0
0
LINE
5
55f
100
AcDbEntity
8
1-0
6
CONTINUOUS
62
4
100
AcDbLine
10
76867.649999999994
20
-1479.520000000000
30
0.0
11
76514.100000000006
21
-1482.600000000000
31
0.0
0
LINE
5
560
100
AcDbEntity
8
1-0
6
CONTINUOUS
62
4
100
AcDbLine
10
73482.050000000003
20
5111.580000000000
30
0.0
11
73831.050000000003
21
5055.110000000000
31
0.0
0
LINE
5
561
100
AcDbEntity
8
1-0
6
CONTINUOUS
62
4
100
AcDbLine
10
74603.610000000001
20
3903.340000000000
30
0.0
11
74462.860000000001
21
3579.030000000000
31
0.0
0
LINE
5
562
100
AcDbEntity
8
1-0
6
CONTINUOUS
62
4
100
AcDbLine
10
75337.860000000001
20
2043.000000000000
30
0.0
11
75197.110000000001
21
1718.680000000000
31
0.0
0
LINE
5
563
100
AcDbEntity
8
1-0
6
CONTINUOUS
62
4
100
AcDbLine
10
50803.650000000001
20
8552.500000000000
30
0.0
11
50010.739999999998
21
8658.730000000000
31
0.0
0
LINE
5
564
100
AcDbEntity
8
1-0
6
CONTINUOUS
62
3
100
AcDbLine
10
64491.480000000003
20
6855.980000000000
30
0.0
11
66274.990000000005
21
6236.530000000000
31
0.0
0
LINE
5
565
100
AcDbEntity
8
1-0
6
DASHED2
62
3
100
AcDbLine
10
71107.699999999997
20
4379.310000000000
30
0.0
11
72315.949999999997
21
6941.630000000000
31
0.0
0
LINE
5
566
100
AcDbEntity
8
1-0
6
CONTINUOUS
62
3
100
AcDbLine
10
72315.949999999997
20
6941.630000000000
30
0.0
11
73925.929999999993
21
10355.889999999999
31
0.0
0
LINE
5
567
100
AcDbEntity
8
1-0
6
CONTINUOUS
62
4
100
AcDbLine
10
2385.100000000000
20
18344.689999999999
30
0.0
11
2217.130000000000
21
18529.849999999999
31
0.0
0
LINE
5
568
100
AcDbEntity
8
1-0
6
CONTINUOUS
62
3
100
AcDbLine
10
14770.959999999999
20
13915.370000000001
30
0.0
11
19732.630000000001
21
12942.620000000001
31
0.0
0
LINE
5
569
100
AcDbEntity
8
1-0
6
CONTINUOUS
62
4
100
AcDbLine
10
2658.600000000000
20
18255.250000000000
30
0.0
11
2154.720000000000
21
18810.750000000000
31
0.0
0
LINE
5
56a
100
AcDbEntity
8
1-0
6
CONTINUOUS
62
3
100
AcDbLine
10
6527.370000000000
20
12573.379999999999
30
0.0
11
9335.660000000000
21
10946.830000000000
31
0.0
0
LINE
5
56b
100
AcDbEntity
8
1-0
6
CONTINUOUS
62
3
100
AcDbLine
10
36894.739999999998
20
18981.630000000001
30
0.0
11
36507.629999999997
21
17287.970000000001
31
0.0
0
LINE
5
56c
100
AcDbEntity
8
1-0
6
CONTINUOUS
62
3
100
AcDbLine
10
0.000000000000
20
0.000000000000
30
0.0
11
0.000000000000
21
0.000000000000
31
0.0
0
LINE
5
56d
100
AcDbEntity
8
1-0
6
CONTINUOUS
62
3
100
AcDbLine
10
71107.699999999997
20
4379.310000000000
30
0.0
11
70994.839999999997
21
3864.610000000000
31
0.0
0
LINE
5
56e
100
AcDbEntity
8
1-0
6
CONTINUOUS
62
3
100
AcDbLine
10
70101.470000000001
20
4364.860000000000
30
0.0
11
70646.179999999993
21
4596.990000000000
31
0.0
0
LINE
5
56f
100
AcDbEntity
8
1-0
6
CONTINUOUS
62
4
100
AcDbLine
10
2301.120000000000
20
18437.259999999998
30
0.0
11
1963.350000000000
21
18130.860000000001
31
0.0
0
LINE
5
570
100
AcDbEntity
8
1-0
6
CONTINUOUS
62
3
100
AcDbLine
10
72315.949999999997
20
6941.630000000000
30
0.0
11
74422.580000000002
21
4021.540000000000
31
0.0
0
LINE
5
571
100
AcDbEntity
8
1-0
6
CONTINUOUS
62
4
100
AcDbLine
10
56761.959999999999
20
7851.780000000000
30
0.0
11
56737.059999999998
21
7552.820000000000
31
0.0
0
LINE
5
572
100
AcDbEntity
8
1-0
6
CONTINUOUS
62
3
100
AcDbLine
10
36736.269999999997
20
16972.590000000000
30
0.0
11
37184.809999999998
21
18935.049999999999
31
0.0
0
LINE
5
573
100
AcDbEntity
8
1-0
6
CONTINUOUS
62
4
100
AcDbLine
10
56811.769999999997
20
7847.630000000000
30
0.0
11
56712.120000000003
21
7855.930000000000
31
0.0
0
LINE
5
574
100
AcDbEntity
8
1-0
6
CONTINUOUS
62
4
100
AcDbLine
10
73684.779999999999
20
5257.850000000000
30
0.0
11
73628.330000000002
21
4908.830000000000
31
0.0
0
LINE
5
575
100
AcDbEntity
8
1-0
6
CONTINUOUS
62
4
100
AcDbLine
10
72514.649999999994
20
6879.810000000000
30
0.0
11
72458.190000000002
21
6530.810000000000
31
0.0
0
LINE
5
576
100
AcDbEntity
8
1-0
6
CONTINUOUS
62
4
100
AcDbLine
10
50380.639999999999
20
8407.379999999999
30
0.0
11
50340.790000000001
21
8110.050000000000
31
0.0
0
LINE
5
577
100
AcDbEntity
8
1-0
6
CONTINUOUS
62
4
100
AcDbLine
10
57177.190000000002
20
8017.870000000000
30
0.0
11
56379.940000000002
21
8084.300000000000
31
0.0
0
LINE
5
578
100
AcDbEntity
8
1-0
6
CONTINUOUS
62
4
100
AcDbLine
10
76206.699999999997
20
-839.290000000000
30
0.0
11
76531.000000000000
21
-980.050000000000
31
0.0
0
LINE
5
579
100
AcDbEntity
8
1-0
6
CONTINUOUS
62
3
100
AcDbLine
10
72693.940000000002
20
8341.440000000001
30
0.0
11
72863.550000000003
21
8951.799999999999
31
0.0
0
LINE
5
57a
100
AcDbEntity
8
1-0
6
CONTINUOUS
62
3
100
AcDbLine
10
3471.400000000000
20
29056.750000000000
30
0.0
11
2942.170000000000
21
26564.900000000001
31
0.0
0
LINE
5
57b
100
AcDbEntity
8
1-0
6
CONTINUOUS
62
4
100
AcDbLine
10
56919.739999999998
20
7938.990000000000
30
0.0
11
56620.790000000001
21
7963.890000000000
31
0.0
0
LINE
5
57c
100
AcDbEntity
8
1-0
6
CONTINUOUS
62
4
100
AcDbLine
10
75704.979999999996
20
1112.830000000000
30
0.0
11
75564.240000000005
21
788.500000000000
31
0.0
0
LINE
5
57d
100
AcDbEntity
8
1-0
6
CONTINUOUS
62
4
100
AcDbLine
10
78055.809999999998
20
-1504.910000000000
30
0.0
11
78079.649999999994
21
-1857.660000000000
31
0.0
0
LINE
5
57e
100
AcDbEntity
8
1-0
6
CONTINUOUS
62
4
100
AcDbLine
10
78221.619999999995
20
-4256.630000000000
30
0.0
11
79252.990000000005
21
-4453.550000000000
31
0.0
0
LINE
5
57f
100
AcDbEntity
8
1-0
6
CONTINUOUS
62
4
100
AcDbLine
10
72118.679999999993
20
2078.390000000000
30
0.0
11
71803.380000000005
21
2758.890000000000
31
0.0
0
LINE
5
580
100
AcDbEntity
8
1-0
6
CONTINUOUS
62
4
100
AcDbLine
10
72037.440000000002
20
1274.710000000000
30
0.0
11
71537.470000000001
21
1270.350000000000
31
0.0
0
LINE
5
581
100
AcDbEntity
8
1-0
6
CONTINUOUS
62
4
100
AcDbLine
10
70105.889999999999
20
4658.740000000000
30
0.0
11
69872.529999999999
21
4748.330000000000
31
0.0
0
LINE
5
582
100
AcDbEntity
8
1-0
6
CONTINUOUS
62
4
100
AcDbLine
10
47466.830000000002
20
8904.260000000000
30
0.0
11
46717.129999999997
21
8883.490000000000
31
0.0
0
LINE
5
583
100
AcDbEntity
8
1-0
6
CONTINUOUS
62
4
100
AcDbLine
10
43662.779999999999
20
8723.870000000001
30
0.0
11
43412.870000000003
21
8716.959999999999
31
0.0
0
LINE
5
584
100
AcDbEntity
8
1-0
6
CONTINUOUS
62
4
100
AcDbLine
10
45931.239999999998
20
8786.700000000001
30
0.0
11
45943.970000000001
21
8326.570000000000
31
0.0
0
LINE
5
585
100
AcDbEntity
8
1-0
6
CONTINUOUS
62
4
100
AcDbLine
10
40925.900000000001
20
8648.049999999999
30
0.0
11
40936.709999999999
21
8257.639999999999
31
0.0
0
LINE
5
586
100
AcDbEntity
8
1-0
6
CONTINUOUS
62
4
100
AcDbLine
10
45136.050000000003
20
8839.700000000001
30
0.0
11
44386.349999999999
21
8818.930000000000
31
0.0
0
LINE
5
587
100
AcDbEntity
8
1-0
6
CONTINUOUS
62
4
100
AcDbLine
10
43537.809999999998
20
8720.400000000000
30
0.0
11
43549.650000000001
21
8292.090000000000
31
0.0
0
LINE
5
588
100
AcDbEntity
8
1-0
6
CONTINUOUS
62
4
100
AcDbLine
10
44763.279999999999
20
8754.340000000000
30
0.0
11
44774.410000000003
21
8351.520000000000
31
0.0
0
LINE
5
589
100
AcDbEntity
8
1-0
6
CONTINUOUS
62
4
100
AcDbLine
10
46056.209999999999
20
8790.170000000000
30
0.0
11
45806.300000000003
21
8783.250000000000
31
0.0
0
LINE
5
58a
100
AcDbEntity
8
1-0
6
CONTINUOUS
62
4
100
AcDbLine
10
59525.239999999998
20
7772.090000000000
30
0.0
11
59491.699999999997
21
7369.620000000000
31
0.0
0
LINE
5
58b
100
AcDbEntity
8
1-0
6
CONTINUOUS
62
4
100
AcDbLine
10
72038.539999999994
20
1149.710000000000
30
0.0
11
72036.369999999995
21
1399.710000000000
31
0.0
0
LINE
5
58c
100
AcDbEntity
8
1-0
6
CONTINUOUS
62
4
100
AcDbLine
10
-3977.970000000000
20
4540.230000000000
30
0.0
11
-3466.420000000000
21
4226.690000000000
31
0.0
0
LINE
5
58d
100
AcDbEntity
8
1-0
6
CONTINUOUS
62
4
100
AcDbLine
10
-3649.640000000000
20
4573.570000000000
30
0.0
11
-3585.690000000000
21
4534.370000000000
31
0.0
0
LINE
5
58e
100
AcDbEntity
8
1-0
6
CONTINUOUS
62
4
100
AcDbLine
10
-2312.620000000000
20
3519.480000000000
30
0.0
11
-1801.070000000000
21
3205.940000000000
31
0.0
0
LINE
5
58f
100
AcDbEntity
8
1-0
6
CONTINUOUS
62
4
100
AcDbLine
10
-644.490000000000
20
2725.200000000000
30
0.0
11
-424.930000000000
21
2675.990000000000
31
0.0
0
LINE
5
590
100
AcDbEntity
8
1-0
6
CONTINUOUS
62
4
100
AcDbLine
10
-5449.830000000000
20
5645.990000000000
30
0.0
11
-5262.820000000000
21
5520.860000000000
31
0.0
0
LINE
5
591
100
AcDbEntity
8
1-0
6
CONTINUOUS
62
4
100
AcDbLine
10
-1952.330000000000
20
3533.220000000000
30
0.0
11
-1795.550000000000
21
3788.990000000000
31
0.0
0
LINE
5
592
100
AcDbEntity
8
1-0
6
CONTINUOUS
62
4
100
AcDbLine
10
0.000000000000
20
0.000000000000
30
0.0
11
0.000000000000
21
0.000000000000
31
0.0
0
LINE
5
593
100
AcDbEntity
8
1-0
6
CONTINUOUS
62
4
100
AcDbLine
10
69989.229999999996
20
4703.540000000000
30
0.0
11
69917.539999999994
21
4516.820000000000
31
0.0
0
LINE
5
594
100
AcDbEntity
8
1-0
6
CONTINUOUS
62
4
100
AcDbLine
10
72165.740000000005
20
900.810000000000
30
0.0
11
72159.179999999993
21
1650.780000000000
31
0.0
0
LINE
5
595
100
AcDbEntity
8
1-0
6
CONTINUOUS
62
4
100
AcDbLine
10
67482.419999999998
20
5665.900000000000
30
0.0
11
67410.740000000005
21
5479.180000000000
31
0.0
0
LINE
5
596
100
AcDbEntity
8
1-0
6
CONTINUOUS
62
4
100
AcDbLine
10
72050.419999999998
20
-207.540000000000
30
0.0
11
72048.250000000000
21
42.460000000000
31
0.0
0
LINE
5
597
100
AcDbEntity
8
1-0
6
CONTINUOUS
62
4
100
AcDbLine
10
71454.800000000003
20
3392.340000000000
30
0.0
11
71349.699999999997
21
3619.160000000000
31
0.0
0
LINE
5
598
100
AcDbEntity
8
1-0
6
CONTINUOUS
62
4
100
AcDbLine
10
5790.190000000000
20
13826.770000000000
30
0.0
11
5599.850000000000
21
13988.850000000000
31
0.0
0
LINE
5
599
100
AcDbEntity
8
1-0
6
CONTINUOUS
62
4
100
AcDbLine
10
46304.010000000002
20
8872.060000000000
30
0.0
11
45554.320000000000
21
8851.290000000001
31
0.0
0
LINE
5
59a
100
AcDbEntity
8
1-0
6
CONTINUOUS
62
4
100
AcDbLine
10
0.000000000000
20
0.000000000000
30
0.0
11
0.000000000000
21
0.000000000000
31
0.0
0
LINE
5
59b
100
AcDbEntity
8
1-0
6
CONTINUOUS
62
4
100
AcDbLine
10
72155.429999999993
20
-4331.060000000000
30
0.0
11
72162.690000000002
21
-3281.090000000000
31
0.0
0
LINE
5
59c
100
AcDbEntity
8
1-0
6
CONTINUOUS
62
4
100
AcDbLine
10
72188.960000000006
20
-1760.390000000000
30
0.0
11
72182.429999999993
21
-1010.400000000000
31
0.0
0
LINE
5
59d
100
AcDbEntity
8
1-0
6
CONTINUOUS
62
4
100
AcDbLine
10
0.000000000000
20
0.000000000000
30
0.0
11
0.000000000000
21
0.000000000000
31
0.0
0
LINE
5
59e
100
AcDbEntity
8
1-0
6
CONTINUOUS
62
4
100
AcDbLine
10
0.000000000000
20
0.000000000000
30
0.0
11
0.000000000000
21
0.000000000000
31
0.0
0
LINE
5
59f
100
AcDbEntity
8
1-0
6
CONTINUOUS
62
4
100
AcDbLine
10
0.000000000000
20
0.000000000000
30
0.0
11
0.000000000000
21
0.000000000000
31
0.0
0
LINE
5
5a0
100
AcDbEntity
8
1-0
6
CONTINUOUS
62
4
100
AcDbLine
10
48514.959999999999
20
8884.340000000000
30
0.0
11
47771.570000000000
21
8983.940000000001
31
0.0
0
LINE
5
5a1
100
AcDbEntity
8
1-0
6
CONTINUOUS
62
4
100
AcDbLine
10
72060.699999999997
20
-1386.480000000000
30
0.0
11
71560.729999999996
21
-1390.850000000000
31
0.0
0
LINE
5
5a2
100
AcDbEntity
8
1-0
6
CONTINUOUS
62
3
100
AcDbLine
10
71427.880000000005
20
-2100.840000000000
30
0.0
11
71391.320000000007
21
2089.990000000000
31
0.0
0
LINE
5
5a3
100
AcDbEntity
8
1-0
6
CONTINUOUS
62
4
100
AcDbLine
10
72009.059999999998
20
-3805.030000000000
30
0.0
11
71409.089999999997
21
-3800.900000000000
31
0.0
0
LINE
5
5a4
100
AcDbEntity
8
1-0
6
CONTINUOUS
62
4
100
AcDbLine
10
71605.250000000000
20
3186.530000000000
30
0.0
11
71289.949999999997
21
3867.030000000000
31
0.0
0
LINE
5
5a5
100
AcDbEntity
8
1-0
6
CONTINUOUS
62
4
100
AcDbLine
10
72007.839999999997
20
-3980.020000000000
30
0.0
11
72010.250000000000
21
-3630.040000000000
31
0.0
0
LINE
5
5a6
100
AcDbEntity
8
1-0
6
CONTINUOUS
62
4
100
AcDbLine
10
72061.800000000003
20
-1511.480000000000
30
0.0
11
72059.630000000005
21
-1261.480000000000
31
0.0
0
LINE
5
5a7
100
AcDbEntity
8
1-0
6
CONTINUOUS
62
4
100
AcDbLine
10
47094.050000000003
20
8818.900000000000
30
0.0
11
47107.269999999997
21
8341.959999999999
31
0.0
0
LINE
5
5a8
100
AcDbEntity
8
1-0
6
CONTINUOUS
62
4
100
AcDbLine
10
0.000000000000
20
0.000000000000
30
0.0
11
0.000000000000
21
0.000000000000
31
0.0
0
LINE
5
5a9
100
AcDbEntity
8
1-0
6
CONTINUOUS
62
4
100
AcDbLine
10
0.000000000000
20
0.000000000000
30
0.0
11
0.000000000000
21
0.000000000000
31
0.0
0
LINE
5
5aa
100
AcDbEntity
8
1-0
6
CONTINUOUS
62
4
100
AcDbLine
10
44888.239999999998
20
8757.799999999999
30
0.0
11
44638.330000000002
21
8750.889999999999
31
0.0
0
LINE
5
5ab
100
AcDbEntity
8
1-0
6
CONTINUOUS
62
4
100
AcDbLine
10
48133.300000000003
20
8859.810000000000
30
0.0
11
48063.019999999997
21
8335.000000000000
31
0.0
0
LINE
5
5ac
100
AcDbEntity
8
1-0
6
CONTINUOUS
62
4
100
AcDbLine
10
72049.320000000007
20
-82.540000000000
30
0.0
11
71549.339999999997
21
-86.910000000000
31
0.0
0
LINE
5
5ad
100
AcDbEntity
8
1-0
6
CONTINUOUS
62
4
100
AcDbLine
10
0.000000000000
20
0.000000000000
30
0.0
11
0.000000000000
21
0.000000000000
31
0.0
0
LINE
5
5ae
100
AcDbEntity
8
1-0
6
CONTINUOUS
62
4
100
AcDbLine
10
0.000000000000
20
0.000000000000
30
0.0
11
0.000000000000
21
0.000000000000
31
0.0
0
LINE
5
5af
100
AcDbEntity
8
1-0
6
CONTINUOUS
62
4
100
AcDbLine
10
-5286.800000000000
20
5687.310000000000
30
0.0
11
-5078.260000000000
21
5998.980000000000
31
0.0
0
LINE
5
5b0
100
AcDbEntity
8
1-0
6
CONTINUOUS
62
4
100
AcDbLine
10
0.000000000000
20
0.000000000000
30
0.0
11
0.000000000000
21
0.000000000000
31
0.0
0
LINE
5
5b1
100
AcDbEntity
8
1-0
6
CONTINUOUS
62
4
100
AcDbLine
10
78254.419999999998
20
-4084.740000000000
30
0.0
11
78188.809999999998
21
-4428.510000000000
31
0.0
0
LINE
5
5b2
100
AcDbEntity
8
1-0
6
CONTINUOUS
62
4
100
AcDbLine
10
0.000000000000
20
0.000000000000
30
0.0
11
0.000000000000
21
0.000000000000
31
0.0
0
LINE
5
5b3
100
AcDbEntity
8
1-0
6
CONTINUOUS
62
4
100
AcDbLine
10
0.000000000000
20
0.000000000000
30
0.0
11
0.000000000000
21
0.000000000000
31
0.0
0
LINE
5
5b4
100
AcDbEntity
8
1-0
6
CONTINUOUS
62
4
100
AcDbLine
10
60000.089999999997
20
12150.990000000000
30
0.0
11
60119.050000000003
21
12637.790000000001
31
0.0
0
LINE
5
5b5
100
AcDbEntity
8
1-0
6
CONTINUOUS
62
4
100
AcDbLine
10
60119.050000000003
20
12637.790000000001
30
0.0
11
60236.690000000002
21
13124.820000000000
31
0.0
0
LINE
5
5b6
100
AcDbEntity
8
1-0
6
CONTINUOUS
62
4
100
AcDbLine
10
60236.690000000002
20
13124.820000000000
30
0.0
11
60351.739999999998
21
13612.309999999999
31
0.0
0
LINE
5
5b7
100
AcDbEntity
8
1-0
6
CONTINUOUS
62
4
100
AcDbLine
10
60351.739999999998
20
13612.309999999999
30
0.0
11
60462.830000000002
21
14100.490000000000
31
0.0
0
LINE
5
5b8
100
AcDbEntity
8
1-0
6
CONTINUOUS
62
4
100
AcDbLine
10
60462.830000000002
20
14100.490000000000
30
0.0
11
60568.690000000002
21
14589.570000000000
31
0.0
0
LINE
5
5b9
100
AcDbEntity
8
1-0
6
CONTINUOUS
62
4
100
AcDbLine
10
60568.690000000002
20
14589.570000000000
30
0.0
11
60667.970000000001
21
15079.809999999999
31
0.0
0
LINE
5
5ba
100
AcDbEntity
8
1-0
6
CONTINUOUS
62
4
100
AcDbLine
10
60667.970000000001
20
15079.809999999999
30
0.0
11
60759.400000000001
21
15571.420000000000
31
0.0
0
LINE
5
5bb
100
AcDbEntity
8
1-0
6
CONTINUOUS
62
4
100
AcDbLine
10
60759.400000000001
20
15571.420000000000
30
0.0
11
60841.639999999999
21
16064.610000000001
31
0.0
0
LINE
5
5bc
100
AcDbEntity
8
1-0
6
CONTINUOUS
62
4
100
AcDbLine
10
60841.639999999999
20
16064.610000000001
30
0.0
11
60913.389999999999
21
16559.639999999999
31
0.0
0
LINE
5
5bd
100
AcDbEntity
8
1-0
6
CONTINUOUS
62
4
100
AcDbLine
10
60913.389999999999
20
16559.639999999999
30
0.0
11
60973.320000000000
21
17056.740000000002
31
0.0
0
LINE
5
5be
100
AcDbEntity
8
1-0
6
CONTINUOUS
62
4
100
AcDbLine
10
60973.320000000000
20
17056.740000000002
30
0.0
11
61020.169999999998
21
17556.099999999999
31
0.0
0
LINE
5
5bf
100
AcDbEntity
8
1-0
6
CONTINUOUS
62
4
100
AcDbLine
10
61020.169999999998
20
17556.099999999999
30
0.0
11
61052.580000000002
21
18057.990000000002
31
0.0
0
LINE
5
5c0
100
AcDbEntity
8
1-0
6
CONTINUOUS
62
4
100
AcDbLine
10
61052.580000000002
20
18057.990000000002
30
0.0
11
61069.269999999997
21
18562.430000000000
31
0.0
0
LINE
5
5c1
100
AcDbEntity
8
1-0
6
CONTINUOUS
62
4
100
AcDbLine
10
61069.269999999997
20
18562.430000000000
30
0.0
11
61069.269999999997
21
19068.400000000001
31
0.0
0
LINE
5
5c2
100
AcDbEntity
8
1-0
6
CONTINUOUS
62
4
100
AcDbLine
10
61069.269999999997
20
19068.400000000001
30
0.0
11
61051.570000000000
21
19574.419999999998
31
0.0
0
LINE
5
5c3
100
AcDbEntity
8
1-0
6
CONTINUOUS
62
4
100
AcDbLine
10
61051.570000000000
20
19574.419999999998
30
0.0
11
61015.230000000003
21
20079.049999999999
31
0.0
0
LINE
5
5c4
100
AcDbEntity
8
1-0
6
CONTINUOUS
62
4
100
AcDbLine
10
61015.230000000003
20
20079.049999999999
30
0.0
11
60959.320000000000
21
20580.830000000002
31
0.0
0
LINE
5
5c5
100
AcDbEntity
8
1-0
6
CONTINUOUS
62
4
100
AcDbLine
10
60959.320000000000
20
20580.830000000002
30
0.0
11
60882.900000000001
21
21078.299999999999
31
0.0
0
LINE
5
5c6
100
AcDbEntity
8
1-0
6
CONTINUOUS
62
4
100
AcDbLine
10
60882.900000000001
20
21078.299999999999
30
0.0
11
60785.000000000000
21
21570.009999999998
31
0.0
0
LINE
5
5c7
100
AcDbEntity
8
1-0
6
CONTINUOUS
62
4
100
AcDbLine
10
60785.000000000000
20
21570.009999999998
30
0.0
11
60664.699999999997
21
22054.509999999998
31
0.0
0
LINE
5
5c8
100
AcDbEntity
8
1-0
6
CONTINUOUS
62
4
100
AcDbLine
10
60664.699999999997
20
22054.509999999998
30
0.0
11
60521.029999999999
21
22530.340000000000
31
0.0
0
LINE
5
5c9
100
AcDbEntity
8
1-0
6
CONTINUOUS
62
4
100
AcDbLine
10
60521.029999999999
20
22530.340000000000
30
0.0
11
60353.269999999997
21
22996.209999999999
31
0.0
0
LINE
5
5ca
100
AcDbEntity
8
1-0
6
CONTINUOUS
62
4
100
AcDbLine
10
60353.269999999997
20
22996.209999999999
30
0.0
11
60162.870000000003
21
23452.439999999999
31
0.0
0
LINE
5
5cb
100
AcDbEntity
8
1-0
6
CONTINUOUS
62
4
100
AcDbLine
10
60162.870000000003
20
23452.439999999999
30
0.0
11
59952.540000000001
21
23900.340000000000
31
0.0
0
LINE
5
5cc
100
AcDbEntity
8
1-0
6
CONTINUOUS
62
4
100
AcDbLine
10
59952.540000000001
20
23900.340000000000
30
0.0
11
59725.040000000001
21
24341.189999999999
31
0.0
0
LINE
5
5cd
100
AcDbEntity
8
1-0
6
CONTINUOUS
62
4
100
AcDbLine
10
59725.040000000001
20
24341.189999999999
30
0.0
11
59483.120000000003
21
24776.310000000001
31
0.0
0
LINE
5
5ce
100
AcDbEntity
8
1-0
6
CONTINUOUS
62
4
100
AcDbLine
10
59483.120000000003
20
24776.310000000001
30
0.0
11
59229.489999999998
21
25206.990000000002
31
0.0
0
LINE
5
5cf
100
AcDbEntity
8
1-0
6
CONTINUOUS
62
4
100
AcDbLine
10
59229.489999999998
20
25206.990000000002
30
0.0
11
58966.919999999998
21
25634.529999999999
31
0.0
0
LINE
5
5d0
100
AcDbEntity
8
1-0
6
CONTINUOUS
62
4
100
AcDbLine
10
58966.919999999998
20
25634.529999999999
30
0.0
11
58698.120000000003
21
26060.230000000000
31
0.0
0
LINE
5
5d1
100
AcDbEntity
8
1-0
6
CONTINUOUS
62
4
100
AcDbLine
10
58698.120000000003
20
26060.230000000000
30
0.0
11
58425.839999999997
21
26485.389999999999
31
0.0
0
LINE
5
5d2
100
AcDbEntity
8
1-0
6
CONTINUOUS
62
4
100
AcDbLine
10
58425.839999999997
20
26485.389999999999
30
0.0
11
58152.830000000002
21
26911.310000000001
31
0.0
0
LINE
5
5d3
100
AcDbEntity
8
1-0
6
CONTINUOUS
62
4
100
AcDbLine
10
58152.830000000002
20
26911.310000000001
30
0.0
11
57881.800000000003
21
27339.299999999999
31
0.0
0
LINE
5
5d4
100
AcDbEntity
8
1-0
6
CONTINUOUS
62
4
100
AcDbLine
10
57881.800000000003
20
27339.299999999999
30
0.0
11
57615.540000000001
21
27770.650000000001
31
0.0
0
LINE
5
5d5
100
AcDbEntity
8
1-0
6
CONTINUOUS
62
4
100
AcDbLine
10
57615.540000000001
20
27770.650000000001
30
0.0
11
57356.720000000001
21
28206.660000000000
31
0.0
0
LINE
5
5d6
100
AcDbEntity
8
1-0
6
CONTINUOUS
62
4
100
AcDbLine
10
57356.720000000001
20
28206.660000000000
30
0.0
11
57107.120000000003
21
28647.939999999999
31
0.0
0
LINE
5
5d7
100
AcDbEntity
8
1-0
6
CONTINUOUS
62
4
100
AcDbLine
10
57107.120000000003
20
28647.939999999999
30
0.0
11
56866.879999999997
21
29094.200000000001
31
0.0
0
LINE
5
5d8
100
AcDbEntity
8
1-0
6
CONTINUOUS
62
4
100
AcDbLine
10
56866.879999999997
20
29094.200000000001
30
0.0
11
56636.169999999998
21
29545.070000000000
31
0.0
0
LINE
5
5d9
100
AcDbEntity
8
1-0
6
CONTINUOUS
62
4
100
AcDbLine
10
56636.169999999998
20
29545.070000000000
30
0.0
11
56415.010000000002
21
30000.110000000001
31
0.0
0
LINE
5
5da
100
AcDbEntity
8
1-0
6
CONTINUOUS
62
4
100
AcDbLine
10
56415.010000000002
20
30000.110000000001
30
0.0
11
56203.519999999997
21
30458.939999999999
31
0.0
0
LINE
5
5db
100
AcDbEntity
8
1-0
6
CONTINUOUS
62
4
100
AcDbLine
10
56203.519999999997
20
30458.939999999999
30
0.0
11
56001.830000000002
21
30921.160000000000
31
0.0
0
LINE
5
5dc
100
AcDbEntity
8
1-0
6
CONTINUOUS
62
4
100
AcDbLine
10
56001.830000000002
20
30921.160000000000
30
0.0
11
55809.959999999999
21
31386.400000000001
31
0.0
0
LINE
5
5dd
100
AcDbEntity
8
1-0
6
CONTINUOUS
62
4
100
AcDbLine
10
55809.959999999999
20
31386.400000000001
30
0.0
11
55628.050000000003
21
31854.209999999999
31
0.0
0
LINE
5
5de
100
AcDbEntity
8
1-0
6
CONTINUOUS
62
4
100
AcDbLine
10
55628.050000000003
20
31854.209999999999
30
0.0
11
55456.180000000000
21
32324.240000000002
31
0.0
0
LINE
5
5df
100
AcDbEntity
8
1-0
6
CONTINUOUS
62
4
100
AcDbLine
10
55456.180000000000
20
32324.240000000002
30
0.0
11
55294.430000000000
21
32796.070000000000
31
0.0
0
LINE
5
5e0
100
AcDbEntity
8
1-0
6
CONTINUOUS
62
4
100
AcDbLine
10
55294.430000000000
20
32796.070000000000
30
0.0
11
55142.910000000003
21
33269.309999999998
31
0.0
0
LINE
5
5e1
100
AcDbEntity
8
1-0
6
CONTINUOUS
62
4
100
AcDbLine
10
55142.910000000003
20
33269.309999999998
30
0.0
11
55001.709999999999
21
33743.550000000003
31
0.0
0
LINE
5
5e2
100
AcDbEntity
8
1-0
6
CONTINUOUS
62
4
100
AcDbLine
10
55001.709999999999
20
33743.550000000003
30
0.0
11
54870.879999999997
21
34218.400000000001
31
0.0
0
LINE
5
5e3
100
AcDbEntity
8
1-0
6
CONTINUOUS
62
4
100
AcDbLine
10
54870.879999999997
20
34218.400000000001
30
0.0
11
54750.580000000002
21
34693.529999999999
31
0.0
0
LINE
5
5e4
100
AcDbEntity
8
1-0
6
CONTINUOUS
62
4
100
AcDbLine
10
54750.580000000002
20
34693.529999999999
30
0.0
11
54641.080000000002
21
35169.669999999998
31
0.0
0
LINE
5
5e5
100
AcDbEntity
8
1-0
6
CONTINUOUS
62
4
100
AcDbLine
10
54641.080000000002
20
35169.669999999998
30
0.0
11
54542.879999999997
21
35648.459999999999
31
0.0
0
LINE
5
5e6
100
AcDbEntity
8
1-0
6
CONTINUOUS
62
4
100
AcDbLine
10
54542.879999999997
20
35648.459999999999
30
0.0
11
54456.449999999997
21
36131.610000000001
31
0.0
0
LINE
5
5e7
100
AcDbEntity
8
1-0
6
CONTINUOUS
62
4
100
AcDbLine
10
54456.449999999997
20
36131.610000000001
30
0.0
11
54382.290000000001
21
36620.809999999998
31
0.0
0
LINE
5
5e8
100
AcDbEntity
8
1-0
6
CONTINUOUS
62
4
100
AcDbLine
10
54382.290000000001
20
36620.809999999998
30
0.0
11
54320.919999999998
21
37117.760000000002
31
0.0
0
LINE
5
5e9
100
AcDbEntity
8
1-0
6
CONTINUOUS
62
4
100
AcDbLine
10
54320.919999999998
20
37117.760000000002
30
0.0
11
54272.760000000002
21
37624.169999999998
31
0.0
0
LINE
5
5ea
100
AcDbEntity
8
1-0
6
CONTINUOUS
62
4
100
AcDbLine
10
54272.760000000002
20
37624.169999999998
30
0.0
11
54238.370000000003
21
38141.680000000000
31
0.0
0
LINE
5
5eb
100
AcDbEntity
8
1-0
6
CONTINUOUS
62
4
100
AcDbLine
10
54238.370000000003
20
38141.680000000000
30
0.0
11
54218.199999999997
21
38671.989999999998
31
0.0
0
LINE
5
5ec
100
AcDbEntity
8
1-0
6
CONTINUOUS
62
4
100
AcDbLine
10
54218.199999999997
20
38671.989999999998
30
0.0
11
54213.809999999998
21
39214.379999999997
31
0.0
0
LINE
5
5ed
100
AcDbEntity
8
1-0
6
CONTINUOUS
62
4
100
AcDbLine
10
54213.809999999998
20
39214.379999999997
30
0.0
11
54228.940000000002
21
39762.720000000001
31
0.0
0
LINE
5
5ee
100
AcDbEntity
8
1-0
6
CONTINUOUS
62
4
100
AcDbLine
10
54228.940000000002
20
39762.720000000001
30
0.0
11
54267.699999999997
21
40310.169999999998
31
0.0
0
LINE
5
5ef
100
AcDbEntity
8
1-0
6
CONTINUOUS
62
4
100
AcDbLine
10
54267.699999999997
20
40310.169999999998
30
0.0
11
54334.169999999998
21
40849.970000000001
31
0.0
0
LINE
5
5f0
100
AcDbEntity
8
1-0
6
CONTINUOUS
62
4
100
AcDbLine
10
54334.169999999998
20
40849.970000000001
30
0.0
11
54432.400000000001
21
41375.260000000002
31
0.0
0
LINE
5
5f1
100
AcDbEntity
8
1-0
6
CONTINUOUS
62
4
100
AcDbLine
10
54432.400000000001
20
41375.260000000002
30
0.0
11
54566.529999999999
21
41879.230000000003
31
0.0
0
LINE
5
5f2
100
AcDbEntity
8
1-0
6
CONTINUOUS
62
4
100
AcDbLine
10
54566.529999999999
20
41879.230000000003
30
0.0
11
54740.629999999997
21
42355.089999999997
31
0.0
0
LINE
5
5f3
100
AcDbEntity
8
1-0
6
CONTINUOUS
62
4
100
AcDbLine
10
54740.629999999997
20
42355.089999999997
30
0.0
11
54958.739999999998
21
42795.980000000003
31
0.0
0
LINE
5
5f4
100
AcDbEntity
8
1-0
6
CONTINUOUS
62
4
100
AcDbLine
10
54958.739999999998
20
42795.980000000003
30
0.0
11
55225.000000000000
21
43195.120000000003
31
0.0
0
LINE
5
5f5
100
AcDbEntity
8
1-0
6
CONTINUOUS
62
4
100
AcDbLine
10
55225.000000000000
20
43195.120000000003
30
0.0
11
55543.459999999999
21
43545.680000000000
31
0.0
0
LINE
5
5f6
100
AcDbEntity
8
1-0
6
CONTINUOUS
62
4
100
AcDbLine
10
55543.459999999999
20
43545.680000000000
30
0.0
11
55917.809999999998
21
43841.330000000002
31
0.0
0
LINE
5
5f7
100
AcDbEntity
8
1-0
6
CONTINUOUS
62
4
100
AcDbLine
10
55917.809999999998
20
43841.330000000002
30
0.0
11
56341.669999999998
21
44087.120000000003
31
0.0
0
LINE
5
5f8
100
AcDbEntity
8
1-0
6
CONTINUOUS
62
4
100
AcDbLine
10
56341.669999999998
20
44087.120000000003
30
0.0
11
56798.459999999999
21
44299.949999999997
31
0.0
0
LINE
5
5f9
100
AcDbEntity
8
1-0
6
CONTINUOUS
62
4
100
AcDbLine
10
56798.459999999999
20
44299.949999999997
30
0.0
11
57271.029999999999
21
44497.089999999997
31
0.0
0
LINE
5
5fa
100
AcDbEntity
8
1-0
6
CONTINUOUS
62
4
100
AcDbLine
10
57271.029999999999
20
44497.089999999997
30
0.0
11
57742.279999999999
21
44695.980000000003
31
0.0
0
LINE
5
5fb
100
AcDbEntity
8
1-0
6
CONTINUOUS
62
4
100
AcDbLine
10
57742.279999999999
20
44695.980000000003
30
0.0
11
58195.160000000003
21
44913.900000000001
31
0.0
0
LINE
5
5fc
100
AcDbEntity
8
1-0
6
CONTINUOUS
62
4
100
AcDbLine
10
58195.160000000003
20
44913.900000000001
30
0.0
11
58613.010000000002
21
45167.750000000000
31
0.0
0
LINE
5
5fd
100
AcDbEntity
8
1-0
6
CONTINUOUS
62
4
100
AcDbLine
10
58613.010000000002
20
45167.750000000000
30
0.0
11
58988.500000000000
21
45464.040000000001
31
0.0
0
LINE
5
5fe
100
AcDbEntity
8
1-0
6
CONTINUOUS
62
4
100
AcDbLine
10
58988.500000000000
20
45464.040000000001
30
0.0
11
59322.660000000003
21
45800.160000000003
31
0.0
0
LINE
5
5ff
100
AcDbEntity
8
1-0
6
CONTINUOUS
62
4
100
AcDbLine
10
59322.660000000003
20
45800.160000000003
30
0.0
11
59616.790000000001
21
46173.019999999997
31
0.0
0
LINE
5
600
100
AcDbEntity
8
1-0
6
CONTINUOUS
62
4
100
AcDbLine
10
59616.790000000001
20
46173.019999999997
30
0.0
11
59872.279999999999
21
46579.610000000001
31
0.0
0
LINE
5
601
100
AcDbEntity
8
1-0
6
CONTINUOUS
62
4
100
AcDbLine
10
59872.279999999999
20
46579.610000000001
30
0.0
11
60090.449999999997
21
47016.870000000003
31
0.0
0
LINE
5
602
100
AcDbEntity
8
1-0
6
CONTINUOUS
62
4
100
AcDbLine
10
60090.449999999997
20
47016.870000000003
30
0.0
11
60272.610000000001
21
47481.830000000002
31
0.0
0
LINE
5
603
100
AcDbEntity
8
1-0
6
CONTINUOUS
62
4
100
AcDbLine
10
60272.610000000001
20
47481.830000000002
30
0.0
11
60420.160000000003
21
47971.400000000001
31
0.0
0
LINE
5
604
100
AcDbEntity
8
1-0
6
CONTINUOUS
62
4
100
AcDbLine
10
60420.160000000003
20
47971.400000000001
30
0.0
11
60534.360000000001
21
48482.570000000000
31
0.0
0
LINE
5
605
100
AcDbEntity
8
1-0
6
CONTINUOUS
62
4
100
AcDbLine
10
60534.360000000001
20
48482.570000000000
30
0.0
11
60616.639999999999
21
49012.320000000000
31
0.0
0
LINE
5
606
100
AcDbEntity
8
1-0
6
CONTINUOUS
62
4
100
AcDbLine
10
60616.639999999999
20
49012.320000000000
30
0.0
11
60668.269999999997
21
49557.599999999999
31
0.0
0
LINE
5
607
100
AcDbEntity
8
1-0
6
CONTINUOUS
62
4
100
AcDbLine
10
60668.269999999997
20
49557.599999999999
30
0.0
11
60690.610000000001
21
50115.410000000003
31
0.0
0
LINE
5
608
100
AcDbEntity
8
1-0
6
CONTINUOUS
62
4
100
AcDbLine
10
60690.610000000001
20
50115.410000000003
30
0.0
11
60685.000000000000
21
50682.669999999998
31
0.0
0
LINE
5
609
100
AcDbEntity
8
1-0
6
CONTINUOUS
62
4
100
AcDbLine
10
60685.000000000000
20
50682.669999999998
30
0.0
11
60652.769999999997
21
51256.389999999999
31
0.0
0
LINE
5
60a
100
AcDbEntity
8
1-0
6
CONTINUOUS
62
4
100
AcDbLine
10
60652.769999999997
20
51256.389999999999
30
0.0
11
60595.279999999999
21
51833.519999999997
31
0.0
0
LINE
5
60b
100
AcDbEntity
8
1-0
6
CONTINUOUS
62
4
100
AcDbLine
10
60595.279999999999
20
51833.519999999997
30
0.0
11
60513.860000000001
21
52411.029999999999
31
0.0
0
LINE
5
60c
100
AcDbEntity
8
1-0
6
CONTINUOUS
62
4
100
AcDbLine
10
60513.860000000001
20
52411.029999999999
30
0.0
11
60409.849999999999
21
52985.889999999999
31
0.0
0
LINE
5
60d
100
AcDbEntity
8
1-0
6
CONTINUOUS
62
4
100
AcDbLine
10
60409.849999999999
20
52985.889999999999
30
0.0
11
60284.570000000000
21
53555.070000000000
31
0.0
0
LINE
5
60e
100
AcDbEntity
8
1-0
6
CONTINUOUS
62
4
100
AcDbLine
10
60284.570000000000
20
53555.070000000000
30
0.0
11
60139.370000000003
21
54115.529999999999
31
0.0
0
LINE
5
60f
100
AcDbEntity
8
1-0
6
CONTINUOUS
62
4
100
AcDbLine
10
60139.370000000003
20
54115.529999999999
30
0.0
11
59975.610000000001
21
54664.260000000002
31
0.0
0
LINE
5
610
100
AcDbEntity
8
1-0
6
CONTINUOUS
62
4
100
AcDbLine
10
59975.610000000001
20
54664.260000000002
30
0.0
11
59794.610000000001
21
55198.199999999997
31
0.0
0
LINE
5
611
100
AcDbEntity
8
1-0
6
CONTINUOUS
62
4
100
AcDbLine
10
59794.610000000001
20
55198.199999999997
30
0.0
11
59597.500000000000
21
55715.139999999999
31
0.0
0
LINE
5
612
100
AcDbEntity
8
1-0
6
CONTINUOUS
62
4
100
AcDbLine
10
59597.500000000000
20
55715.139999999999
30
0.0
11
59384.889999999999
21
56215.160000000003
31
0.0
0
LINE
5
613
100
AcDbEntity
8
1-0
6
CONTINUOUS
62
4
100
AcDbLine
10
59384.889999999999
20
56215.160000000003
30
0.0
11
59157.220000000001
21
56698.779999999999
31
0.0
0
LINE
5
614
100
AcDbEntity
8
1-0
6
CONTINUOUS
62
4
100
AcDbLine
10
59157.220000000001
20
56698.779999999999
30
0.0
11
58915.040000000001
21
57166.489999999998
31
0.0
0
LINE
5
615
100
AcDbEntity
8
1-0
6
CONTINUOUS
62
4
100
AcDbLine
10
58915.040000000001
20
57166.489999999998
30
0.0
11
58658.720000000001
21
57618.790000000001
31
0.0
0
LINE
5
616
100
AcDbEntity
8
1-0
6
CONTINUOUS
62
4
100
AcDbLine
10
58658.720000000001
20
57618.790000000001
30
0.0
11
58388.830000000002
21
58056.169999999998
31
0.0
0
LINE
5
617
100
AcDbEntity
8
1-0
6
CONTINUOUS
62
4
100
AcDbLine
10
58388.830000000002
20
58056.169999999998
30
0.0
11
58105.769999999997
21
58479.139999999999
31
0.0
0
LINE
5
618
100
AcDbEntity
8
1-0
6
CONTINUOUS
62
4
100
AcDbLine
10
58105.769999999997
20
58479.139999999999
30
0.0
11
57810.089999999997
21
58888.230000000003
31
0.0
0
LINE
5
619
100
AcDbEntity
8
1-0
6
CONTINUOUS
62
4
100
AcDbLine
10
57810.089999999997
20
58888.230000000003
30
0.0
11
57502.190000000002
21
59283.889999999999
31
0.0
0
LINE
5
61a
100
AcDbEntity
8
1-0
6
CONTINUOUS
62
4
100
AcDbLine
10
57502.190000000002
20
59283.889999999999
30
0.0
11
57182.620000000003
21
59666.669999999998
31
0.0
0
LINE
5
61b
100
AcDbEntity
8
1-0
6
CONTINUOUS
62
4
100
AcDbLine
10
57182.620000000003
20
59666.669999999998
30
0.0
11
56851.839999999997
21
60037.070000000000
31
0.0
0
LINE
5
61c
100
AcDbEntity
8
1-0
6
CONTINUOUS
62
4
100
AcDbLine
10
56851.839999999997
20
60037.070000000000
30
0.0
11
56510.290000000001
21
60395.550000000003
31
0.0
0
LINE
5
61d
100
AcDbEntity
8
1-0
6
CONTINUOUS
62
4
100
AcDbLine
10
56510.290000000001
20
60395.550000000003
30
0.0
11
56158.480000000003
21
60742.660000000003
31
0.0
0
LINE
5
61e
100
AcDbEntity
8
1-0
6
CONTINUOUS
62
4
100
AcDbLine
10
56158.480000000003
20
60742.660000000003
30
0.0
11
55796.870000000003
21
61078.870000000003
31
0.0
0
LINE
5
61f
100
AcDbEntity
8
1-0
6
CONTINUOUS
62
4
100
AcDbLine
10
55796.870000000003
20
61078.870000000003
30
0.0
11
55425.959999999999
21
61404.709999999999
31
0.0
0
LINE
5
620
100
AcDbEntity
8
1-0
6
CONTINUOUS
62
4
100
AcDbLine
10
55425.959999999999
20
61404.709999999999
30
0.0
11
55046.199999999997
21
61720.660000000003
31
0.0
0
LINE
5
621
100
AcDbEntity
8
1-0
6
CONTINUOUS
62
4
100
AcDbLine
10
55046.199999999997
20
61720.660000000003
30
0.0
11
54658.080000000002
21
62027.239999999998
31
0.0
0
LINE
5
622
100
AcDbEntity
8
1-0
6
CONTINUOUS
62
4
100
AcDbLine
10
54658.080000000002
20
62027.239999999998
30
0.0
11
54262.089999999997
21
62324.910000000003
31
0.0
0
LINE
5
623
100
AcDbEntity
8
1-0
6
CONTINUOUS
62
4
100
AcDbLine
10
54262.089999999997
20
62324.910000000003
30
0.0
11
53858.669999999998
21
62614.239999999998
31
0.0
0
LINE
5
624
100
AcDbEntity
8
1-0
6
CONTINUOUS
62
4
100
AcDbLine
10
53858.669999999998
20
62614.239999999998
30
0.0
11
53448.419999999998
21
62895.769999999997
31
0.0
0
LINE
5
625
100
AcDbEntity
8
1-0
6
CONTINUOUS
62
4
100
AcDbLine
10
53448.419999999998
20
62895.769999999997
30
0.0
11
53032.290000000001
21
63170.610000000001
31
0.0
0
LINE
5
626
100
AcDbEntity
8
1-0
6
CONTINUOUS
62
4
100
AcDbLine
10
53032.290000000001
20
63170.610000000001
30
0.0
11
52611.330000000002
21
63439.989999999998
31
0.0
0
LINE
5
627
100
AcDbEntity
8
1-0
6
CONTINUOUS
62
4
100
AcDbLine
10
52611.330000000002
20
63439.989999999998
30
0.0
11
52186.709999999999
21
63705.220000000001
31
0.0
0
LINE
5
628
100
AcDbEntity
8
1-0
6
CONTINUOUS
62
4
100
AcDbLine
10
52186.709999999999
20
63705.220000000001
30
0.0
11
51759.519999999997
21
63967.489999999998
31
0.0
0
LINE
5
629
100
AcDbEntity
8
1-0
6
CONTINUOUS
62
4
100
AcDbLine
10
51759.519999999997
20
63967.489999999998
30
0.0
11
51330.809999999998
21
64228.070000000000
31
0.0
0
LINE
5
62a
100
AcDbEntity
8
1-0
6
CONTINUOUS
62
4
100
AcDbLine
10
51330.809999999998
20
64228.070000000000
30
0.0
11
51182.279999999999
21
64318.099999999999
31
0.0
0
LINE
5
62b
100
AcDbEntity
8
1-0
6
CONTINUOUS
62
4
100
AcDbLine
10
63690.760000000002
20
11294.180000000000
30
0.0
11
63809.169999999998
21
11805.260000000000
31
0.0
0
LINE
5
62c
100
AcDbEntity
8
1-0
6
CONTINUOUS
62
4
100
AcDbLine
10
63809.169999999998
20
11805.260000000000
30
0.0
11
63925.230000000003
21
12315.990000000000
31
0.0
0
LINE
5
62d
100
AcDbEntity
8
1-0
6
CONTINUOUS
62
4
100
AcDbLine
10
63925.230000000003
20
12315.990000000000
30
0.0
11
64036.650000000001
21
12826.030000000001
31
0.0
0
LINE
5
62e
100
AcDbEntity
8
1-0
6
CONTINUOUS
62
4
100
AcDbLine
10
64036.650000000001
20
12826.030000000001
30
0.0
11
64141.050000000003
21
13335.010000000000
31
0.0
0
LINE
5
62f
100
AcDbEntity
8
1-0
6
CONTINUOUS
62
4
100
AcDbLine
10
64141.050000000003
20
13335.010000000000
30
0.0
11
64236.120000000003
21
13842.600000000000
31
0.0
0
LINE
5
630
100
AcDbEntity
8
1-0
6
CONTINUOUS
62
4
100
AcDbLine
10
64236.120000000003
20
13842.600000000000
30
0.0
11
64319.489999999998
21
14348.459999999999
31
0.0
0
LINE
5
631
100
AcDbEntity
8
1-0
6
CONTINUOUS
62
4
100
AcDbLine
10
64319.489999999998
20
14348.459999999999
30
0.0
11
64388.849999999999
21
14852.209999999999
31
0.0
0
LINE
5
632
100
AcDbEntity
8
1-0
6
CONTINUOUS
62
4
100
AcDbLine
10
64388.849999999999
20
14852.209999999999
30
0.0
11
64441.889999999999
21
15353.540000000001
31
0.0
0
LINE
5
633
100
AcDbEntity
8
1-0
6
CONTINUOUS
62
4
100
AcDbLine
10
64441.889999999999
20
15353.540000000001
30
0.0
11
64476.250000000000
21
15852.070000000000
31
0.0
0
LINE
5
634
100
AcDbEntity
8
1-0
6
CONTINUOUS
62
4
100
AcDbLine
10
64476.250000000000
20
15852.070000000000
30
0.0
11
64489.589999999997
21
16347.480000000000
31
0.0
0
LINE
5
635
100
AcDbEntity
8
1-0
6
CONTINUOUS
62
4
100
AcDbLine
10
64489.589999999997
20
16347.480000000000
30
0.0
11
64479.580000000002
21
16839.389999999999
31
0.0
0
LINE
5
636
100
AcDbEntity
8
1-0
6
CONTINUOUS
62
4
100
AcDbLine
10
64479.580000000002
20
16839.389999999999
30
0.0
11
64443.910000000003
21
17327.470000000001
31
0.0
0
LINE
5
637
100
AcDbEntity
8
1-0
6
CONTINUOUS
62
4
100
AcDbLine
10
64443.910000000003
20
17327.470000000001
30
0.0
11
64380.190000000002
21
17811.380000000001
31
0.0
0
LINE
5
638
100
AcDbEntity
8
1-0
6
CONTINUOUS
62
4
100
AcDbLine
10
64380.190000000002
20
17811.380000000001
30
0.0
11
64286.129999999997
21
18290.750000000000
31
0.0
0
LINE
5
639
100
AcDbEntity
8
1-0
6
CONTINUOUS
62
4
100
AcDbLine
10
64286.129999999997
20
18290.750000000000
30
0.0
11
64159.489999999998
21
18765.259999999998
31
0.0
0
LINE
5
63a
100
AcDbEntity
8
1-0
6
CONTINUOUS
62
4
100
AcDbLine
10
64159.489999999998
20
18765.259999999998
30
0.0
11
64002.559999999998
21
19235.369999999999
31
0.0
0
LINE
5
63b
100
AcDbEntity
8
1-0
6
CONTINUOUS
62
4
100
AcDbLine
10
64002.559999999998
20
19235.369999999999
30
0.0
11
63823.730000000003
21
19702.570000000000
31
0.0
0
LINE
5
63c
100
AcDbEntity
8
1-0
6
CONTINUOUS
62
4
100
AcDbLine
10
63823.730000000003
20
19702.570000000000
30
0.0
11
63631.930000000000
21
20168.450000000001
31
0.0
0
LINE
5
63d
100
AcDbEntity
8
1-0
6
CONTINUOUS
62
4
100
AcDbLine
10
63631.930000000000
20
20168.450000000001
30
0.0
11
63436.029999999999
21
20634.570000000000
31
0.0
0
LINE
5
63e
100
AcDbEntity
8
1-0
6
CONTINUOUS
62
4
100
AcDbLine
10
63436.029999999999
20
20634.570000000000
30
0.0
11
63244.870000000003
21
21102.560000000001
31
0.0
0
LINE
5
63f
100
AcDbEntity
8
1-0
6
CONTINUOUS
62
4
100
AcDbLine
10
63244.870000000003
20
21102.560000000001
30
0.0
11
63067.320000000000
21
21573.959999999999
31
0.0
0
LINE
5
640
100
AcDbEntity
8
1-0
6
CONTINUOUS
62
4
100
AcDbLine
10
63067.320000000000
20
21573.959999999999
30
0.0
11
62912.320000000000
21
22050.389999999999
31
0.0
0
LINE
5
641
100
AcDbEntity
8
1-0
6
CONTINUOUS
62
4
100
AcDbLine
10
62912.320000000000
20
22050.389999999999
30
0.0
11
62788.660000000003
21
22533.410000000000
31
0.0
0
LINE
5
642
100
AcDbEntity
8
1-0
6
CONTINUOUS
62
4
100
AcDbLine
10
62788.660000000003
20
22533.410000000000
30
0.0
11
62705.230000000003
21
23024.590000000000
31
0.0
0
LINE
5
643
100
AcDbEntity
8
1-0
6
CONTINUOUS
62
4
100
AcDbLine
10
62705.230000000003
20
23024.590000000000
30
0.0
11
62664.550000000003
21
23524.209999999999
31
0.0
0
LINE
5
644
100
AcDbEntity
8
1-0
6
CONTINUOUS
62
4
100
AcDbLine
10
62664.550000000003
20
23524.209999999999
30
0.0
11
62655.980000000003
21
24029.820000000000
31
0.0
0
LINE
5
645
100
AcDbEntity
8
1-0
6
CONTINUOUS
62
4
100
AcDbLine
10
62655.980000000003
20
24029.820000000000
30
0.0
11
62667.199999999997
21
24538.590000000000
31
0.0
0
LINE
5
646
100
AcDbEntity
8
1-0
6
CONTINUOUS
62
4
100
AcDbLine
10
62667.199999999997
20
24538.590000000000
30
0.0
11
62685.879999999997
21
25047.770000000000
31
0.0
0
LINE
5
647
100
AcDbEntity
8
1-0
6
CONTINUOUS
62
4
100
AcDbLine
10
62685.879999999997
20
25047.770000000000
30
0.0
11
62699.709999999999
21
25554.500000000000
31
0.0
0
LINE
5
648
100
AcDbEntity
8
1-0
6
CONTINUOUS
62
4
100
AcDbLine
10
62699.709999999999
20
25554.500000000000
30
0.0
11
62696.379999999997
21
26056.000000000000
31
0.0
0
LINE
5
649
100
AcDbEntity
8
1-0
6
CONTINUOUS
62
4
100
AcDbLine
10
62696.379999999997
20
26056.000000000000
30
0.0
11
62663.570000000000
21
26549.470000000001
31
0.0
0
LINE
5
64a
100
AcDbEntity
8
1-0
6
CONTINUOUS
62
4
100
AcDbLine
10
62663.570000000000
20
26549.470000000001
30
0.0
11
62589.019999999997
21
27032.110000000001
31
0.0
0
LINE
5
64b
100
AcDbEntity
8
1-0
6
CONTINUOUS
62
4
100
AcDbLine
10
62589.019999999997
20
27032.110000000001
30
0.0
11
62461.480000000003
21
27501.430000000000
31
0.0
0
LINE
5
64c
100
AcDbEntity
8
1-0
6
CONTINUOUS
62
4
100
AcDbLine
10
62461.480000000003
20
27501.430000000000
30
0.0
11
62285.400000000001
21
27959.169999999998
31
0.0
0
LINE
5
64d
100
AcDbEntity
8
1-0
6
CONTINUOUS
62
4
100
AcDbLine
10
62285.400000000001
20
27959.169999999998
30
0.0
11
62076.199999999997
21
28410.150000000001
31
0.0
0
LINE
5
64e
100
AcDbEntity
8
1-0
6
CONTINUOUS
62
4
100
AcDbLine
10
62076.199999999997
20
28410.150000000001
30
0.0
11
61849.550000000003
21
28859.209999999999
31
0.0
0
LINE
5
64f
100
AcDbEntity
8
1-0
6
CONTINUOUS
62
4
100
AcDbLine
10
61849.550000000003
20
28859.209999999999
30
0.0
11
61621.180000000000
21
29311.180000000000
31
0.0
0
LINE
5
650
100
AcDbEntity
8
1-0
6
CONTINUOUS
62
4
100
AcDbLine
10
61621.180000000000
20
29311.180000000000
30
0.0
11
61406.739999999998
21
29770.930000000000
31
0.0
0
LINE
5
651
100
AcDbEntity
8
1-0
6
CONTINUOUS
62
4
100
AcDbLine
10
61406.739999999998
20
29770.930000000000
30
0.0
11
61221.959999999999
21
30243.310000000001
31
0.0
0
LINE
5
652
100
AcDbEntity
8
1-0
6
CONTINUOUS
62
4
100
AcDbLine
10
61221.959999999999
20
30243.310000000001
30
0.0
11
61080.720000000001
21
30732.439999999999
31
0.0
0
LINE
5
653
100
AcDbEntity
8
1-0
6
CONTINUOUS
62
4
100
AcDbLine
10
61080.720000000001
20
30732.439999999999
30
0.0
11
60976.070000000000
21
31234.180000000000
31
0.0
0
LINE
5
654
100
AcDbEntity
8
1-0
6
CONTINUOUS
62
4
100
AcDbLine
10
60976.070000000000
20
31234.180000000000
30
0.0
11
60887.690000000002
21
31739.029999999999
31
0.0
0
LINE
5
655
100
AcDbEntity
8
1-0
6
CONTINUOUS
62
4
100
AcDbLine
10
60887.690000000002
20
31739.029999999999
30
0.0
11
60794.919999999998
21
32237.389999999999
31
0.0
0
LINE
5
656
100
AcDbEntity
8
1-0
6
CONTINUOUS
62
4
100
AcDbLine
10
60794.919999999998
20
32237.389999999999
30
0.0
11
60677.150000000001
21
32719.560000000001
31
0.0
0
LINE
5
657
100
AcDbEntity
8
1-0
6
CONTINUOUS
62
4
100
AcDbLine
10
60677.150000000001
20
32719.560000000001
30
0.0
11
60513.820000000000
21
33176.050000000003
31
0.0
0
LINE
5
658
100
AcDbEntity
8
1-0
6
CONTINUOUS
62
4
100
AcDbLine
10
60513.820000000000
20
33176.050000000003
30
0.0
11
60285.309999999998
21
33597.739999999998
31
0.0
0
LINE
5
659
100
AcDbEntity
8
1-0
6
CONTINUOUS
62
4
100
AcDbLine
10
60285.309999999998
20
33597.739999999998
30
0.0
11
59992.739999999998
21
33986.529999999999
31
0.0
0
LINE
5
65a
100
AcDbEntity
8
1-0
6
CONTINUOUS
62
4
100
AcDbLine
10
59992.739999999998
20
33986.529999999999
30
0.0
11
59657.070000000000
21
34354.910000000003
31
0.0
0
LINE
5
65b
100
AcDbEntity
8
1-0
6
CONTINUOUS
62
4
100
AcDbLine
10
59657.070000000000
20
34354.910000000003
30
0.0
11
59299.989999999998
21
34715.690000000002
31
0.0
0
LINE
5
65c
100
AcDbEntity
8
1-0
6
CONTINUOUS
62
4
100
AcDbLine
10
59299.989999999998
20
34715.690000000002
30
0.0
11
58943.180000000000
21
35081.750000000000
31
0.0
0
LINE
5
65d
100
AcDbEntity
8
1-0
6
CONTINUOUS
62
4
100
AcDbLine
10
58943.180000000000
20
35081.750000000000
30
0.0
11
58608.339999999997
21
35465.900000000001
31
0.0
0
LINE
5
65e
100
AcDbEntity
8
1-0
6
CONTINUOUS
62
4
100
AcDbLine
10
58608.339999999997
20
35465.900000000001
30
0.0
11
58317.110000000001
21
35880.940000000002
31
0.0
0
LINE
5
65f
100
AcDbEntity
8
1-0
6
CONTINUOUS
62
4
100
AcDbLine
10
58317.110000000001
20
35880.940000000002
30
0.0
11
58083.830000000002
21
36331.410000000003
31
0.0
0
LINE
5
660
100
AcDbEntity
8
1-0
6
CONTINUOUS
62
4
100
AcDbLine
10
58083.830000000002
20
36331.410000000003
30
0.0
11
57910.339999999997
21
36807.910000000003
31
0.0
0
LINE
5
661
100
AcDbEntity
8
1-0
6
CONTINUOUS
62
4
100
AcDbLine
10
57910.339999999997
20
36807.910000000003
30
0.0
11
57797.239999999998
21
37299.519999999997
31
0.0
0
LINE
5
662
100
AcDbEntity
8
1-0
6
CONTINUOUS
62
4
100
AcDbLine
10
57797.239999999998
20
37299.519999999997
30
0.0
11
57745.019999999997
21
37795.400000000001
31
0.0
0
LINE
5
663
100
AcDbEntity
8
1-0
6
CONTINUOUS
62
4
100
AcDbLine
10
57745.019999999997
20
37795.400000000001
30
0.0
11
57750.150000000001
21
38288.690000000002
31
0.0
0
LINE
5
664
100
AcDbEntity
8
1-0
6
CONTINUOUS
62
4
100
AcDbLine
10
57750.150000000001
20
38288.690000000002
30
0.0
11
57800.870000000003
21
38780.510000000002
31
0.0
0
LINE
5
665
100
AcDbEntity
8
1-0
6
CONTINUOUS
62
4
100
AcDbLine
10
57800.870000000003
20
38780.510000000002
30
0.0
11
57884.459999999999
21
39272.849999999999
31
0.0
0
LINE
5
666
100
AcDbEntity
8
1-0
6
CONTINUOUS
62
4
100
AcDbLine
10
57884.459999999999
20
39272.849999999999
30
0.0
11
57988.250000000000
21
39767.720000000001
31
0.0
0
LINE
5
667
100
AcDbEntity
8
1-0
6
CONTINUOUS
62
4
100
AcDbLine
10
57988.250000000000
20
39767.720000000001
30
0.0
11
58099.519999999997
21
40267.169999999998
31
0.0
0
LINE
5
668
100
AcDbEntity
8
1-0
6
CONTINUOUS
62
4
100
AcDbLine
10
58099.519999999997
20
40267.169999999998
30
0.0
11
58206.389999999999
21
40772.820000000000
31
0.0
0
LINE
5
669
100
AcDbEntity
8
1-0
6
CONTINUOUS
62
4
100
AcDbLine
10
58206.389999999999
20
40772.820000000000
30
0.0
11
58310.879999999997
21
41280.540000000001
31
0.0
0
LINE
5
66a
100
AcDbEntity
8
1-0
6
CONTINUOUS
62
4
100
AcDbLine
10
58310.879999999997
20
41280.540000000001
30
0.0
11
58427.209999999999
21
41781.089999999997
31
0.0
0
LINE
5
66b
100
AcDbEntity
8
1-0
6
CONTINUOUS
62
4
100
AcDbLine
10
58427.209999999999
20
41781.089999999997
30
0.0
11
58569.910000000003
21
42265.129999999997
31
0.0
0
LINE
5
66c
100
AcDbEntity
8
1-0
6
CONTINUOUS
62
4
100
AcDbLine
10
58569.910000000003
20
42265.129999999997
30
0.0
11
58753.540000000001
21
42723.199999999997
31
0.0
0
LINE
5
66d
100
AcDbEntity
8
1-0
6
CONTINUOUS
62
4
100
AcDbLine
10
58753.540000000001
20
42723.199999999997
30
0.0
11
58992.669999999998
21
43145.959999999999
31
0.0
0
LINE
5
66e
100
AcDbEntity
8
1-0
6
CONTINUOUS
62
4
100
AcDbLine
10
58992.669999999998
20
43145.959999999999
30
0.0
11
59298.370000000003
21
43526.389999999999
31
0.0
0
LINE
5
66f
100
AcDbEntity
8
1-0
6
CONTINUOUS
62
4
100
AcDbLine
10
59298.370000000003
20
43526.389999999999
30
0.0
11
59653.379999999997
21
43876.540000000001
31
0.0
0
LINE
5
670
100
AcDbEntity
8
1-0
6
CONTINUOUS
62
4
100
AcDbLine
10
59653.379999999997
20
43876.540000000001
30
0.0
11
60026.970000000001
21
44217.790000000001
31
0.0
0
LINE
5
671
100
AcDbEntity
8
1-0
6
CONTINUOUS
62
4
100
AcDbLine
10
60026.970000000001
20
44217.790000000001
30
0.0
11
60388.250000000000
21
44571.459999999999
31
0.0
0
LINE
5
672
100
AcDbEntity
8
1-0
6
CONTINUOUS
62
4
100
AcDbLine
10
60388.250000000000
20
44571.459999999999
30
0.0
11
60710.570000000000
21
44955.680000000000
31
0.0
0
LINE
5
673
100
AcDbEntity
8
1-0
6
CONTINUOUS
62
4
100
AcDbLine
10
60710.570000000000
20
44955.680000000000
30
0.0
11
60991.150000000001
21
45370.570000000000
31
0.0
0
LINE
5
674
100
AcDbEntity
8
1-0
6
CONTINUOUS
62
4
100
AcDbLine
10
60991.150000000001
20
45370.570000000000
30
0.0
11
61235.169999999998
21
45810.230000000003
31
0.0
0
LINE
5
675
100
AcDbEntity
8
1-0
6
CONTINUOUS
62
4
100
AcDbLine
10
61235.169999999998
20
45810.230000000003
30
0.0
11
61447.870000000003
21
46268.669999999998
31
0.0
0
LINE
5
676
100
AcDbEntity
8
1-0
6
CONTINUOUS
62
4
100
AcDbLine
10
61447.870000000003
20
46268.669999999998
30
0.0
11
61634.489999999998
21
46740.010000000002
31
0.0
0
LINE
5
677
100
AcDbEntity
8
1-0
6
CONTINUOUS
62
4
100
AcDbLine
10
61634.489999999998
20
46740.010000000002
30
0.0
11
61800.290000000001
21
47218.250000000000
31
0.0
0
LINE
5
678
100
AcDbEntity
8
1-0
6
CONTINUOUS
62
4
100
AcDbLine
10
61800.290000000001
20
47218.250000000000
30
0.0
11
61950.379999999997
21
47697.680000000000
31
0.0
0
LINE
5
679
100
AcDbEntity
8
1-0
6
CONTINUOUS
62
4
100
AcDbLine
10
61950.379999999997
20
47697.680000000000
30
0.0
11
62087.680000000000
21
48176.260000000002
31
0.0
0
LINE
5
67a
100
AcDbEntity
8
1-0
6
CONTINUOUS
62
4
100
AcDbLine
10
62087.680000000000
20
48176.260000000002
30
0.0
11
62213.620000000003
21
48654.680000000000
31
0.0
0
LINE
5
67b
100
AcDbEntity
8
1-0
6
CONTINUOUS
62
4
100
AcDbLine
10
62213.620000000003
20
48654.680000000000
30
0.0
11
62329.470000000001
21
49133.750000000000
31
0.0
0
LINE
5
67c
100
AcDbEntity
8
1-0
6
CONTINUOUS
62
4
100
AcDbLine
10
62329.470000000001
20
49133.750000000000
30
0.0
11
62436.519999999997
21
49614.250000000000
31
0.0
0
LINE
5
67d
100
AcDbEntity
8
1-0
6
CONTINUOUS
62
4
100
AcDbLine
10
62436.519999999997
20
49614.250000000000
30
0.0
11
62536.160000000003
21
50097.040000000001
31
0.0
0
LINE
5
67e
100
AcDbEntity
8
1-0
6
CONTINUOUS
62
4
100
AcDbLine
10
62536.160000000003
20
50097.040000000001
30
0.0
11
62629.639999999999
21
50582.839999999997
31
0.0
0
LINE
5
67f
100
AcDbEntity
8
1-0
6
CONTINUOUS
62
4
100
AcDbLine
10
62629.639999999999
20
50582.839999999997
30
0.0
11
62718.290000000001
21
51072.470000000001
31
0.0
0
LINE
5
680
100
AcDbEntity
8
1-0
6
CONTINUOUS
62
4
100
AcDbLine
10
62718.290000000001
20
51072.470000000001
30
0.0
11
62803.400000000001
21
51566.760000000002
31
0.0
0
LINE
5
681
100
AcDbEntity
8
1-0
6
CONTINUOUS
62
4
100
AcDbLine
10
62803.400000000001
20
51566.760000000002
30
0.0
11
62886.349999999999
21
52066.510000000002
31
0.0
0
LINE
5
682
100
AcDbEntity
8
1-0
6
CONTINUOUS
62
4
100
AcDbLine
10
62886.349999999999
20
52066.510000000002
30
0.0
11
62968.379999999997
21
52572.470000000001
31
0.0
0
LINE
5
683
100
AcDbEntity
8
1-0
6
CONTINUOUS
62
4
100
AcDbLine
10
62968.379999999997
20
52572.470000000001
30
0.0
11
63050.809999999998
21
53085.470000000001
31
0.0
0
LINE
5
684
100
AcDbEntity
8
1-0
6
CONTINUOUS
62
4
100
AcDbLine
10
63050.809999999998
20
53085.470000000001
30
0.0
11
63133.849999999999
21
53605.669999999998
31
0.0
0
LINE
5
685
100
AcDbEntity
8
1-0
6
CONTINUOUS
62
4
100
AcDbLine
10
63133.849999999999
20
53605.669999999998
30
0.0
11
63211.980000000003
21
54130.019999999997
31
0.0
0
LINE
5
686
100
AcDbEntity
8
1-0
6
CONTINUOUS
62
4
100
AcDbLine
10
63211.980000000003
20
54130.019999999997
30
0.0
11
63277.980000000003
21
54654.559999999998
31
0.0
0
LINE
5
687
100
AcDbEntity
8
1-0
6
CONTINUOUS
62
4
100
AcDbLine
10
63277.980000000003
20
54654.559999999998
30
0.0
11
63324.760000000002
21
55175.279999999999
31
0.0
0
LINE
5
688
100
AcDbEntity
8
1-0
6
CONTINUOUS
62
4
100
AcDbLine
10
63324.760000000002
20
55175.279999999999
30
0.0
11
63345.089999999997
21
55688.250000000000
31
0.0
0
LINE
5
689
100
AcDbEntity
8
1-0
6
CONTINUOUS
62
4
100
AcDbLine
10
63345.089999999997
20
55688.250000000000
30
0.0
11
63331.820000000000
21
56189.500000000000
31
0.0
0
LINE
5
68a
100
AcDbEntity
8
1-0
6
CONTINUOUS
62
4
100
AcDbLine
10
63331.820000000000
20
56189.500000000000
30
0.0
11
63277.739999999998
21
56675.000000000000
31
0.0
0
LINE
5
68b
100
AcDbEntity
8
1-0
6
CONTINUOUS
62
4
100
AcDbLine
10
63277.739999999998
20
56675.000000000000
30
0.0
11
63175.720000000001
21
57140.820000000000
31
0.0
0
LINE
5
68c
100
AcDbEntity
8
1-0
6
CONTINUOUS
62
4
100
AcDbLine
10
63175.720000000001
20
57140.820000000000
30
0.0
11
63018.529999999999
21
57582.970000000001
31
0.0
0
LINE
5
68d
100
AcDbEntity
8
1-0
6
CONTINUOUS
62
4
100
AcDbLine
10
63018.529999999999
20
57582.970000000001
30
0.0
11
62802.269999999997
21
57999.190000000002
31
0.0
0
LINE
5
68e
100
AcDbEntity
8
1-0
6
CONTINUOUS
62
4
100
AcDbLine
10
62802.269999999997
20
57999.190000000002
30
0.0
11
62534.360000000001
21
58393.209999999999
31
0.0
0
LINE
5
68f
100
AcDbEntity
8
1-0
6
CONTINUOUS
62
4
100
AcDbLine
10
62534.360000000001
20
58393.209999999999
30
0.0
11
62224.639999999999
21
58769.970000000001
31
0.0
0
LINE
5
690
100
AcDbEntity
8
1-0
6
CONTINUOUS
62
4
100
AcDbLine
10
62224.639999999999
20
58769.970000000001
30
0.0
11
61882.900000000001
21
59134.540000000001
31
0.0
0
LINE
5
691
100
AcDbEntity
8
1-0
6
CONTINUOUS
62
4
100
AcDbLine
10
61882.900000000001
20
59134.540000000001
30
0.0
11
61518.980000000003
21
59491.809999999998
31
0.0
0
LINE
5
692
100
AcDbEntity
8
1-0
6
CONTINUOUS
62
4
100
AcDbLine
10
61518.980000000003
20
59491.809999999998
30
0.0
11
61142.669999999998
21
59846.849999999999
31
0.0
0
LINE
5
693
100
AcDbEntity
8
1-0
6
CONTINUOUS
62
4
100
AcDbLine
10
61142.669999999998
20
59846.849999999999
30
0.0
11
60763.849999999999
21
60204.570000000000
31
0.0
0
LINE
5
694
100
AcDbEntity
8
1-0
6
CONTINUOUS
62
4
100
AcDbLine
10
60763.849999999999
20
60204.570000000000
30
0.0
11
60392.300000000003
21
60570.059999999998
31
0.0
0
LINE
5
695
100
AcDbEntity
8
1-0
6
CONTINUOUS
62
4
100
AcDbLine
10
60392.300000000003
20
60570.059999999998
30
0.0
11
60037.870000000003
21
60948.199999999997
31
0.0
0
LINE
5
696
100
AcDbEntity
8
1-0
6
CONTINUOUS
62
4
100
AcDbLine
10
60037.870000000003
20
60948.199999999997
30
0.0
11
59709.959999999999
21
61343.769999999997
31
0.0
0
LINE
5
697
100
AcDbEntity
8
1-0
6
CONTINUOUS
62
4
100
AcDbLine
10
59709.959999999999
20
61343.769999999997
30
0.0
11
59409.519999999997
21
61756.239999999998
31
0.0
0
LINE
5
698
100
AcDbEntity
8
1-0
6
CONTINUOUS
62
4
100
AcDbLine
10
59409.519999999997
20
61756.239999999998
30
0.0
11
59129.360000000001
21
62179.860000000001
31
0.0
0
LINE
5
699
100
AcDbEntity
8
1-0
6
CONTINUOUS
62
4
100
AcDbLine
10
59129.360000000001
20
62179.860000000001
30
0.0
11
58861.870000000003
21
62608.779999999999
31
0.0
0
LINE
5
69a
100
AcDbEntity
8
1-0
6
CONTINUOUS
62
4
100
AcDbLine
10
58861.870000000003
20
62608.779999999999
30
0.0
11
58599.519999999997
21
63037.099999999999
31
0.0
0
LINE
5
69b
100
AcDbEntity
8
1-0
6
CONTINUOUS
62
4
100
AcDbLine
10
58599.519999999997
20
63037.099999999999
30
0.0
11
58334.720000000001
21
63458.879999999997
31
0.0
0
LINE
5
69c
100
AcDbEntity
8
1-0
6
CONTINUOUS
62
4
100
AcDbLine
10
58334.720000000001
20
63458.879999999997
30
0.0
11
58059.930000000000
21
63868.269999999997
31
0.0
0
LINE
5
69d
100
AcDbEntity
8
1-0
6
CONTINUOUS
62
4
100
AcDbLine
10
58059.930000000000
20
63868.269999999997
30
0.0
11
57767.580000000002
21
64259.360000000001
31
0.0
0
LINE
5
69e
100
AcDbEntity
8
1-0
6
CONTINUOUS
62
4
100
AcDbLine
10
57767.580000000002
20
64259.360000000001
30
0.0
11
57450.220000000001
21
64626.389999999999
31
0.0
0
LINE
5
69f
100
AcDbEntity
8
1-0
6
CONTINUOUS
62
4
100
AcDbLine
10
57450.220000000001
20
64626.389999999999
30
0.0
11
57105.250000000000
21
64967.459999999999
31
0.0
0
LINE
5
6a0
100
AcDbEntity
8
1-0
6
CONTINUOUS
62
4
100
AcDbLine
10
57105.250000000000
20
64967.459999999999
30
0.0
11
56735.070000000000
21
65284.930000000000
31
0.0
0
LINE
5
6a1
100
AcDbEntity
8
1-0
6
CONTINUOUS
62
4
100
AcDbLine
10
56735.070000000000
20
65284.930000000000
30
0.0
11
56342.529999999999
21
65581.440000000002
31
0.0
0
LINE
5
6a2
100
AcDbEntity
8
1-0
6
CONTINUOUS
62
4
100
AcDbLine
10
56342.529999999999
20
65581.440000000002
30
0.0
11
55930.389999999999
21
65859.539999999994
31
0.0
0
LINE
5
6a3
100
AcDbEntity
8
1-0
6
CONTINUOUS
62
4
100
AcDbLine
10
55930.389999999999
20
65859.539999999994
30
0.0
11
55501.400000000001
21
66121.869999999995
31
0.0
0
LINE
5
6a4
100
AcDbEntity
8
1-0
6
CONTINUOUS
62
4
100
AcDbLine
10
55501.400000000001
20
66121.869999999995
30
0.0
11
55058.349999999999
21
66371.020000000004
31
0.0
0
LINE
5
6a5
100
AcDbEntity
8
1-0
6
CONTINUOUS
62
4
100
AcDbLine
10
55058.349999999999
20
66371.020000000004
30
0.0
11
54604.000000000000
21
66609.600000000006
31
0.0
0
LINE
5
6a6
100
AcDbEntity
8
1-0
6
CONTINUOUS
62
4
100
AcDbLine
10
54604.000000000000
20
66609.600000000006
30
0.0
11
54141.139999999999
21
66840.169999999998
31
0.0
0
LINE
5
6a7
100
AcDbEntity
8
1-0
6
CONTINUOUS
62
4
100
AcDbLine
10
54141.139999999999
20
66840.169999999998
30
0.0
11
53672.550000000003
21
67065.389999999999
31
0.0
0
LINE
5
6a8
100
AcDbEntity
8
1-0
6
CONTINUOUS
62
4
100
AcDbLine
10
53672.550000000003
20
67065.389999999999
30
0.0
11
53200.959999999999
21
67287.830000000002
31
0.0
0
LINE
5
6a9
100
AcDbEntity
8
1-0
6
CONTINUOUS
62
4
100
AcDbLine
10
53200.959999999999
20
67287.830000000002
30
0.0
11
53168.550000000003
21
67303.059999999998
31
0.0
0
LINE
5
6aa
100
AcDbEntity
8
1-0
6
DOT
62
4
100
AcDbLine
10
44010.379999999997
20
17932.330000000002
30
0.0
11
44531.430000000000
21
17773.290000000001
31
0.0
0
LINE
5
6ab
100
AcDbEntity
8
1-0
6
DOT
62
4
100
AcDbLine
10
44531.430000000000
20
17773.290000000001
30
0.0
11
45049.889999999999
21
17625.799999999999
31
0.0
0
LINE
5
6ac
100
AcDbEntity
8
1-0
6
DOT
62
4
100
AcDbLine
10
45049.889999999999
20
17625.799999999999
30
0.0
11
45563.199999999997
21
17501.439999999999
31
0.0
0
LINE
5
6ad
100
AcDbEntity
8
1-0
6
DOT
62
4
100
AcDbLine
10
45563.199999999997
20
17501.439999999999
30
0.0
11
46068.760000000002
21
17411.759999999998
31
0.0
0
LINE
5
6ae
100
AcDbEntity
8
1-0
6
DOT
62
4
100
AcDbLine
10
46068.760000000002
20
17411.759999999998
30
0.0
11
46563.959999999999
21
17368.349999999999
31
0.0
0
LINE
5
6af
100
AcDbEntity
8
1-0
6
DOT
62
4
100
AcDbLine
10
46563.959999999999
20
17368.349999999999
30
0.0
11
47046.260000000002
21
17382.740000000002
31
0.0
0
LINE
5
6b0
100
AcDbEntity
8
1-0
6
DOT
62
4
100
AcDbLine
10
47046.260000000002
20
17382.740000000002
30
0.0
11
47513.029999999999
21
17466.529999999999
31
0.0
0
LINE
5
6b1
100
AcDbEntity
8
1-0
6
DOT
62
4
100
AcDbLine
10
47513.029999999999
20
17466.529999999999
30
0.0
11
47961.820000000000
21
17630.590000000000
31
0.0
0
LINE
5
6b2
100
AcDbEntity
8
1-0
6
DOT
62
4
100
AcDbLine
10
47961.820000000000
20
17630.590000000000
30
0.0
11
48391.599999999999
21
17870.720000000001
31
0.0
0
LINE
5
6b3
100
AcDbEntity
8
1-0
6
DOT
62
4
100
AcDbLine
10
48391.599999999999
20
17870.720000000001
30
0.0
11
48803.040000000001
21
18167.389999999999
31
0.0
0
LINE
5
6b4
100
AcDbEntity
8
1-0
6
DOT
62
4
100
AcDbLine
10
48803.040000000001
20
18167.389999999999
30
0.0
11
49196.809999999998
21
18500.450000000001
31
0.0
0
LINE
5
6b5
100
AcDbEntity
8
1-0
6
DOT
62
4
100
AcDbLine
10
49196.809999999998
20
18500.450000000001
30
0.0
11
49573.400000000001
21
18850.790000000001
31
0.0
0
LINE
5
6b6
100
AcDbEntity
8
1-0
6
DOT
62
4
100
AcDbLine
10
49573.400000000001
20
18850.790000000001
30
0.0
11
49930.330000000002
21
19212.730000000000
31
0.0
0
LINE
5
6b7
100
AcDbEntity
8
1-0
6
DOT
62
4
100
AcDbLine
10
49930.330000000002
20
19212.730000000000
30
0.0
11
50263.309999999998
21
19589.590000000000
31
0.0
0
LINE
5
6b8
100
AcDbEntity
8
1-0
6
DOT
62
4
100
AcDbLine
10
50263.309999999998
20
19589.590000000000
30
0.0
11
50567.930000000000
21
19984.849999999999
31
0.0
0
LINE
5
6b9
100
AcDbEntity
8
1-0
6
DOT
62
4
100
AcDbLine
10
50567.930000000000
20
19984.849999999999
30
0.0
11
50839.839999999997
21
20402.000000000000
31
0.0
0
LINE
5
6ba
100
AcDbEntity
8
1-0
6
DOT
62
4
100
AcDbLine
10
50839.839999999997
20
20402.000000000000
30
0.0
11
51074.620000000003
21
20844.490000000002
31
0.0
0
LINE
5
6bb
100
AcDbEntity
8
1-0
6
DOT
62
4
100
AcDbLine
10
51074.620000000003
20
20844.490000000002
30
0.0
11
51266.720000000001
21
21313.820000000000
31
0.0
0
LINE
5
6bc
100
AcDbEntity
8
1-0
6
DOT
62
4
100
AcDbLine
10
51266.720000000001
20
21313.820000000000
30
0.0
11
51405.430000000000
21
21802.830000000002
31
0.0
0
LINE
5
6bd
100
AcDbEntity
8
1-0
6
DOT
62
4
100
AcDbLine
10
51405.430000000000
20
21802.830000000002
30
0.0
11
51478.550000000003
21
22302.049999999999
31
0.0
0
LINE
5
6be
100
AcDbEntity
8
1-0
6
DOT
62
4
100
AcDbLine
10
51478.550000000003
20
22302.049999999999
30
0.0
11
51473.970000000001
21
22802.049999999999
31
0.0
0
LINE
5
6bf
100
AcDbEntity
8
1-0
6
DOT
62
4
100
AcDbLine
10
51473.970000000001
20
22802.049999999999
30
0.0
11
51385.099999999999
21
23294.090000000000
31
0.0
0
LINE
5
6c0
100
AcDbEntity
8
1-0
6
DOT
62
4
100
AcDbLine
10
51385.099999999999
20
23294.090000000000
30
0.0
11
51222.290000000001
21
23771.840000000000
31
0.0
0
LINE
5
6c1
100
AcDbEntity
8
1-0
6
DOT
62
4
100
AcDbLine
10
51222.290000000001
20
23771.840000000000
30
0.0
11
50999.080000000002
21
24229.389999999999
31
0.0
0
LINE
5
6c2
100
AcDbEntity
8
1-0
6
DOT
62
4
100
AcDbLine
10
50999.080000000002
20
24229.389999999999
30
0.0
11
50729.129999999997
21
24660.830000000002
31
0.0
0
LINE
5
6c3
100
AcDbEntity
8
1-0
6
DOT
62
4
100
AcDbLine
10
50729.129999999997
20
24660.830000000002
30
0.0
11
50425.290000000001
21
25062.150000000001
31
0.0
0
LINE
5
6c4
100
AcDbEntity
8
1-0
6
DOT
62
4
100
AcDbLine
10
50425.290000000001
20
25062.150000000001
30
0.0
11
50096.980000000003
21
25439.020000000000
31
0.0
0
LINE
5
6c5
100
AcDbEntity
8
1-0
6
DOT
62
4
100
AcDbLine
10
50096.980000000003
20
25439.020000000000
30
0.0
11
49752.529999999999
21
25800.110000000001
31
0.0
0
LINE
5
6c6
100
AcDbEntity
8
1-0
6
DOT
62
4
100
AcDbLine
10
49752.529999999999
20
25800.110000000001
30
0.0
11
49400.199999999997
21
26154.230000000000
31
0.0
0
LINE
5
6c7
100
AcDbEntity
8
1-0
6
DOT
62
4
100
AcDbLine
10
49400.199999999997
20
26154.230000000000
30
0.0
11
49048.309999999998
21
26510.049999999999
31
0.0
0
LINE
5
6c8
100
AcDbEntity
8
1-0
6
DOT
62
4
100
AcDbLine
10
49048.309999999998
20
26510.049999999999
30
0.0
11
48705.139999999999
21
26876.290000000001
31
0.0
0
LINE
5
6c9
100
AcDbEntity
8
1-0
6
DOT
62
4
100
AcDbLine
10
48705.139999999999
20
26876.290000000001
30
0.0
11
48376.980000000003
21
27258.790000000001
31
0.0
0
LINE
5
6ca
100
AcDbEntity
8
1-0
6
DOT
62
4
100
AcDbLine
10
48376.980000000003
20
27258.790000000001
30
0.0
11
48066.220000000001
21
27657.290000000001
31
0.0
0
LINE
5
6cb
100
AcDbEntity
8
1-0
6
DOT
62
4
100
AcDbLine
10
48066.220000000001
20
27657.290000000001
30
0.0
11
47774.599999999999
21
28070.820000000000
31
0.0
0
LINE
5
6cc
100
AcDbEntity
8
1-0
6
DOT
62
4
100
AcDbLine
10
47774.599999999999
20
28070.820000000000
30
0.0
11
47504.000000000000
21
28498.369999999999
31
0.0
0
LINE
5
6cd
100
AcDbEntity
8
1-0
6
DOT
62
4
100
AcDbLine
10
47504.000000000000
20
28498.369999999999
30
0.0
11
47256.190000000002
21
28938.950000000001
31
0.0
0
LINE
5
6ce
100
AcDbEntity
8
1-0
6
DOT
62
4
100
AcDbLine
10
47256.190000000002
20
28938.950000000001
30
0.0
11
47032.989999999998
21
29391.560000000001
31
0.0
0
LINE
5
6cf
100
AcDbEntity
8
1-0
6
DOT
62
4
100
AcDbLine
10
47032.989999999998
20
29391.560000000001
30
0.0
11
46836.180000000000
21
29855.209999999999
31
0.0
0
LINE
5
6d0
100
AcDbEntity
8
1-0
6
DOT
62
4
100
AcDbLine
10
46836.180000000000
20
29855.209999999999
30
0.0
11
46667.629999999997
21
30328.939999999999
31
0.0
0
LINE
5
6d1
100
AcDbEntity
8
1-0
6
DOT
62
4
100
AcDbLine
10
46667.629999999997
20
30328.939999999999
30
0.0
11
46529.050000000003
21
30811.700000000001
31
0.0
0
LINE
5
6d2
100
AcDbEntity
8
1-0
6
DOT
62
4
100
AcDbLine
10
46529.050000000003
20
30811.700000000001
30
0.0
11
46420.440000000002
21
31301.900000000001
31
0.0
0
LINE
5
6d3
100
AcDbEntity
8
1-0
6
DOT
62
4
100
AcDbLine
10
46420.440000000002
20
31301.900000000001
30
0.0
11
46339.260000000002
21
31797.200000000001
31
0.0
0
LINE
5
6d4
100
AcDbEntity
8
1-0
6
DOT
62
4
100
AcDbLine
10
46339.260000000002
20
31797.200000000001
30
0.0
11
46282.769999999997
21
32295.130000000001
31
0.0
0
LINE
5
6d5
100
AcDbEntity
8
1-0
6
DOT
62
4
100
AcDbLine
10
46282.769999999997
20
32295.130000000001
30
0.0
11
46248.290000000001
21
32793.290000000001
31
0.0
0
LINE
5
6d6
100
AcDbEntity
8
1-0
6
DOT
62
4
100
AcDbLine
10
46248.290000000001
20
32793.290000000001
30
0.0
11
46233.209999999999
21
33289.449999999997
31
0.0
0
LINE
5
6d7
100
AcDbEntity
8
1-0
6
DOT
62
4
100
AcDbLine
10
46233.209999999999
20
33289.449999999997
30
0.0
11
46235.930000000000
21
33783.290000000001
31
0.0
0
LINE
5
6d8
100
AcDbEntity
8
1-0
6
DOT
62
4
100
AcDbLine
10
46235.930000000000
20
33783.290000000001
30
0.0
11
46255.160000000003
21
34275.169999999998
31
0.0
0
LINE
5
6d9
100
AcDbEntity
8
1-0
6
DOT
62
4
100
AcDbLine
10
46255.160000000003
20
34275.169999999998
30
0.0
11
46289.739999999998
21
34765.589999999997
31
0.0
0
LINE
5
6da
100
AcDbEntity
8
1-0
6
DOT
62
4
100
AcDbLine
10
46289.739999999998
20
34765.589999999997
30
0.0
11
46338.440000000002
21
35254.930000000000
31
0.0
0
LINE
5
6db
100
AcDbEntity
8
1-0
6
DOT
62
4
100
AcDbLine
10
46338.440000000002
20
35254.930000000000
30
0.0
11
46400.019999999997
21
35743.669999999998
31
0.0
0
LINE
5
6dc
100
AcDbEntity
8
1-0
6
DOT
62
4
100
AcDbLine
10
46400.019999999997
20
35743.669999999998
30
0.0
11
46473.300000000003
21
36232.230000000003
31
0.0
0
LINE
5
6dd
100
AcDbEntity
8
1-0
6
DOT
62
4
100
AcDbLine
10
46473.300000000003
20
36232.230000000003
30
0.0
11
46557.070000000000
21
36721.029999999999
31
0.0
0
LINE
5
6de
100
AcDbEntity
8
1-0
6
DOT
62
4
100
AcDbLine
10
46557.070000000000
20
36721.029999999999
30
0.0
11
46650.059999999998
21
37210.559999999998
31
0.0
0
LINE
5
6df
100
AcDbEntity
8
1-0
6
DOT
62
4
100
AcDbLine
10
46650.059999999998
20
37210.559999999998
30
0.0
11
46751.099999999999
21
37701.220000000001
31
0.0
0
LINE
5
6e0
100
AcDbEntity
8
1-0
6
DOT
62
4
100
AcDbLine
10
46751.099999999999
20
37701.220000000001
30
0.0
11
46858.980000000003
21
38193.440000000002
31
0.0
0
LINE
5
6e1
100
AcDbEntity
8
1-0
6
DOT
62
4
100
AcDbLine
10
46858.980000000003
20
38193.440000000002
30
0.0
11
46972.440000000002
21
38687.669999999998
31
0.0
0
LINE
5
6e2
100
AcDbEntity
8
1-0
6
DOT
62
4
100
AcDbLine
10
46972.440000000002
20
38687.669999999998
30
0.0
11
47090.300000000003
21
39184.379999999997
31
0.0
0
LINE
5
6e3
100
AcDbEntity
8
1-0
6
DOT
62
4
100
AcDbLine
10
47090.300000000003
20
39184.379999999997
30
0.0
11
47211.330000000002
21
39683.949999999997
31
0.0
0
LINE
5
6e4
100
AcDbEntity
8
1-0
6
DOT
62
4
100
AcDbLine
10
47211.330000000002
20
39683.949999999997
30
0.0
11
47334.349999999999
21
40186.849999999999
31
0.0
0
LINE
5
6e5
100
AcDbEntity
8
1-0
6
DOT
62
4
100
AcDbLine
10
47334.349999999999
20
40186.849999999999
30
0.0
11
47458.070000000000
21
40693.500000000000
31
0.0
0
LINE
5
6e6
100
AcDbEntity
8
1-0
6
DOT
62
4
100
AcDbLine
10
47458.070000000000
20
40693.500000000000
30
0.0
11
47582.400000000001
21
41203.510000000002
31
0.0
0
LINE
5
6e7
100
AcDbEntity
8
1-0
6
DOT
62
4
100
AcDbLine
10
47582.400000000001
20
41203.510000000002
30
0.0
11
47716.029999999999
21
41709.519999999997
31
0.0
0
LINE
5
6e8
100
AcDbEntity
8
1-0
6
DOT
62
4
100
AcDbLine
10
47716.029999999999
20
41709.519999999997
30
0.0
11
47872.040000000001
21
42200.669999999998
31
0.0
0
LINE
5
6e9
100
AcDbEntity
8
1-0
6
DOT
62
4
100
AcDbLine
10
47872.040000000001
20
42200.669999999998
30
0.0
11
48063.570000000000
21
42666.070000000000
31
0.0
0
LINE
5
6ea
100
AcDbEntity
8
1-0
6
DOT
62
4
100
AcDbLine
10
48063.570000000000
20
42666.070000000000
30
0.0
11
48303.739999999998
21
43094.870000000003
31
0.0
0
LINE
5
6eb
100
AcDbEntity
8
1-0
6
DOT
62
4
100
AcDbLine
10
48303.739999999998
20
43094.870000000003
30
0.0
11
48605.709999999999
21
43476.190000000002
31
0.0
0
LINE
5
6ec
100
AcDbEntity
8
1-0
6
DOT
62
4
100
AcDbLine
10
48605.709999999999
20
43476.190000000002
30
0.0
11
48976.290000000001
21
43804.220000000001
31
0.0
0
LINE
5
6ed
100
AcDbEntity
8
1-0
6
DOT
62
4
100
AcDbLine
10
48976.290000000001
20
43804.220000000001
30
0.0
11
49384.769999999997
21
44103.599999999999
31
0.0
0
LINE
5
6ee
100
AcDbEntity
8
1-0
6
DOT
62
4
100
AcDbLine
10
49384.769999999997
20
44103.599999999999
30
0.0
11
49786.470000000001
21
44410.169999999998
31
0.0
0
LINE
5
6ef
100
AcDbEntity
8
1-0
6
DOT
62
4
100
AcDbLine
10
49786.470000000001
20
44410.169999999998
30
0.0
11
50136.660000000003
21
44759.849999999999
31
0.0
0
LINE
5
6f0
100
AcDbEntity
8
1-0
6
DOT
62
4
100
AcDbLine
10
50136.660000000003
20
44759.849999999999
30
0.0
11
50404.139999999999
21
45177.419999999998
31
0.0
0
LINE
5
6f1
100
AcDbEntity
8
1-0
6
DOT
62
4
100
AcDbLine
10
50404.139999999999
20
45177.419999999998
30
0.0
11
50608.309999999998
21
45646.019999999997
31
0.0
0
LINE
5
6f2
100
AcDbEntity
8
1-0
6
DOT
62
4
100
AcDbLine
10
50608.309999999998
20
45646.019999999997
30
0.0
11
50780.269999999997
21
46139.120000000003
31
0.0
0
LINE
5
6f3
100
AcDbEntity
8
1-0
6
DOT
62
4
100
AcDbLine
10
50780.269999999997
20
46139.120000000003
30
0.0
11
50951.260000000002
21
46630.089999999997
31
0.0
0
LINE
5
6f4
100
AcDbEntity
8
1-0
6
DOT
62
4
100
AcDbLine
10
50951.260000000002
20
46630.089999999997
30
0.0
11
51152.400000000001
21
47092.370000000003
31
0.0
0
LINE
5
6f5
100
AcDbEntity
8
1-0
6
DOT
62
4
100
AcDbLine
10
51152.400000000001
20
47092.370000000003
30
0.0
11
51414.879999999997
21
47499.410000000003
31
0.0
0
LINE
5
6f6
100
AcDbEntity
8
1-0
6
DOT
62
4
100
AcDbLine
10
51414.879999999997
20
47499.410000000003
30
0.0
11
51767.449999999997
21
47827.510000000002
31
0.0
0
LINE
5
6f7
100
AcDbEntity
8
1-0
6
DOT
62
4
100
AcDbLine
10
51767.449999999997
20
47827.510000000002
30
0.0
11
52177.150000000001
21
48126.120000000003
31
0.0
0
LINE
5
6f8
100
AcDbEntity
8
1-0
6
DOT
62
4
100
AcDbLine
10
52177.150000000001
20
48126.120000000003
30
0.0
11
52562.440000000002
21
48495.529999999999
31
0.0
0
LINE
5
6f9
100
AcDbEntity
8
1-0
6
DOT
62
4
100
AcDbLine
10
52562.440000000002
20
48495.529999999999
30
0.0
11
52900.570000000000
21
48940.449999999997
31
0.0
0
LINE
5
6fa
100
AcDbEntity
8
1-0
6
DOT
62
4
100
AcDbLine
10
52900.570000000000
20
48940.449999999997
30
0.0
11
53183.410000000003
21
49442.220000000001
31
0.0
0
LINE
5
6fb
100
AcDbEntity
8
1-0
6
DOT
62
4
100
AcDbLine
10
53183.410000000003
20
49442.220000000001
30
0.0
11
53402.830000000002
21
49982.139999999999
31
0.0
0
LINE
5
6fc
100
AcDbEntity
8
1-0
6
DOT
62
4
100
AcDbLine
10
53402.830000000002
20
49982.139999999999
30
0.0
11
53550.720000000001
21
50541.489999999998
31
0.0
0
LINE
5
6fd
100
AcDbEntity
8
1-0
6
DOT
62
4
100
AcDbLine
10
53550.720000000001
20
50541.489999999998
30
0.0
11
53618.930000000000
21
51101.580000000002
31
0.0
0
LINE
5
6fe
100
AcDbEntity
8
1-0
6
DOT
62
4
100
AcDbLine
10
53618.930000000000
20
51101.580000000002
30
0.0
11
53599.370000000003
21
51643.730000000003
31
0.0
0
LINE
5
6ff
100
AcDbEntity
8
1-0
6
DOT
62
4
100
AcDbLine
10
53599.370000000003
20
51643.730000000003
30
0.0
11
53483.849999999999
21
52149.190000000002
31
0.0
0
LINE
5
700
100
AcDbEntity
8
1-0
6
DOT
62
4
100
AcDbLine
10
53483.849999999999
20
52149.190000000002
30
0.0
11
53264.309999999998
21
52599.320000000000
31
0.0
0
LINE
5
701
100
AcDbEntity
8
1-0
6
DOT
62
4
100
AcDbLine
10
53264.309999999998
20
52599.320000000000
30
0.0
11
52935.699999999997
21
52977.430000000000
31
0.0
0
LINE
5
702
100
AcDbEntity
8
1-0
6
DOT
62
4
100
AcDbLine
10
52935.699999999997
20
52977.430000000000
30
0.0
11
52590.790000000001
21
53331.650000000001
31
0.0
0
LINE
5
703
100
AcDbEntity
8
1-0
6
DOT
62
4
100
AcDbLine
10
52590.790000000001
20
53331.650000000001
30
0.0
11
52375.790000000001
21
53750.139999999999
31
0.0
0
LINE
5
704
100
AcDbEntity
8
1-0
6
DOT
62
4
100
AcDbLine
10
52375.790000000001
20
53750.139999999999
30
0.0
11
52280.730000000003
21
54229.599999999999
31
0.0
0
LINE
5
705
100
AcDbEntity
8
1-0
6
DOT
62
4
100
AcDbLine
10
52280.730000000003
20
54229.599999999999
30
0.0
11
52269.290000000001
21
54751.209999999999
31
0.0
0
LINE
5
706
100
AcDbEntity
8
1-0
6
DOT
62
4
100
AcDbLine
10
52269.290000000001
20
54751.209999999999
30
0.0
11
52305.139999999999
21
55296.250000000000
31
0.0
0
LINE
5
707
100
AcDbEntity
8
1-0
6
DOT
62
4
100
AcDbLine
10
52305.139999999999
20
55296.250000000000
30
0.0
11
52351.989999999998
21
55845.900000000001
31
0.0
0
LINE
5
708
100
AcDbEntity
8
1-0
6
DOT
62
4
100
AcDbLine
10
52351.989999999998
20
55845.900000000001
30
0.0
11
52373.500000000000
21
56381.389999999999
31
0.0
0
LINE
5
709
100
AcDbEntity
8
1-0
6
DOT
62
4
100
AcDbLine
10
52373.500000000000
20
56381.389999999999
30
0.0
11
52333.370000000003
21
56883.930000000000
31
0.0
0
LINE
5
70a
100
AcDbEntity
8
1-0
6
DOT
62
4
100
AcDbLine
10
52333.370000000003
20
56883.930000000000
30
0.0
11
52195.279999999999
21
57334.739999999998
31
0.0
0
LINE
5
70b
100
AcDbEntity
8
1-0
6
DOT
62
4
100
AcDbLine
10
52195.279999999999
20
57334.739999999998
30
0.0
11
51932.029999999999
21
57720.110000000001
31
0.0
0
LINE
5
70c
100
AcDbEntity
8
1-0
6
DOT
62
4
100
AcDbLine
10
51932.029999999999
20
57720.110000000001
30
0.0
11
51571.470000000001
21
58057.110000000001
31
0.0
0
LINE
5
70d
100
AcDbEntity
8
1-0
6
DOT
62
4
100
AcDbLine
10
51571.470000000001
20
58057.110000000001
30
0.0
11
51161.860000000001
21
58374.220000000001
31
0.0
0
LINE
5
70e
100
AcDbEntity
8
1-0
6
DOT
62
4
100
AcDbLine
10
51161.860000000001
20
58374.220000000001
30
0.0
11
50751.559999999998
21
58699.910000000003
31
0.0
0
LINE
5
70f
100
AcDbEntity
8
1-0
6
DOT
62
4
100
AcDbLine
10
50751.559999999998
20
58699.910000000003
30
0.0
11
50383.940000000002
21
59059.500000000000
31
0.0
0
LINE
5
710
100
AcDbEntity
8
1-0
6
DOT
62
4
100
AcDbLine
10
50383.940000000002
20
59059.500000000000
30
0.0
11
50062.959999999999
21
59452.779999999999
31
0.0
0
LINE
5
711
100
AcDbEntity
8
1-0
6
DOT
62
4
100
AcDbLine
10
50062.959999999999
20
59452.779999999999
30
0.0
11
49773.650000000001
21
59867.449999999997
31
0.0
0
LINE
5
712
100
AcDbEntity
8
1-0
6
DOT
62
4
100
AcDbLine
10
49773.650000000001
20
59867.449999999997
30
0.0
11
49500.910000000003
21
60290.970000000001
31
0.0
0
LINE
5
713
100
AcDbEntity
8
1-0
6
DOT
62
4
100
AcDbLine
10
49500.910000000003
20
60290.970000000001
30
0.0
11
49229.730000000003
21
60710.980000000003
31
0.0
0
LINE
5
714
100
AcDbEntity
8
1-0
6
DOT
62
4
100
AcDbLine
10
49229.730000000003
20
60710.980000000003
30
0.0
11
48944.980000000003
21
61114.980000000003
31
0.0
0
LINE
5
715
100
AcDbEntity
8
1-0
6
DOT
62
4
100
AcDbLine
10
48944.980000000003
20
61114.980000000003
30
0.0
11
48631.650000000001
21
61490.559999999998
31
0.0
0
LINE
5
716
100
AcDbEntity
8
1-0
6
DOT
62
4
100
AcDbLine
10
48631.650000000001
20
61490.559999999998
30
0.0
11
48276.980000000003
21
61827.320000000000
31
0.0
0
LINE
5
717
100
AcDbEntity
8
1-0
6
DOT
62
4
100
AcDbLine
10
48276.980000000003
20
61827.320000000000
30
0.0
11
47884.370000000003
21
62128.769999999997
31
0.0
0
LINE
5
718
100
AcDbEntity
8
1-0
6
DOT
62
4
100
AcDbLine
10
47884.370000000003
20
62128.769999999997
30
0.0
11
47463.769999999997
21
62404.190000000002
31
0.0
0
LINE
5
719
100
AcDbEntity
8
1-0
6
DOT
62
4
100
AcDbLine
10
47463.769999999997
20
62404.190000000002
30
0.0
11
47025.199999999997
21
62662.919999999998
31
0.0
0
LINE
5
71a
100
AcDbEntity
8
1-0
6
DOT
62
4
100
AcDbLine
10
47025.199999999997
20
62662.919999999998
30
0.0
11
46669.339999999997
21
62863.449999999997
31
0.0
0
LINE
5
71b
100
AcDbEntity
8
1-0
6
DOT
62
4
100
AcDbLine
10
6306.490000000000
20
26495.349999999999
30
0.0
11
6818.790000000000
21
26456.689999999999
31
0.0
0
LINE
5
71c
100
AcDbEntity
8
1-0
6
DOT
62
4
100
AcDbLine
10
6818.790000000000
20
26456.689999999999
30
0.0
11
7326.630000000000
21
26406.580000000002
31
0.0
0
LINE
5
71d
100
AcDbEntity
8
1-0
6
DOT
62
4
100
AcDbLine
10
7326.630000000000
20
26406.580000000002
30
0.0
11
7825.680000000000
21
26333.610000000001
31
0.0
0
LINE
5
71e
100
AcDbEntity
8
1-0
6
DOT
62
4
100
AcDbLine
10
7825.680000000000
20
26333.610000000001
30
0.0
11
8311.459999999999
21
26226.369999999999
31
0.0
0
LINE
5
71f
100
AcDbEntity
8
1-0
6
DOT
62
4
100
AcDbLine
10
8311.459999999999
20
26226.369999999999
30
0.0
11
8779.570000000000
21
26073.400000000001
31
0.0
0
LINE
5
720
100
AcDbEntity
8
1-0
6
DOT
62
4
100
AcDbLine
10
8779.570000000000
20
26073.400000000001
30
0.0
11
9225.650000000000
21
25863.849999999999
31
0.0
0
LINE
5
721
100
AcDbEntity
8
1-0
6
DOT
62
4
100
AcDbLine
10
9225.650000000000
20
25863.849999999999
30
0.0
11
9646.480000000000
21
25596.590000000000
31
0.0
0
LINE
5
722
100
AcDbEntity
8
1-0
6
DOT
62
4
100
AcDbLine
10
9646.480000000000
20
25596.590000000000
30
0.0
11
10039.760000000000
21
25278.770000000000
31
0.0
0
LINE
5
723
100
AcDbEntity
8
1-0
6
DOT
62
4
100
AcDbLine
10
10039.760000000000
20
25278.770000000000
30
0.0
11
10403.230000000000
21
24917.790000000001
31
0.0
0
LINE
5
724
100
AcDbEntity
8
1-0
6
DOT
62
4
100
AcDbLine
10
10403.230000000000
20
24917.790000000001
30
0.0
11
10734.650000000000
21
24521.029999999999
31
0.0
0
LINE
5
725
100
AcDbEntity
8
1-0
6
DOT
62
4
100
AcDbLine
10
10734.650000000000
20
24521.029999999999
30
0.0
11
11031.740000000000
21
24095.910000000000
31
0.0
0
LINE
5
726
100
AcDbEntity
8
1-0
6
DOT
62
4
100
AcDbLine
10
11031.740000000000
20
24095.910000000000
30
0.0
11
11292.270000000000
21
23649.799999999999
31
0.0
0
LINE
5
727
100
AcDbEntity
8
1-0
6
DOT
62
4
100
AcDbLine
10
11292.270000000000
20
23649.799999999999
30
0.0
11
11514.010000000000
21
23190.160000000000
31
0.0
0
LINE
5
728
100
AcDbEntity
8
1-0
6
DOT
62
4
100
AcDbLine
10
11514.010000000000
20
23190.160000000000
30
0.0
11
11708.040000000001
21
22726.660000000000
31
0.0
0
LINE
5
729
100
AcDbEntity
8
1-0
6
DOT
62
4
100
AcDbLine
10
11708.040000000001
20
22726.660000000000
30
0.0
11
11913.730000000000
21
22274.020000000000
31
0.0
0
LINE
5
72a
100
AcDbEntity
8
1-0
6
DOT
62
4
100
AcDbLine
10
11913.730000000000
20
22274.020000000000
30
0.0
11
12170.070000000000
21
21846.810000000001
31
0.0
0
LINE
5
72b
100
AcDbEntity
8
1-0
6
DOT
62
4
100
AcDbLine
10
12170.070000000000
20
21846.810000000001
30
0.0
11
12483.209999999999
21
21453.369999999999
31
0.0
0
LINE
5
72c
100
AcDbEntity
8
1-0
6
DOT
62
4
100
AcDbLine
10
12483.209999999999
20
21453.369999999999
30
0.0
11
12843.290000000001
21
21099.080000000002
31
0.0
0
LINE
5
72d
100
AcDbEntity
8
1-0
6
DOT
62
4
100
AcDbLine
10
12843.290000000001
20
21099.080000000002
30
0.0
11
13240.260000000000
21
20788.180000000000
31
0.0
0
LINE
5
72e
100
AcDbEntity
8
1-0
6
DOT
62
4
100
AcDbLine
10
13240.260000000000
20
20788.180000000000
30
0.0
11
13662.230000000000
21
20512.090000000000
31
0.0
0
LINE
5
72f
100
AcDbEntity
8
1-0
6
DOT
62
4
100
AcDbLine
10
13662.230000000000
20
20512.090000000000
30
0.0
11
14096.100000000000
21
20253.730000000000
31
0.0
0
LINE
5
730
100
AcDbEntity
8
1-0
6
DOT
62
4
100
AcDbLine
10
14096.100000000000
20
20253.730000000000
30
0.0
11
14528.780000000001
21
19995.889999999999
31
0.0
0
LINE
5
731
100
AcDbEntity
8
1-0
6
DOT
62
4
100
AcDbLine
10
14528.780000000001
20
19995.889999999999
30
0.0
11
14947.110000000001
21
19721.349999999999
31
0.0
0
LINE
5
732
100
AcDbEntity
8
1-0
6
DOT
62
4
100
AcDbLine
10
14947.110000000001
20
19721.349999999999
30
0.0
11
15338.010000000000
21
19412.910000000000
31
0.0
0
LINE
5
733
100
AcDbEntity
8
1-0
6
DOT
62
4
100
AcDbLine
10
15338.010000000000
20
19412.910000000000
30
0.0
11
15688.320000000000
21
19053.330000000002
31
0.0
0
LINE
5
734
100
AcDbEntity
8
1-0
6
DOT
62
4
100
AcDbLine
10
15688.320000000000
20
19053.330000000002
30
0.0
11
15988.250000000000
21
18630.709999999999
31
0.0
0
LINE
5
735
100
AcDbEntity
8
1-0
6
DOT
62
4
100
AcDbLine
10
15988.250000000000
20
18630.709999999999
30
0.0
11
16276.980000000000
21
18211.419999999998
31
0.0
0
LINE
5
736
100
AcDbEntity
8
1-0
6
DOT
62
4
100
AcDbLine
10
16276.980000000000
20
18211.419999999998
30
0.0
11
16629.880000000001
21
17919.590000000000
31
0.0
0
LINE
5
737
100
AcDbEntity
8
1-0
6
DOT
62
4
100
AcDbLine
10
16629.880000000001
20
17919.590000000000
30
0.0
11
17076.570000000000
21
17799.279999999999
31
0.0
0
LINE
5
738
100
AcDbEntity
8
1-0
6
DOT
62
4
100
AcDbLine
10
17076.570000000000
20
17799.279999999999
30
0.0
11
17587.279999999999
21
17790.669999999998
31
0.0
0
LINE
5
739
100
AcDbEntity
8
1-0
6
DOT
62
4
100
AcDbLine
10
17587.279999999999
20
17790.669999999998
30
0.0
11
18128.360000000001
21
17827.290000000001
31
0.0
0
LINE
5
73a
100
AcDbEntity
8
1-0
6
DOT
62
4
100
AcDbLine
10
18128.360000000001
20
17827.290000000001
30
0.0
11
18666.169999999998
21
17842.610000000001
31
0.0
0
LINE
5
73b
100
AcDbEntity
8
1-0
6
DOT
62
4
100
AcDbLine
10
18666.169999999998
20
17842.610000000001
30
0.0
11
19167.110000000001
21
17770.150000000001
31
0.0
0
LINE
5
73c
100
AcDbEntity
8
1-0
6
DOT
62
4
100
AcDbLine
10
19167.110000000001
20
17770.150000000001
30
0.0
11
19609.160000000000
21
17564.459999999999
31
0.0
0
LINE
5
73d
100
AcDbEntity
8
1-0
6
DOT
62
4
100
AcDbLine
10
19609.160000000000
20
17564.459999999999
30
0.0
11
20021.060000000001
21
17271.959999999999
31
0.0
0
LINE
5
73e
100
AcDbEntity
8
1-0
6
DOT
62
4
100
AcDbLine
10
20021.060000000001
20
17271.959999999999
30
0.0
11
20444.700000000001
21
16963.220000000001
31
0.0
0
LINE
5
73f
100
AcDbEntity
8
1-0
6
DOT
62
4
100
AcDbLine
10
20444.700000000001
20
16963.220000000001
30
0.0
11
20900.049999999999
21
16682.259999999998
31
0.0
0
LINE
5
740
100
AcDbEntity
8
1-0
6
DOT
62
4
100
AcDbLine
10
20900.049999999999
20
16682.259999999998
30
0.0
11
21380.369999999999
21
16440.820000000000
31
0.0
0
LINE
5
741
100
AcDbEntity
8
1-0
6
DOT
62
4
100
AcDbLine
10
21380.369999999999
20
16440.820000000000
30
0.0
11
21877.410000000000
21
16248.660000000000
31
0.0
0
LINE
5
742
100
AcDbEntity
8
1-0
6
DOT
62
4
100
AcDbLine
10
21877.410000000000
20
16248.660000000000
30
0.0
11
22382.840000000000
21
16115.559999999999
31
0.0
0
LINE
5
743
100
AcDbEntity
8
1-0
6
DOT
62
4
100
AcDbLine
10
22382.840000000000
20
16115.559999999999
30
0.0
11
22888.369999999999
21
16051.309999999999
31
0.0
0
LINE
5
744
100
AcDbEntity
8
1-0
6
DOT
62
4
100
AcDbLine
10
22888.369999999999
20
16051.309999999999
30
0.0
11
23385.650000000001
21
16065.680000000000
31
0.0
0
LINE
5
745
100
AcDbEntity
8
1-0
6
DOT
62
4
100
AcDbLine
10
23385.650000000001
20
16065.680000000000
30
0.0
11
23866.389999999999
21
16168.430000000000
31
0.0
0
LINE
5
746
100
AcDbEntity
8
1-0
6
DOT
62
4
100
AcDbLine
10
23866.389999999999
20
16168.430000000000
30
0.0
11
24325.009999999998
21
16360.799999999999
31
0.0
0
LINE
5
747
100
AcDbEntity
8
1-0
6
DOT
62
4
100
AcDbLine
10
24325.009999999998
20
16360.799999999999
30
0.0
11
24771.330000000002
21
16595.680000000000
31
0.0
0
LINE
5
748
100
AcDbEntity
8
1-0
6
DOT
62
4
100
AcDbLine
10
24771.330000000002
20
16595.680000000000
30
0.0
11
25220.459999999999
21
16809.029999999999
31
0.0
0
LINE
5
749
100
AcDbEntity
8
1-0
6
DOT
62
4
100
AcDbLine
10
25220.459999999999
20
16809.029999999999
30
0.0
11
25683.869999999999
21
16953.150000000001
31
0.0
0
LINE
5
74a
100
AcDbEntity
8
1-0
6
DOT
62
4
100
AcDbLine
10
25683.869999999999
20
16953.150000000001
30
0.0
11
26161.470000000001
21
17030.490000000002
31
0.0
0
LINE
5
74b
100
AcDbEntity
8
1-0
6
DOT
62
4
100
AcDbLine
10
26161.470000000001
20
17030.490000000002
30
0.0
11
26651.000000000000
21
17053.090000000000
31
0.0
0
LINE
5
74c
100
AcDbEntity
8
1-0
6
DOT
62
4
100
AcDbLine
10
26651.000000000000
20
17053.090000000000
30
0.0
11
27150.180000000000
21
17033.009999999998
31
0.0
0
LINE
5
74d
100
AcDbEntity
8
1-0
6
DOT
62
4
100
AcDbLine
10
27150.180000000000
20
17033.009999999998
30
0.0
11
27656.740000000002
21
16982.259999999998
31
0.0
0
LINE
5
74e
100
AcDbEntity
8
1-0
6
DOT
62
4
100
AcDbLine
10
27656.740000000002
20
16982.259999999998
30
0.0
11
28168.400000000001
21
16912.889999999999
31
0.0
0
LINE
5
74f
100
AcDbEntity
8
1-0
6
DOT
62
4
100
AcDbLine
10
28168.400000000001
20
16912.889999999999
30
0.0
11
28682.919999999998
21
16836.930000000000
31
0.0
0
LINE
5
750
100
AcDbEntity
8
1-0
6
DOT
62
4
100
AcDbLine
10
28682.919999999998
20
16836.930000000000
30
0.0
11
29198.000000000000
21
16766.439999999999
31
0.0
0
LINE
5
751
100
AcDbEntity
8
1-0
6
DOT
62
4
100
AcDbLine
10
29198.000000000000
20
16766.439999999999
30
0.0
11
29711.389999999999
21
16713.450000000001
31
0.0
0
LINE
5
752
100
AcDbEntity
8
1-0
6
DOT
62
4
100
AcDbLine
10
29711.389999999999
20
16713.450000000001
30
0.0
11
30220.830000000002
21
16689.990000000002
31
0.0
0
LINE
5
753
100
AcDbEntity
8
1-0
6
DOT
62
4
100
AcDbLine
10
30220.830000000002
20
16689.990000000002
30
0.0
11
30724.060000000001
21
16707.820000000000
31
0.0
0
LINE
5
754
100
AcDbEntity
8
1-0
6
DOT
62
4
100
AcDbLine
10
30724.060000000001
20
16707.820000000000
30
0.0
11
31220.730000000000
21
16767.779999999999
31
0.0
0
LINE
5
755
100
AcDbEntity
8
1-0
6
DOT
62
4
100
AcDbLine
10
31220.730000000000
20
16767.779999999999
30
0.0
11
31712.860000000001
21
16856.919999999998
31
0.0
0
LINE
5
756
100
AcDbEntity
8
1-0
6
DOT
62
4
100
AcDbLine
10
31712.860000000001
20
16856.919999999998
30
0.0
11
32202.610000000001
21
16961.430000000000
31
0.0
0
LINE
5
757
100
AcDbEntity
8
1-0
6
DOT
62
4
100
AcDbLine
10
32202.610000000001
20
16961.430000000000
30
0.0
11
32255.709999999999
21
16973.099999999999
31
0.0
0
LINE
5
758
100
AcDbEntity
8
1-0
6
DOT
62
4
100
AcDbLine
10
46285.250000000000
20
62917.430000000000
30
0.0
11
46107.790000000001
21
62452.160000000003
31
0.0
0
LINE
5
759
100
AcDbEntity
8
1-0
6
DOT
62
4
100
AcDbLine
10
46107.790000000001
20
62452.160000000003
30
0.0
11
45918.730000000003
21
61990.650000000001
31
0.0
0
LINE
5
75a
100
AcDbEntity
8
1-0
6
DOT
62
4
100
AcDbLine
10
45918.730000000003
20
61990.650000000001
30
0.0
11
45706.480000000003
21
61536.730000000003
31
0.0
0
LINE
5
75b
100
AcDbEntity
8
1-0
6
DOT
62
4
100
AcDbLine
10
45706.480000000003
20
61536.730000000003
30
0.0
11
45459.500000000000
21
61094.160000000003
31
0.0
0
LINE
5
75c
100
AcDbEntity
8
1-0
6
DOT
62
4
100
AcDbLine
10
45459.500000000000
20
61094.160000000003
30
0.0
11
45170.260000000002
21
60669.540000000001
31
0.0
0
LINE
5
75d
100
AcDbEntity
8
1-0
6
DOT
62
4
100
AcDbLine
10
45170.260000000002
20
60669.540000000001
30
0.0
11
44839.379999999997
21
60274.980000000003
31
0.0
0
LINE
5
75e
100
AcDbEntity
8
1-0
6
DOT
62
4
100
AcDbLine
10
44839.379999999997
20
60274.980000000003
30
0.0
11
44468.540000000001
21
59923.360000000001
31
0.0
0
LINE
5
75f
100
AcDbEntity
8
1-0
6
DOT
62
4
100
AcDbLine
10
44468.540000000001
20
59923.360000000001
30
0.0
11
44059.360000000001
21
59627.430000000000
31
0.0
0
LINE
5
760
100
AcDbEntity
8
1-0
6
DOT
62
4
100
AcDbLine
10
44059.360000000001
20
59627.430000000000
30
0.0
11
43613.470000000001
21
59400.099999999999
31
0.0
0
LINE
5
761
100
AcDbEntity
8
1-0
6
DOT
62
4
100
AcDbLine
10
43613.470000000001
20
59400.099999999999
30
0.0
11
43133.360000000001
21
59250.349999999999
31
0.0
0
LINE
5
762
100
AcDbEntity
8
1-0
6
DOT
62
4
100
AcDbLine
10
43133.360000000001
20
59250.349999999999
30
0.0
11
42626.070000000000
21
59166.949999999997
31
0.0
0
LINE
5
763
100
AcDbEntity
8
1-0
6
DOT
62
4
100
AcDbLine
10
42626.070000000000
20
59166.949999999997
30
0.0
11
42100.010000000002
21
59131.860000000001
31
0.0
0
LINE
5
764
100
AcDbEntity
8
1-0
6
DOT
62
4
100
AcDbLine
10
42100.010000000002
20
59131.860000000001
30
0.0
11
41563.690000000002
21
59127.120000000003
31
0.0
0
LINE
5
765
100
AcDbEntity
8
1-0
6
DOT
62
4
100
AcDbLine
10
41563.690000000002
20
59127.120000000003
30
0.0
11
41025.599999999999
21
59134.720000000001
31
0.0
0
LINE
5
766
100
AcDbEntity
8
1-0
6
DOT
62
4
100
AcDbLine
10
41025.599999999999
20
59134.720000000001
30
0.0
11
40494.230000000003
21
59136.650000000001
31
0.0
0
LINE
5
767
100
AcDbEntity
8
1-0
6
DOT
62
4
100
AcDbLine
10
40494.230000000003
20
59136.650000000001
30
0.0
11
39978.059999999998
21
59114.889999999999
31
0.0
0
LINE
5
768
100
AcDbEntity
8
1-0
6
DOT
62
4
100
AcDbLine
10
39978.059999999998
20
59114.889999999999
30
0.0
11
39485.559999999998
21
59051.440000000002
31
0.0
0
LINE
5
769
100
AcDbEntity
8
1-0
6
DOT
62
4
100
AcDbLine
10
39485.559999999998
20
59051.440000000002
30
0.0
11
39025.239999999998
21
58928.330000000002
31
0.0
0
LINE
5
76a
100
AcDbEntity
8
1-0
6
DOT
62
4
100
AcDbLine
10
39025.239999999998
20
58928.330000000002
30
0.0
11
38605.589999999997
21
58727.529999999999
31
0.0
0
LINE
5
76b
100
AcDbEntity
8
1-0
6
DOT
62
4
100
AcDbLine
10
38605.589999999997
20
58727.529999999999
30
0.0
11
38234.709999999999
21
58431.629999999997
31
0.0
0
LINE
5
76c
100
AcDbEntity
8
1-0
6
DOT
62
4
100
AcDbLine
10
38234.709999999999
20
58431.629999999997
30
0.0
11
37902.529999999999
21
58056.389999999999
31
0.0
0
LINE
5
76d
100
AcDbEntity
8
1-0
6
DOT
62
4
100
AcDbLine
10
37902.529999999999
20
58056.389999999999
30
0.0
11
37572.019999999997
21
57666.070000000000
31
0.0
0
LINE
5
76e
100
AcDbEntity
8
1-0
6
DOT
62
4
100
AcDbLine
10
37572.019999999997
20
57666.070000000000
30
0.0
11
37204.129999999997
21
57328.900000000001
31
0.0
0
LINE
5
76f
100
AcDbEntity
8
1-0
6
DOT
62
4
100
AcDbLine
10
37204.129999999997
20
57328.900000000001
30
0.0
11
36766.389999999999
21
57106.459999999999
31
0.0
0
LINE
5
770
100
AcDbEntity
8
1-0
6
DOT
62
4
100
AcDbLine
10
36766.389999999999
20
57106.459999999999
30
0.0
11
36270.660000000003
21
57016.559999999998
31
0.0
0
LINE
5
771
100
AcDbEntity
8
1-0
6
DOT
62
4
100
AcDbLine
10
36270.660000000003
20
57016.559999999998
30
0.0
11
35746.610000000001
21
57059.220000000001
31
0.0
0
LINE
5
772
100
AcDbEntity
8
1-0
6
DOT
62
4
100
AcDbLine
10
35746.610000000001
20
57059.220000000001
30
0.0
11
35224.089999999997
21
57234.480000000003
31
0.0
0
LINE
5
773
100
AcDbEntity
8
1-0
6
DOT
62
4
100
AcDbLine
10
35224.089999999997
20
57234.480000000003
30
0.0
11
34732.820000000000
21
57542.279999999999
31
0.0
0
LINE
5
774
100
AcDbEntity
8
1-0
6
DOT
62
4
100
AcDbLine
10
34732.820000000000
20
57542.279999999999
30
0.0
11
34292.300000000003
21
57968.029999999999
31
0.0
0
LINE
5
775
100
AcDbEntity
8
1-0
6
DOT
62
4
100
AcDbLine
10
34292.300000000003
20
57968.029999999999
30
0.0
11
33897.519999999997
21
58462.360000000001
31
0.0
0
LINE
5
776
100
AcDbEntity
8
1-0
6
DOT
62
4
100
AcDbLine
10
33897.519999999997
20
58462.360000000001
30
0.0
11
33539.889999999999
21
58970.690000000002
31
0.0
0
LINE
5
777
100
AcDbEntity
8
1-0
6
DOT
62
4
100
AcDbLine
10
33539.889999999999
20
58970.690000000002
30
0.0
11
33210.809999999998
21
59438.500000000000
31
0.0
0
LINE
5
778
100
AcDbEntity
8
1-0
6
DOT
62
4
100
AcDbLine
10
33210.809999999998
20
59438.500000000000
30
0.0
11
32901.610000000001
21
59811.209999999999
31
0.0
0
LINE
5
779
100
AcDbEntity
8
1-0
6
DOT
62
4
100
AcDbLine
10
32901.610000000001
20
59811.209999999999
30
0.0
11
32603.730000000000
21
60034.260000000002
31
0.0
0
LINE
5
77a
100
AcDbEntity
8
1-0
6
DOT
62
4
100
AcDbLine
10
32603.730000000000
20
60034.260000000002
30
0.0
11
32308.529999999999
21
60053.150000000001
31
0.0
0
LINE
5
77b
100
AcDbEntity
8
1-0
6
DOT
62
4
100
AcDbLine
10
32308.529999999999
20
60053.150000000001
30
0.0
11
32007.230000000000
21
59837.330000000002
31
0.0
0
LINE
5
77c
100
AcDbEntity
8
1-0
6
DOT
62
4
100
AcDbLine
10
32007.230000000000
20
59837.330000000002
30
0.0
11
31690.279999999999
21
59456.830000000002
31
0.0
0
LINE
5
77d
100
AcDbEntity
8
1-0
6
DOT
62
4
100
AcDbLine
10
31690.279999999999
20
59456.830000000002
30
0.0
11
31347.959999999999
21
59007.949999999997
31
0.0
0
LINE
5
77e
100
AcDbEntity
8
1-0
6
DOT
62
4
100
AcDbLine
10
31347.959999999999
20
59007.949999999997
30
0.0
11
30970.549999999999
21
58586.989999999998
31
0.0
0
LINE
5
77f
100
AcDbEntity
8
1-0
6
DOT
62
4
100
AcDbLine
10
30970.549999999999
20
58586.989999999998
30
0.0
11
30548.310000000001
21
58290.120000000003
31
0.0
0
LINE
5
780
100
AcDbEntity
8
1-0
6
DOT
62
4
100
AcDbLine
10
30548.310000000001
20
58290.120000000003
30
0.0
11
30078.700000000001
21
58169.139999999999
31
0.0
0
LINE
5
781
100
AcDbEntity
8
1-0
6
DOT
62
4
100
AcDbLine
10
30078.700000000001
20
58169.139999999999
30
0.0
11
29576.349999999999
21
58169.610000000001
31
0.0
0
LINE
5
782
100
AcDbEntity
8
1-0
6
DOT
62
4
100
AcDbLine
10
29576.349999999999
20
58169.610000000001
30
0.0
11
29058.349999999999
21
58221.419999999998
31
0.0
0
LINE
5
783
100
AcDbEntity
8
1-0
6
DOT
62
4
100
AcDbLine
10
29058.349999999999
20
58221.419999999998
30
0.0
11
28541.810000000001
21
58254.589999999997
31
0.0
0
LINE
5
784
100
AcDbEntity
8
1-0
6
DOT
62
4
100
AcDbLine
10
28541.810000000001
20
58254.589999999997
30
0.0
11
28042.330000000002
21
58205.339999999997
31
0.0
0
LINE
5
785
100
AcDbEntity
8
1-0
6
DOT
62
4
100
AcDbLine
10
28042.330000000002
20
58205.339999999997
30
0.0
11
27560.939999999999
21
58072.370000000003
31
0.0
0
LINE
5
786
100
AcDbEntity
8
1-0
6
DOT
62
4
100
AcDbLine
10
27560.939999999999
20
58072.370000000003
30
0.0
11
27090.180000000000
21
57890.120000000003
31
0.0
0
LINE
5
787
100
AcDbEntity
8
1-0
6
DOT
62
4
100
AcDbLine
10
27090.180000000000
20
57890.120000000003
30
0.0
11
26896.939999999999
21
57808.610000000001
31
0.0
0
LINE
5
788
100
AcDbEntity
8
1-0
6
DOT
62
4
100
AcDbLine
10
19945.099999999999
20
59438.339999999997
30
0.0
11
20391.540000000001
21
59134.750000000000
31
0.0
0
LINE
5
789
100
AcDbEntity
8
1-0
6
DOT
62
4
100
AcDbLine
10
20391.540000000001
20
59134.750000000000
30
0.0
11
20826.419999999998
21
58825.550000000003
31
0.0
0
LINE
5
78a
100
AcDbEntity
8
1-0
6
DOT
62
4
100
AcDbLine
10
20826.419999999998
20
58825.550000000003
30
0.0
11
21238.130000000001
21
58505.080000000002
31
0.0
0
LINE
5
78b
100
AcDbEntity
8
1-0
6
DOT
62
4
100
AcDbLine
10
21238.130000000001
20
58505.080000000002
30
0.0
11
21615.110000000001
21
58167.739999999998
31
0.0
0
LINE
5
78c
100
AcDbEntity
8
1-0
6
DOT
62
4
100
AcDbLine
10
21615.110000000001
20
58167.739999999998
30
0.0
11
21945.830000000002
21
57807.910000000003
31
0.0
0
LINE
5
78d
100
AcDbEntity
8
1-0
6
DOT
62
4
100
AcDbLine
10
21945.830000000002
20
57807.910000000003
30
0.0
11
22218.660000000000
21
57419.910000000003
31
0.0
0
LINE
5
78e
100
AcDbEntity
8
1-0
6
DOT
62
4
100
AcDbLine
10
22218.660000000000
20
57419.910000000003
30
0.0
11
22422.180000000000
21
56998.250000000000
31
0.0
0
LINE
5
78f
100
AcDbEntity
8
1-0
6
DOT
62
4
100
AcDbLine
10
22422.180000000000
20
56998.250000000000
30
0.0
11
22554.320000000000
21
56541.860000000001
31
0.0
0
LINE
5
790
100
AcDbEntity
8
1-0
6
DOT
62
4
100
AcDbLine
10
22554.320000000000
20
56541.860000000001
30
0.0
11
22627.560000000001
21
56056.839999999997
31
0.0
0
LINE
5
791
100
AcDbEntity
8
1-0
6
DOT
62
4
100
AcDbLine
10
22627.560000000001
20
56056.839999999997
30
0.0
11
22655.759999999998
21
55549.910000000003
31
0.0
0
LINE
5
792
100
AcDbEntity
8
1-0
6
DOT
62
4
100
AcDbLine
10
22655.759999999998
20
55549.910000000003
30
0.0
11
22652.799999999999
21
55027.849999999999
31
0.0
0
LINE
5
793
100
AcDbEntity
8
1-0
6
DOT
62
4
100
AcDbLine
10
22652.799999999999
20
55027.849999999999
30
0.0
11
22632.450000000001
21
54497.330000000002
31
0.0
0
LINE
5
794
100
AcDbEntity
8
1-0
6
DOT
62
4
100
AcDbLine
10
22632.450000000001
20
54497.330000000002
30
0.0
11
22626.130000000001
21
54361.440000000002
31
0.0
0
LINE
5
795
100
AcDbEntity
8
1-0
6
DOT
62
4
100
AcDbLine
10
69520.660000000003
20
16436.009999999998
30
0.0
11
69219.850000000006
21
16841.439999999999
31
0.0
0
LINE
5
796
100
AcDbEntity
8
1-0
6
DOT
62
4
100
AcDbLine
10
69219.850000000006
20
16841.439999999999
30
0.0
11
68922.820000000007
21
17248.740000000002
31
0.0
0
LINE
5
797
100
AcDbEntity
8
1-0
6
DOT
62
4
100
AcDbLine
10
68922.820000000007
20
17248.740000000002
30
0.0
11
68633.270000000004
21
17659.830000000002
31
0.0
0
LINE
5
798
100
AcDbEntity
8
1-0
6
DOT
62
4
100
AcDbLine
10
68633.270000000004
20
17659.830000000002
30
0.0
11
68355.009999999995
21
18076.590000000000
31
0.0
0
LINE
5
799
100
AcDbEntity
8
1-0
6
DOT
62
4
100
AcDbLine
10
68355.009999999995
20
18076.590000000000
30
0.0
11
68091.789999999994
21
18500.919999999998
31
0.0
0
LINE
5
79a
100
AcDbEntity
8
1-0
6
DOT
62
4
100
AcDbLine
10
68091.789999999994
20
18500.919999999998
30
0.0
11
67847.380000000005
21
18934.700000000001
31
0.0
0
LINE
5
79b
100
AcDbEntity
8
1-0
6
DOT
62
4
100
AcDbLine
10
67847.380000000005
20
18934.700000000001
30
0.0
11
67625.490000000005
21
19379.830000000002
31
0.0
0
LINE
5
79c
100
AcDbEntity
8
1-0
6
DOT
62
4
100
AcDbLine
10
67625.490000000005
20
19379.830000000002
30
0.0
11
67429.350000000006
21
19837.770000000000
31
0.0
0
LINE
5
79d
100
AcDbEntity
8
1-0
6
DOT
62
4
100
AcDbLine
10
67429.350000000006
20
19837.770000000000
30
0.0
11
67258.360000000001
21
20307.360000000001
31
0.0
0
LINE
5
79e
100
AcDbEntity
8
1-0
6
DOT
62
4
100
AcDbLine
10
67258.360000000001
20
20307.360000000001
30
0.0
11
67110.589999999997
21
20786.410000000000
31
0.0
0
LINE
5
79f
100
AcDbEntity
8
1-0
6
DOT
62
4
100
AcDbLine
10
67110.589999999997
20
20786.410000000000
30
0.0
11
66984.009999999995
21
21272.689999999999
31
0.0
0
LINE
5
7a0
100
AcDbEntity
8
1-0
6
DOT
62
4
100
AcDbLine
10
66984.009999999995
20
21272.689999999999
30
0.0
11
66876.649999999994
21
21764.029999999999
31
0.0
0
LINE
5
7a1
100
AcDbEntity
8
1-0
6
DOT
62
4
100
AcDbLine
10
66876.649999999994
20
21764.029999999999
30
0.0
11
66786.309999999998
21
22258.439999999999
31
0.0
0
LINE
5
7a2
100
AcDbEntity
8
1-0
6
DOT
62
4
100
AcDbLine
10
66786.309999999998
20
22258.439999999999
30
0.0
11
66710.169999999998
21
22755.099999999999
31
0.0
0
LINE
5
7a3
100
AcDbEntity
8
1-0
6
DOT
62
4
100
AcDbLine
10
66710.169999999998
20
22755.099999999999
30
0.0
11
66645.169999999998
21
23253.380000000001
31
0.0
0
LINE
5
7a4
100
AcDbEntity
8
1-0
6
DOT
62
4
100
AcDbLine
10
66645.169999999998
20
23253.380000000001
30
0.0
11
66588.279999999999
21
23752.709999999999
31
0.0
0
LINE
5
7a5
100
AcDbEntity
8
1-0
6
DOT
62
4
100
AcDbLine
10
66588.279999999999
20
23752.709999999999
30
0.0
11
66536.440000000002
21
24252.480000000000
31
0.0
0
LINE
5
7a6
100
AcDbEntity
8
1-0
6
DOT
62
4
100
AcDbLine
10
66536.440000000002
20
24252.480000000000
30
0.0
11
66486.600000000006
21
24752.099999999999
31
0.0
0
LINE
5
7a7
100
AcDbEntity
8
1-0
6
DOT
62
4
100
AcDbLine
10
66486.600000000006
20
24752.099999999999
30
0.0
11
66435.759999999995
21
25251.000000000000
31
0.0
0
LINE
5
7a8
100
AcDbEntity
8
1-0
6
DOT
62
4
100
AcDbLine
10
66435.759999999995
20
25251.000000000000
30
0.0
11
66380.860000000001
21
25748.560000000001
31
0.0
0
LINE
5
7a9
100
AcDbEntity
8
1-0
6
DOT
62
4
100
AcDbLine
10
66380.860000000001
20
25748.560000000001
30
0.0
11
66318.850000000006
21
26244.189999999999
31
0.0
0
LINE
5
7aa
100
AcDbEntity
8
1-0
6
DOT
62
4
100
AcDbLine
10
66318.850000000006
20
26244.189999999999
30
0.0
11
66246.669999999998
21
26737.310000000001
31
0.0
0
LINE
5
7ab
100
AcDbEntity
8
1-0
6
DOT
62
4
100
AcDbLine
10
66246.669999999998
20
26737.310000000001
30
0.0
11
66161.339999999997
21
27227.330000000002
31
0.0
0
LINE
5
7ac
100
AcDbEntity
8
1-0
6
DOT
62
4
100
AcDbLine
10
66161.339999999997
20
27227.330000000002
30
0.0
11
66059.750000000000
21
27713.639999999999
31
0.0
0
LINE
5
7ad
100
AcDbEntity
8
1-0
6
DOT
62
4
100
AcDbLine
10
66059.750000000000
20
27713.639999999999
30
0.0
11
65938.929999999993
21
28195.669999999998
31
0.0
0
LINE
5
7ae
100
AcDbEntity
8
1-0
6
DOT
62
4
100
AcDbLine
10
65938.929999999993
20
28195.669999999998
30
0.0
11
65797.600000000006
21
28673.209999999999
31
0.0
0
LINE
5
7af
100
AcDbEntity
8
1-0
6
DOT
62
4
100
AcDbLine
10
65797.600000000006
20
28673.209999999999
30
0.0
11
65640.630000000005
21
29147.360000000001
31
0.0
0
LINE
5
7b0
100
AcDbEntity
8
1-0
6
DOT
62
4
100
AcDbLine
10
65640.630000000005
20
29147.360000000001
30
0.0
11
65474.180000000000
21
29619.560000000001
31
0.0
0
LINE
5
7b1
100
AcDbEntity
8
1-0
6
DOT
62
4
100
AcDbLine
10
65474.180000000000
20
29619.560000000001
30
0.0
11
65304.349999999999
21
30091.180000000000
31
0.0
0
LINE
5
7b2
100
AcDbEntity
8
1-0
6
DOT
62
4
100
AcDbLine
10
65304.349999999999
20
30091.180000000000
30
0.0
11
65137.300000000003
21
30563.650000000001
31
0.0
0
LINE
5
7b3
100
AcDbEntity
8
1-0
6
DOT
62
4
100
AcDbLine
10
65137.300000000003
20
30563.650000000001
30
0.0
11
64979.099999999999
21
31038.349999999999
31
0.0
0
LINE
5
7b4
100
AcDbEntity
8
1-0
6
DOT
62
4
100
AcDbLine
10
64979.099999999999
20
31038.349999999999
30
0.0
11
64835.540000000001
21
31516.560000000001
31
0.0
0
LINE
5
7b5
100
AcDbEntity
8
1-0
6
DOT
62
4
100
AcDbLine
10
64835.540000000001
20
31516.560000000001
30
0.0
11
64708.250000000000
21
31998.619999999999
31
0.0
0
LINE
5
7b6
100
AcDbEntity
8
1-0
6
DOT
62
4
100
AcDbLine
10
64708.250000000000
20
31998.619999999999
30
0.0
11
64596.589999999997
21
32484.270000000000
31
0.0
0
LINE
5
7b7
100
AcDbEntity
8
1-0
6
DOT
62
4
100
AcDbLine
10
64596.589999999997
20
32484.270000000000
30
0.0
11
64499.750000000000
21
32973.199999999997
31
0.0
0
LINE
5
7b8
100
AcDbEntity
8
1-0
6
DOT
62
4
100
AcDbLine
10
64499.750000000000
20
32973.199999999997
30
0.0
11
64417.089999999997
21
33465.139999999999
31
0.0
0
LINE
5
7b9
100
AcDbEntity
8
1-0
6
DOT
62
4
100
AcDbLine
10
64417.089999999997
20
33465.139999999999
30
0.0
11
64347.809999999998
21
33959.800000000003
31
0.0
0
LINE
5
7ba
100
AcDbEntity
8
1-0
6
DOT
62
4
100
AcDbLine
10
64347.809999999998
20
33959.800000000003
30
0.0
11
64291.169999999998
21
34456.930000000000
31
0.0
0
LINE
5
7bb
100
AcDbEntity
8
1-0
6
DOT
62
4
100
AcDbLine
10
64291.169999999998
20
34456.930000000000
30
0.0
11
64246.489999999998
21
34956.230000000003
31
0.0
0
LINE
5
7bc
100
AcDbEntity
8
1-0
6
DOT
62
4
100
AcDbLine
10
64246.489999999998
20
34956.230000000003
30
0.0
11
64213.010000000002
21
35457.449999999997
31
0.0
0
LINE
5
7bd
100
AcDbEntity
8
1-0
6
DOT
62
4
100
AcDbLine
10
64213.010000000002
20
35457.449999999997
30
0.0
11
64190.000000000000
21
35960.260000000002
31
0.0
0
LINE
5
7be
100
AcDbEntity
8
1-0
6
DOT
62
4
100
AcDbLine
10
64190.000000000000
20
35960.260000000002
30
0.0
11
64176.690000000002
21
36464.410000000003
31
0.0
0
LINE
5
7bf
100
AcDbEntity
8
1-0
6
DOT
62
4
100
AcDbLine
10
64176.690000000002
20
36464.410000000003
30
0.0
11
64172.419999999998
21
36969.629999999997
31
0.0
0
LINE
5
7c0
100
AcDbEntity
8
1-0
6
DOT
62
4
100
AcDbLine
10
64172.419999999998
20
36969.629999999997
30
0.0
11
64176.389999999999
21
37475.610000000001
31
0.0
0
LINE
5
7c1
100
AcDbEntity
8
1-0
6
DOT
62
4
100
AcDbLine
10
64176.389999999999
20
37475.610000000001
30
0.0
11
64187.900000000001
21
37982.080000000002
31
0.0
0
LINE
5
7c2
100
AcDbEntity
8
1-0
6
DOT
62
4
100
AcDbLine
10
64187.900000000001
20
37982.080000000002
30
0.0
11
64206.209999999999
21
38488.790000000001
31
0.0
0
LINE
5
7c3
100
AcDbEntity
8
1-0
6
DOT
62
4
100
AcDbLine
10
64206.209999999999
20
38488.790000000001
30
0.0
11
64230.589999999997
21
38995.440000000002
31
0.0
0
LINE
5
7c4
100
AcDbEntity
8
1-0
6
DOT
62
4
100
AcDbLine
10
64230.589999999997
20
38995.440000000002
30
0.0
11
64260.309999999998
21
39501.760000000002
31
0.0
0
LINE
5
7c5
100
AcDbEntity
8
1-0
6
DOT
62
4
100
AcDbLine
10
64260.309999999998
20
39501.760000000002
30
0.0
11
64294.620000000003
21
40007.440000000002
31
0.0
0
LINE
5
7c6
100
AcDbEntity
8
1-0
6
DOT
62
4
100
AcDbLine
10
64294.620000000003
20
40007.440000000002
30
0.0
11
64332.790000000001
21
40512.230000000003
31
0.0
0
LINE
5
7c7
100
AcDbEntity
8
1-0
6
DOT
62
4
100
AcDbLine
10
64332.790000000001
20
40512.230000000003
30
0.0
11
64374.110000000001
21
41015.830000000002
31
0.0
0
LINE
5
7c8
100
AcDbEntity
8
1-0
6
DOT
62
4
100
AcDbLine
10
64374.110000000001
20
41015.830000000002
30
0.0
11
64417.879999999997
21
41517.989999999998
31
0.0
0
LINE
5
7c9
100
AcDbEntity
8
1-0
6
DOT
62
4
100
AcDbLine
10
64417.879999999997
20
41517.989999999998
30
0.0
11
64464.169999999998
21
42018.550000000003
31
0.0
0
LINE
5
7ca
100
AcDbEntity
8
1-0
6
DOT
62
4
100
AcDbLine
10
64464.169999999998
20
42018.550000000003
30
0.0
11
64514.190000000002
21
42517.480000000003
31
0.0
0
LINE
5
7cb
100
AcDbEntity
8
1-0
6
DOT
62
4
100
AcDbLine
10
64514.190000000002
20
42517.480000000003
30
0.0
11
64569.180000000000
21
43014.790000000001
31
0.0
0
LINE
5
7cc
100
AcDbEntity
8
1-0
6
DOT
62
4
100
AcDbLine
10
64569.180000000000
20
43014.790000000001
30
0.0
11
64630.400000000001
21
43510.519999999997
31
0.0
0
LINE
5
7cd
100
AcDbEntity
8
1-0
6
DOT
62
4
100
AcDbLine
10
64630.400000000001
20
43510.519999999997
30
0.0
11
64699.070000000000
21
44004.629999999997
31
0.0
0
LINE
5
7ce
100
AcDbEntity
8
1-0
6
DOT
62
4
100
AcDbLine
10
64699.070000000000
20
44004.629999999997
30
0.0
11
64776.459999999999
21
44497.150000000001
31
0.0
0
LINE
5
7cf
100
AcDbEntity
8
1-0
6
DOT
62
4
100
AcDbLine
10
64776.459999999999
20
44497.150000000001
30
0.0
11
64863.769999999997
21
44988.089999999997
31
0.0
0
LINE
5
7d0
100
AcDbEntity
8
1-0
6
DOT
62
4
100
AcDbLine
10
64863.769999999997
20
44988.089999999997
30
0.0
11
64962.250000000000
21
45477.440000000002
31
0.0
0
LINE
5
7d1
100
AcDbEntity
8
1-0
6
DOT
62
4
100
AcDbLine
10
64962.250000000000
20
45477.440000000002
30
0.0
11
65073.180000000000
21
45965.230000000003
31
0.0
0
LINE
5
7d2
100
AcDbEntity
8
1-0
6
DOT
62
4
100
AcDbLine
10
65073.180000000000
20
45965.230000000003
30
0.0
11
65197.790000000001
21
46451.440000000002
31
0.0
0
LINE
5
7d3
100
AcDbEntity
8
1-0
6
DOT
62
4
100
AcDbLine
10
65197.790000000001
20
46451.440000000002
30
0.0
11
65337.279999999999
21
46936.050000000003
31
0.0
0
LINE
5
7d4
100
AcDbEntity
8
1-0
6
DOT
62
4
100
AcDbLine
10
65337.279999999999
20
46936.050000000003
30
0.0
11
65492.919999999998
21
47419.120000000003
31
0.0
0
LINE
5
7d5
100
AcDbEntity
8
1-0
6
DOT
62
4
100
AcDbLine
10
65492.919999999998
20
47419.120000000003
30
0.0
11
65666.289999999994
21
47900.070000000000
31
0.0
0
LINE
5
7d6
100
AcDbEntity
8
1-0
6
DOT
62
4
100
AcDbLine
10
65666.289999999994
20
47900.070000000000
30
0.0
11
65861.660000000003
21
48373.250000000000
31
0.0
0
LINE
5
7d7
100
AcDbEntity
8
1-0
6
DOT
62
4
100
AcDbLine
10
65861.660000000003
20
48373.250000000000
30
0.0
11
66084.960000000006
21
48830.220000000001
31
0.0
0
LINE
5
7d8
100
AcDbEntity
8
1-0
6
DOT
62
4
100
AcDbLine
10
66084.960000000006
20
48830.220000000001
30
0.0
11
66342.009999999995
21
49262.559999999998
31
0.0
0
LINE
5
7d9
100
AcDbEntity
8
1-0
6
DOT
62
4
100
AcDbLine
10
66342.009999999995
20
49262.559999999998
30
0.0
11
66638.699999999997
21
49661.790000000001
31
0.0
0
LINE
5
7da
100
AcDbEntity
8
1-0
6
DOT
62
4
100
AcDbLine
10
66638.699999999997
20
49661.790000000001
30
0.0
11
66980.830000000002
21
50019.519999999997
31
0.0
0
LINE
5
7db
100
AcDbEntity
8
1-0
6
DOT
62
4
100
AcDbLine
10
66980.830000000002
20
50019.519999999997
30
0.0
11
67362.520000000004
21
50340.169999999998
31
0.0
0
LINE
5
7dc
100
AcDbEntity
8
1-0
6
DOT
62
4
100
AcDbLine
10
67362.520000000004
20
50340.169999999998
30
0.0
11
67748.990000000005
21
50659.720000000001
31
0.0
0
LINE
5
7dd
100
AcDbEntity
8
1-0
6
DOT
62
4
100
AcDbLine
10
67748.990000000005
20
50659.720000000001
30
0.0
11
68101.500000000000
21
51018.360000000001
31
0.0
0
LINE
5
7de
100
AcDbEntity
8
1-0
6
DOT
62
4
100
AcDbLine
10
68101.500000000000
20
51018.360000000001
30
0.0
11
68397.770000000004
21
51434.279999999999
31
0.0
0
LINE
5
7df
100
AcDbEntity
8
1-0
6
DOT
62
4
100
AcDbLine
10
68397.770000000004
20
51434.279999999999
30
0.0
11
68636.110000000001
21
51898.389999999999
31
0.0
0
LINE
5
7e0
100
AcDbEntity
8
1-0
6
DOT
62
4
100
AcDbLine
10
68636.110000000001
20
51898.389999999999
30
0.0
11
68816.130000000005
21
52399.889999999999
31
0.0
0
LINE
5
7e1
100
AcDbEntity
8
1-0
6
DOT
62
4
100
AcDbLine
10
68816.130000000005
20
52399.889999999999
30
0.0
11
68937.440000000002
21
52927.870000000003
31
0.0
0
LINE
5
7e2
100
AcDbEntity
8
1-0
6
DOT
62
4
100
AcDbLine
10
68937.440000000002
20
52927.870000000003
30
0.0
11
68999.600000000006
21
53471.519999999997
31
0.0
0
LINE
5
7e3
100
AcDbEntity
8
1-0
6
DOT
62
4
100
AcDbLine
10
68999.600000000006
20
53471.519999999997
30
0.0
11
69002.229999999996
21
54020.000000000000
31
0.0
0
LINE
5
7e4
100
AcDbEntity
8
1-0
6
DOT
62
4
100
AcDbLine
10
69002.229999999996
20
54020.000000000000
30
0.0
11
68944.880000000005
21
54562.489999999998
31
0.0
0
LINE
5
7e5
100
AcDbEntity
8
1-0
6
DOT
62
4
100
AcDbLine
10
68944.880000000005
20
54562.489999999998
30
0.0
11
68827.210000000006
21
55088.150000000001
31
0.0
0
LINE
5
7e6
100
AcDbEntity
8
1-0
6
DOT
62
4
100
AcDbLine
10
68827.210000000006
20
55088.150000000001
30
0.0
11
68648.770000000004
21
55586.110000000001
31
0.0
0
LINE
5
7e7
100
AcDbEntity
8
1-0
6
DOT
62
4
100
AcDbLine
10
68648.770000000004
20
55586.110000000001
30
0.0
11
68409.149999999994
21
56045.550000000003
31
0.0
0
LINE
5
7e8
100
AcDbEntity
8
1-0
6
DOT
62
4
100
AcDbLine
10
68409.149999999994
20
56045.550000000003
30
0.0
11
68114.289999999994
21
56461.870000000003
31
0.0
0
LINE
5
7e9
100
AcDbEntity
8
1-0
6
DOT
62
4
100
AcDbLine
10
68114.289999999994
20
56461.870000000003
30
0.0
11
67791.139999999999
21
56851.550000000003
31
0.0
0
LINE
5
7ea
100
AcDbEntity
8
1-0
6
DOT
62
4
100
AcDbLine
10
67791.139999999999
20
56851.550000000003
30
0.0
11
67471.130000000005
21
57235.309999999998
31
0.0
0
LINE
5
7eb
100
AcDbEntity
8
1-0
6
DOT
62
4
100
AcDbLine
10
67471.130000000005
20
57235.309999999998
30
0.0
11
67185.669999999998
21
57633.959999999999
31
0.0
0
LINE
5
7ec
100
AcDbEntity
8
1-0
6
DOT
62
4
100
AcDbLine
10
67185.669999999998
20
57633.959999999999
30
0.0
11
66963.320000000007
21
58066.610000000001
31
0.0
0
LINE
5
7ed
100
AcDbEntity
8
1-0
6
DOT
62
4
100
AcDbLine
10
66963.320000000007
20
58066.610000000001
30
0.0
11
66800.050000000003
21
58532.760000000002
31
0.0
0
LINE
5
7ee
100
AcDbEntity
8
1-0
6
DOT
62
4
100
AcDbLine
10
66800.050000000003
20
58532.760000000002
30
0.0
11
66671.080000000002
21
59019.580000000002
31
0.0
0
LINE
5
7ef
100
AcDbEntity
8
1-0
6
DOT
62
4
100
AcDbLine
10
66671.080000000002
20
59019.580000000002
30
0.0
11
66551.270000000004
21
59513.870000000003
31
0.0
0
LINE
5
7f0
100
AcDbEntity
8
1-0
6
DOT
62
4
100
AcDbLine
10
66551.270000000004
20
59513.870000000003
30
0.0
11
66415.520000000004
21
60002.580000000002
31
0.0
0
LINE
5
7f1
100
AcDbEntity
8
1-0
6
DOT
62
4
100
AcDbLine
10
66415.520000000004
20
60002.580000000002
30
0.0
11
66241.490000000005
21
60473.889999999999
31
0.0
0
LINE
5
7f2
100
AcDbEntity
8
1-0
6
DOT
62
4
100
AcDbLine
10
66241.490000000005
20
60473.889999999999
30
0.0
11
66026.399999999994
21
60925.589999999997
31
0.0
0
LINE
5
7f3
100
AcDbEntity
8
1-0
6
DOT
62
4
100
AcDbLine
10
66026.399999999994
20
60925.589999999997
30
0.0
11
65776.000000000000
21
61359.419999999998
31
0.0
0
LINE
5
7f4
100
AcDbEntity
8
1-0
6
DOT
62
4
100
AcDbLine
10
65776.000000000000
20
61359.419999999998
30
0.0
11
65496.120000000003
21
61777.269999999997
31
0.0
0
LINE
5
7f5
100
AcDbEntity
8
1-0
6
DOT
62
4
100
AcDbLine
10
65496.120000000003
20
61777.269999999997
30
0.0
11
65192.500000000000
21
62180.959999999999
31
0.0
0
LINE
5
7f6
100
AcDbEntity
8
1-0
6
DOT
62
4
100
AcDbLine
10
65192.500000000000
20
62180.959999999999
30
0.0
11
64870.940000000002
21
62572.309999999998
31
0.0
0
LINE
5
7f7
100
AcDbEntity
8
1-0
6
DOT
62
4
100
AcDbLine
10
64870.940000000002
20
62572.309999999998
30
0.0
11
64536.860000000001
21
62953.050000000003
31
0.0
0
LINE
5
7f8
100
AcDbEntity
8
1-0
6
DOT
62
4
100
AcDbLine
10
64536.860000000001
20
62953.050000000003
30
0.0
11
64192.320000000000
21
63323.779999999999
31
0.0
0
LINE
5
7f9
100
AcDbEntity
8
1-0
6
DOT
62
4
100
AcDbLine
10
64192.320000000000
20
63323.779999999999
30
0.0
11
63837.739999999998
21
63684.410000000003
31
0.0
0
LINE
5
7fa
100
AcDbEntity
8
1-0
6
DOT
62
4
100
AcDbLine
10
63837.739999999998
20
63684.410000000003
30
0.0
11
63473.510000000002
21
64034.959999999999
31
0.0
0
LINE
5
7fb
100
AcDbEntity
8
1-0
6
DOT
62
4
100
AcDbLine
10
63473.510000000002
20
64034.959999999999
30
0.0
11
63100.010000000002
21
64375.449999999997
31
0.0
0
LINE
5
7fc
100
AcDbEntity
8
1-0
6
DOT
62
4
100
AcDbLine
10
63100.010000000002
20
64375.449999999997
30
0.0
11
62717.620000000003
21
64705.790000000001
31
0.0
0
LINE
5
7fd
100
AcDbEntity
8
1-0
6
DOT
62
4
100
AcDbLine
10
62717.620000000003
20
64705.790000000001
30
0.0
11
62326.750000000000
21
65026.050000000003
31
0.0
0
LINE
5
7fe
100
AcDbEntity
8
1-0
6
DOT
62
4
100
AcDbLine
10
62326.750000000000
20
65026.050000000003
30
0.0
11
61927.800000000003
21
65336.139999999999
31
0.0
0
LINE
5
7ff
100
AcDbEntity
8
1-0
6
DOT
62
4
100
AcDbLine
10
61927.800000000003
20
65336.139999999999
30
0.0
11
61521.150000000001
21
65636.100000000006
31
0.0
0
LINE
5
800
100
AcDbEntity
8
1-0
6
DOT
62
4
100
AcDbLine
10
61521.150000000001
20
65636.100000000006
30
0.0
11
61107.180000000000
21
65925.860000000001
31
0.0
0
LINE
5
801
100
AcDbEntity
8
1-0
6
DOT
62
4
100
AcDbLine
10
61107.180000000000
20
65925.860000000001
30
0.0
11
60686.279999999999
21
66205.460000000006
31
0.0
0
LINE
5
802
100
AcDbEntity
8
1-0
6
DOT
62
4
100
AcDbLine
10
60686.279999999999
20
66205.460000000006
30
0.0
11
60258.820000000000
21
66474.869999999995
31
0.0
0
LINE
5
803
100
AcDbEntity
8
1-0
6
DOT
62
4
100
AcDbLine
10
60258.820000000000
20
66474.869999999995
30
0.0
11
59825.250000000000
21
66734.029999999999
31
0.0
0
LINE
5
804
100
AcDbEntity
8
1-0
6
DOT
62
4
100
AcDbLine
10
59825.250000000000
20
66734.029999999999
30
0.0
11
59385.930000000000
21
66982.990000000005
31
0.0
0
LINE
5
805
100
AcDbEntity
8
1-0
6
DOT
62
4
100
AcDbLine
10
59385.930000000000
20
66982.990000000005
30
0.0
11
58941.220000000001
21
67221.699999999997
31
0.0
0
LINE
5
806
100
AcDbEntity
8
1-0
6
DOT
62
4
100
AcDbLine
10
58941.220000000001
20
67221.699999999997
30
0.0
11
58491.550000000003
21
67450.119999999995
31
0.0
0
LINE
5
807
100
AcDbEntity
8
1-0
6
DOT
62
4
100
AcDbLine
10
58491.550000000003
20
67450.119999999995
30
0.0
11
58037.320000000000
21
67668.289999999994
31
0.0
0
LINE
5
808
100
AcDbEntity
8
1-0
6
DOT
62
4
100
AcDbLine
10
58037.320000000000
20
67668.289999999994
30
0.0
11
57578.860000000001
21
67876.149999999994
31
0.0
0
LINE
5
809
100
AcDbEntity
8
1-0
6
DOT
62
4
100
AcDbLine
10
57578.860000000001
20
67876.149999999994
30
0.0
11
57116.610000000001
21
68073.679999999993
31
0.0
0
LINE
5
80a
100
AcDbEntity
8
1-0
6
DOT
62
4
100
AcDbLine
10
57116.610000000001
20
68073.679999999993
30
0.0
11
56650.970000000001
21
68260.910000000003
31
0.0
0
LINE
5
80b
100
AcDbEntity
8
1-0
6
DOT
62
4
100
AcDbLine
10
56650.970000000001
20
68260.910000000003
30
0.0
11
56182.279999999999
21
68438.130000000005
31
0.0
0
LINE
5
80c
100
AcDbEntity
8
1-0
6
DOT
62
4
100
AcDbLine
10
56182.279999999999
20
68438.130000000005
30
0.0
11
55711.029999999999
21
68606.619999999995
31
0.0
0
LINE
5
80d
100
AcDbEntity
8
1-0
6
DOT
62
4
100
AcDbLine
10
55711.029999999999
20
68606.619999999995
30
0.0
11
55237.610000000001
21
68767.779999999999
31
0.0
0
LINE
5
80e
100
AcDbEntity
8
1-0
6
DOT
62
4
100
AcDbLine
10
55237.610000000001
20
68767.779999999999
30
0.0
11
54762.449999999997
21
68923.110000000001
31
0.0
0
LINE
5
80f
100
AcDbEntity
8
1-0
6
DOT
62
4
100
AcDbLine
10
54762.449999999997
20
68923.110000000001
30
0.0
11
54286.010000000002
21
69074.089999999997
31
0.0
0
LINE
5
810
100
AcDbEntity
8
1-0
6
DOT
62
4
100
AcDbLine
10
54286.010000000002
20
69074.089999999997
30
0.0
11
53808.720000000001
21
69222.130000000005
31
0.0
0
LINE
5
811
100
AcDbEntity
8
1-0
6
DOT
62
4
100
AcDbLine
10
53808.720000000001
20
69222.130000000005
30
0.0
11
53330.989999999998
21
69368.729999999996
31
0.0
0
LINE
5
812
100
AcDbEntity
8
1-0
6
DOT
62
4
100
AcDbLine
10
53330.989999999998
20
69368.729999999996
30
0.0
11
53328.459999999999
21
69369.490000000005
31
0.0
0
LINE
5
813
100
AcDbEntity
8
1-0
6
DOT
62
4
100
AcDbLine
10
58317.529999999999
20
70496.199999999997
30
0.0
11
58748.809999999998
21
70243.089999999997
31
0.0
0
LINE
5
814
100
AcDbEntity
8
1-0
6
DOT
62
4
100
AcDbLine
10
58748.809999999998
20
70243.089999999997
30
0.0
11
59179.320000000000
21
69988.759999999995
31
0.0
0
LINE
5
815
100
AcDbEntity
8
1-0
6
DOT
62
4
100
AcDbLine
10
59179.320000000000
20
69988.759999999995
30
0.0
11
59608.370000000003
21
69732.009999999995
31
0.0
0
LINE
5
816
100
AcDbEntity
8
1-0
6
DOT
62
4
100
AcDbLine
10
59608.370000000003
20
69732.009999999995
30
0.0
11
60035.220000000001
21
69471.630000000005
31
0.0
0
LINE
5
817
100
AcDbEntity
8
1-0
6
DOT
62
4
100
AcDbLine
10
60035.220000000001
20
69471.630000000005
30
0.0
11
60459.080000000002
21
69206.410000000003
31
0.0
0
LINE
5
818
100
AcDbEntity
8
1-0
6
DOT
62
4
100
AcDbLine
10
60459.080000000002
20
69206.410000000003
30
0.0
11
60879.269999999997
21
68935.169999999998
31
0.0
0
LINE
5
819
100
AcDbEntity
8
1-0
6
DOT
62
4
100
AcDbLine
10
60879.269999999997
20
68935.169999999998
30
0.0
11
61295.010000000002
21
68656.660000000003
31
0.0
0
LINE
5
81a
100
AcDbEntity
8
1-0
6
DOT
62
4
100
AcDbLine
10
61295.010000000002
20
68656.660000000003
30
0.0
11
61705.599999999999
21
68369.710000000006
31
0.0
0
LINE
5
81b
100
AcDbEntity
8
1-0
6
DOT
62
4
100
AcDbLine
10
61705.599999999999
20
68369.710000000006
30
0.0
11
62110.260000000002
21
68073.679999999993
31
0.0
0
LINE
5
81c
100
AcDbEntity
8
1-0
6
DOT
62
4
100
AcDbLine
10
62110.260000000002
20
68073.679999999993
30
0.0
11
62508.419999999998
21
67768.789999999994
31
0.0
0
LINE
5
81d
100
AcDbEntity
8
1-0
6
DOT
62
4
100
AcDbLine
10
62508.419999999998
20
67768.789999999994
30
0.0
11
62899.349999999999
21
67455.279999999999
31
0.0
0
LINE
5
81e
100
AcDbEntity
8
1-0
6
DOT
62
4
100
AcDbLine
10
62899.349999999999
20
67455.279999999999
30
0.0
11
63282.379999999997
21
67133.440000000002
31
0.0
0
LINE
5
81f
100
AcDbEntity
8
1-0
6
DOT
62
4
100
AcDbLine
10
63282.379999999997
20
67133.440000000002
30
0.0
11
63656.889999999999
21
66803.550000000003
31
0.0
0
LINE
5
820
100
AcDbEntity
8
1-0
6
DOT
62
4
100
AcDbLine
10
63656.889999999999
20
66803.550000000003
30
0.0
11
64022.250000000000
21
66465.869999999995
31
0.0
0
LINE
5
821
100
AcDbEntity
8
1-0
6
DOT
62
4
100
AcDbLine
10
64022.250000000000
20
66465.869999999995
30
0.0
11
64379.150000000001
21
66121.240000000005
31
0.0
0
LINE
5
822
100
AcDbEntity
8
1-0
6
DOT
62
4
100
AcDbLine
10
64379.150000000001
20
66121.240000000005
30
0.0
11
64730.589999999997
21
65771.440000000002
31
0.0
0
LINE
5
823
100
AcDbEntity
8
1-0
6
DOT
62
4
100
AcDbLine
10
64730.589999999997
20
65771.440000000002
30
0.0
11
65079.769999999997
21
65418.379999999997
31
0.0
0
LINE
5
824
100
AcDbEntity
8
1-0
6
DOT
62
4
100
AcDbLine
10
65079.769999999997
20
65418.379999999997
30
0.0
11
65429.809999999998
21
65063.889999999999
31
0.0
0
LINE
5
825
100
AcDbEntity
8
1-0
6
DOT
62
4
100
AcDbLine
10
65429.809999999998
20
65063.889999999999
30
0.0
11
65783.880000000005
21
64709.830000000002
31
0.0
0
LINE
5
826
100
AcDbEntity
8
1-0
6
DOT
62
4
100
AcDbLine
10
65783.880000000005
20
64709.830000000002
30
0.0
11
66145.139999999999
21
64358.019999999997
31
0.0
0
LINE
5
827
100
AcDbEntity
8
1-0
6
DOT
62
4
100
AcDbLine
10
66145.139999999999
20
64358.019999999997
30
0.0
11
66516.750000000000
21
64010.360000000001
31
0.0
0
LINE
5
828
100
AcDbEntity
8
1-0
6
DOT
62
4
100
AcDbLine
10
66516.750000000000
20
64010.360000000001
30
0.0
11
66900.389999999999
21
63667.930000000000
31
0.0
0
LINE
5
829
100
AcDbEntity
8
1-0
6
DOT
62
4
100
AcDbLine
10
66900.389999999999
20
63667.930000000000
30
0.0
11
67290.429999999993
21
63327.779999999999
31
0.0
0
LINE
5
82a
100
AcDbEntity
8
1-0
6
DOT
62
4
100
AcDbLine
10
67290.429999999993
20
63327.779999999999
30
0.0
11
67679.039999999994
21
62985.790000000001
31
0.0
0
LINE
5
82b
100
AcDbEntity
8
1-0
6
DOT
62
4
100
AcDbLine
10
67679.039999999994
20
62985.790000000001
30
0.0
11
68058.380000000005
21
62637.900000000001
31
0.0
0
LINE
5
82c
100
AcDbEntity
8
1-0
6
DOT
62
4
100
AcDbLine
10
68058.380000000005
20
62637.900000000001
30
0.0
11
68420.619999999995
21
62279.980000000003
31
0.0
0
LINE
5
82d
100
AcDbEntity
8
1-0
6
DOT
62
4
100
AcDbLine
10
68420.619999999995
20
62279.980000000003
30
0.0
11
68757.899999999994
21
61907.919999999998
31
0.0
0
LINE
5
82e
100
AcDbEntity
8
1-0
6
DOT
62
4
100
AcDbLine
10
68757.899999999994
20
61907.919999999998
30
0.0
11
69062.410000000003
21
61517.599999999999
31
0.0
0
LINE
5
82f
100
AcDbEntity
8
1-0
6
DOT
62
4
100
AcDbLine
10
69062.410000000003
20
61517.599999999999
30
0.0
11
69326.320000000007
21
61104.910000000003
31
0.0
0
LINE
5
830
100
AcDbEntity
8
1-0
6
DOT
62
4
100
AcDbLine
10
69326.320000000007
20
61104.910000000003
30
0.0
11
69541.750000000000
21
60665.760000000002
31
0.0
0
LINE
5
831
100
AcDbEntity
8
1-0
6
DOT
62
4
100
AcDbLine
10
69541.750000000000
20
60665.760000000002
30
0.0
11
69703.979999999996
21
60197.680000000000
31
0.0
0
LINE
5
832
100
AcDbEntity
8
1-0
6
DOT
62
4
100
AcDbLine
10
69703.979999999996
20
60197.680000000000
30
0.0
11
69833.770000000004
21
59711.690000000002
31
0.0
0
LINE
5
833
100
AcDbEntity
8
1-0
6
DOT
62
4
100
AcDbLine
10
69833.770000000004
20
59711.690000000002
30
0.0
11
69964.809999999998
21
59225.629999999997
31
0.0
0
LINE
5
834
100
AcDbEntity
8
1-0
6
DOT
62
4
100
AcDbLine
10
69964.809999999998
20
59225.629999999997
30
0.0
11
70130.800000000003
21
58757.400000000001
31
0.0
0
LINE
5
835
100
AcDbEntity
8
1-0
6
DOT
62
4
100
AcDbLine
10
70130.800000000003
20
58757.400000000001
30
0.0
11
70355.100000000006
21
58319.260000000002
31
0.0
0
LINE
5
836
100
AcDbEntity
8
1-0
6
DOT
62
4
100
AcDbLine
10
70355.100000000006
20
58319.260000000002
30
0.0
11
70626.740000000005
21
57904.930000000000
31
0.0
0
LINE
5
837
100
AcDbEntity
8
1-0
6
DOT
62
4
100
AcDbLine
10
70626.740000000005
20
57904.930000000000
30
0.0
11
70927.490000000005
21
57504.169999999998
31
0.0
0
LINE
5
838
100
AcDbEntity
8
1-0
6
DOT
62
4
100
AcDbLine
10
70927.490000000005
20
57504.169999999998
30
0.0
11
71239.110000000001
21
57106.739999999998
31
0.0
0
LINE
5
839
100
AcDbEntity
8
1-0
6
DOT
62
4
100
AcDbLine
10
71239.110000000001
20
57106.739999999998
30
0.0
11
71543.389999999999
21
56702.440000000002
31
0.0
0
LINE
5
83a
100
AcDbEntity
8
1-0
6
DOT
62
4
100
AcDbLine
10
71543.389999999999
20
56702.440000000002
30
0.0
11
71822.110000000001
21
56281.050000000003
31
0.0
0
LINE
5
83b
100
AcDbEntity
8
1-0
6
DOT
62
4
100
AcDbLine
10
71822.110000000001
20
56281.050000000003
30
0.0
11
72057.399999999994
21
55832.599999999999
31
0.0
0
LINE
5
83c
100
AcDbEntity
8
1-0
6
DOT
62
4
100
AcDbLine
10
72057.399999999994
20
55832.599999999999
30
0.0
11
72240.259999999995
21
55354.389999999999
31
0.0
0
LINE
5
83d
100
AcDbEntity
8
1-0
6
DOT
62
4
100
AcDbLine
10
72240.259999999995
20
55354.389999999999
30
0.0
11
72371.520000000004
21
54851.580000000002
31
0.0
0
LINE
5
83e
100
AcDbEntity
8
1-0
6
DOT
62
4
100
AcDbLine
10
72371.520000000004
20
54851.580000000002
30
0.0
11
72452.479999999996
21
54329.730000000003
31
0.0
0
LINE
5
83f
100
AcDbEntity
8
1-0
6
DOT
62
4
100
AcDbLine
10
72452.479999999996
20
54329.730000000003
30
0.0
11
72484.470000000001
21
53794.449999999997
31
0.0
0
LINE
5
840
100
AcDbEntity
8
1-0
6
DOT
62
4
100
AcDbLine
10
72484.470000000001
20
53794.449999999997
30
0.0
11
72468.750000000000
21
53251.269999999997
31
0.0
0
LINE
5
841
100
AcDbEntity
8
1-0
6
DOT
62
4
100
AcDbLine
10
72468.750000000000
20
53251.269999999997
30
0.0
11
72406.639999999999
21
52705.769999999997
31
0.0
0
LINE
5
842
100
AcDbEntity
8
1-0
6
DOT
62
4
100
AcDbLine
10
72406.639999999999
20
52705.769999999997
30
0.0
11
72299.410000000003
21
52163.529999999999
31
0.0
0
LINE
5
843
100
AcDbEntity
8
1-0
6
DOT
62
4
100
AcDbLine
10
72299.410000000003
20
52163.529999999999
30
0.0
11
72148.399999999994
21
51630.120000000003
31
0.0
0
LINE
5
844
100
AcDbEntity
8
1-0
6
DOT
62
4
100
AcDbLine
10
72148.399999999994
20
51630.120000000003
30
0.0
11
71954.919999999998
21
51111.070000000000
31
0.0
0
LINE
5
845
100
AcDbEntity
8
1-0
6
DOT
62
4
100
AcDbLine
10
71954.919999999998
20
51111.070000000000
30
0.0
11
71720.220000000001
21
50612.019999999997
31
0.0
0
LINE
5
846
100
AcDbEntity
8
1-0
6
DOT
62
4
100
AcDbLine
10
71720.220000000001
20
50612.019999999997
30
0.0
11
71445.649999999994
21
50138.480000000003
31
0.0
0
LINE
5
847
100
AcDbEntity
8
1-0
6
DOT
62
4
100
AcDbLine
10
71445.649999999994
20
50138.480000000003
30
0.0
11
71132.449999999997
21
49696.059999999998
31
0.0
0
LINE
5
848
100
AcDbEntity
8
1-0
6
DOT
62
4
100
AcDbLine
10
71132.449999999997
20
49696.059999999998
30
0.0
11
70781.979999999996
21
49290.330000000002
31
0.0
0
LINE
5
849
100
AcDbEntity
8
1-0
6
DOT
62
4
100
AcDbLine
10
70781.979999999996
20
49290.330000000002
30
0.0
11
70395.509999999995
21
48926.809999999998
31
0.0
0
LINE
5
84a
100
AcDbEntity
8
1-0
6
DOT
62
4
100
AcDbLine
10
70395.509999999995
20
48926.809999999998
30
0.0
11
69974.490000000005
21
48610.919999999998
31
0.0
0
LINE
5
84b
100
AcDbEntity
8
1-0
6
DOT
62
4
100
AcDbLine
10
69974.490000000005
20
48610.919999999998
30
0.0
11
69526.000000000000
21
48339.349999999999
31
0.0
0
LINE
5
84c
100
AcDbEntity
8
1-0
6
DOT
62
4
100
AcDbLine
10
69526.000000000000
20
48339.349999999999
30
0.0
11
69064.759999999995
21
48097.250000000000
31
0.0
0
LINE
5
84d
100
AcDbEntity
8
1-0
6
DOT
62
4
100
AcDbLine
10
69064.759999999995
20
48097.250000000000
30
0.0
11
68605.960000000006
21
47869.010000000002
31
0.0
0
LINE
5
84e
100
AcDbEntity
8
1-0
6
DOT
62
4
100
AcDbLine
10
68605.960000000006
20
47869.010000000002
30
0.0
11
68164.800000000003
21
47638.910000000003
31
0.0
0
LINE
5
84f
100
AcDbEntity
8
1-0
6
DOT
62
4
100
AcDbLine
10
68164.800000000003
20
47638.910000000003
30
0.0
11
67756.500000000000
21
47391.320000000000
31
0.0
0
LINE
5
850
100
AcDbEntity
8
1-0
6
DOT
62
4
100
AcDbLine
10
67756.500000000000
20
47391.320000000000
30
0.0
11
67396.270000000004
21
47110.620000000003
31
0.0
0
LINE
5
851
100
AcDbEntity
8
1-0
6
DOT
62
4
100
AcDbLine
10
67396.270000000004
20
47110.620000000003
30
0.0
11
67094.729999999996
21
46785.849999999999
31
0.0
0
LINE
5
852
100
AcDbEntity
8
1-0
6
DOT
62
4
100
AcDbLine
10
67094.729999999996
20
46785.849999999999
30
0.0
11
66849.880000000005
21
46418.839999999997
31
0.0
0
LINE
5
853
100
AcDbEntity
8
1-0
6
DOT
62
4
100
AcDbLine
10
66849.880000000005
20
46418.839999999997
30
0.0
11
66657.679999999993
21
46013.599999999999
31
0.0
0
LINE
5
854
100
AcDbEntity
8
1-0
6
DOT
62
4
100
AcDbLine
10
66657.679999999993
20
46013.599999999999
30
0.0
11
66514.039999999994
21
45574.180000000000
31
0.0
0
LINE
5
855
100
AcDbEntity
8
1-0
6
DOT
62
4
100
AcDbLine
10
66514.039999999994
20
45574.180000000000
30
0.0
11
66414.910000000003
21
45104.510000000002
31
0.0
0
LINE
5
856
100
AcDbEntity
8
1-0
6
DOT
62
4
100
AcDbLine
10
66414.910000000003
20
45104.510000000002
30
0.0
11
66356.169999999998
21
44608.660000000003
31
0.0
0
LINE
5
857
100
AcDbEntity
8
1-0
6
DOT
62
4
100
AcDbLine
10
66356.169999999998
20
44608.660000000003
30
0.0
11
66333.770000000004
21
44090.660000000003
31
0.0
0
LINE
5
858
100
AcDbEntity
8
1-0
6
DOT
62
4
100
AcDbLine
10
66333.770000000004
20
44090.660000000003
30
0.0
11
66343.660000000003
21
43554.440000000002
31
0.0
0
LINE
5
859
100
AcDbEntity
8
1-0
6
DOT
62
4
100
AcDbLine
10
66343.660000000003
20
43554.440000000002
30
0.0
11
66381.710000000006
21
43004.080000000002
31
0.0
0
LINE
5
85a
100
AcDbEntity
8
1-0
6
DOT
62
4
100
AcDbLine
10
66381.710000000006
20
43004.080000000002
30
0.0
11
66443.880000000005
21
42443.529999999999
31
0.0
0
LINE
5
85b
100
AcDbEntity
8
1-0
6
DOT
62
4
100
AcDbLine
10
66443.880000000005
20
42443.529999999999
30
0.0
11
66526.089999999997
21
41876.849999999999
31
0.0
0
LINE
5
85c
100
AcDbEntity
8
1-0
6
DOT
62
4
100
AcDbLine
10
66526.089999999997
20
41876.849999999999
30
0.0
11
66624.229999999996
21
41308.029999999999
31
0.0
0
LINE
5
85d
100
AcDbEntity
8
1-0
6
DOT
62
4
100
AcDbLine
10
66624.229999999996
20
41308.029999999999
30
0.0
11
66734.279999999999
21
40741.080000000002
31
0.0
0
LINE
5
85e
100
AcDbEntity
8
1-0
6
DOT
62
4
100
AcDbLine
10
66734.279999999999
20
40741.080000000002
30
0.0
11
66852.139999999999
21
40179.980000000003
31
0.0
0
LINE
5
85f
100
AcDbEntity
8
1-0
6
DOT
62
4
100
AcDbLine
10
66852.139999999999
20
40179.980000000003
30
0.0
11
66973.750000000000
21
39628.800000000003
31
0.0
0
LINE
5
860
100
AcDbEntity
8
1-0
6
DOT
62
4
100
AcDbLine
10
66973.750000000000
20
39628.800000000003
30
0.0
11
67095.000000000000
21
39091.480000000003
31
0.0
0
LINE
5
861
100
AcDbEntity
8
1-0
6
DOT
62
4
100
AcDbLine
10
67095.000000000000
20
39091.480000000003
30
0.0
11
67212.369999999995
21
38570.849999999999
31
0.0
0
LINE
5
862
100
AcDbEntity
8
1-0
6
DOT
62
4
100
AcDbLine
10
67212.369999999995
20
38570.849999999999
30
0.0
11
67324.429999999993
21
38065.050000000003
31
0.0
0
LINE
5
863
100
AcDbEntity
8
1-0
6
DOT
62
4
100
AcDbLine
10
67324.429999999993
20
38065.050000000003
30
0.0
11
67430.199999999997
21
37571.190000000002
31
0.0
0
LINE
5
864
100
AcDbEntity
8
1-0
6
DOT
62
4
100
AcDbLine
10
67430.199999999997
20
37571.190000000002
30
0.0
11
67528.679999999993
21
37086.290000000001
31
0.0
0
LINE
5
865
100
AcDbEntity
8
1-0
6
DOT
62
4
100
AcDbLine
10
67528.679999999993
20
37086.290000000001
30
0.0
11
67618.929999999993
21
36607.470000000001
31
0.0
0
LINE
5
866
100
AcDbEntity
8
1-0
6
DOT
62
4
100
AcDbLine
10
67618.929999999993
20
36607.470000000001
30
0.0
11
67699.919999999998
21
36131.830000000002
31
0.0
0
LINE
5
867
100
AcDbEntity
8
1-0
6
DOT
62
4
100
AcDbLine
10
67699.919999999998
20
36131.830000000002
30
0.0
11
67770.720000000001
21
35656.419999999998
31
0.0
0
LINE
5
868
100
AcDbEntity
8
1-0
6
DOT
62
4
100
AcDbLine
10
67770.720000000001
20
35656.419999999998
30
0.0
11
67830.600000000006
21
35178.730000000003
31
0.0
0
LINE
5
869
100
AcDbEntity
8
1-0
6
DOT
62
4
100
AcDbLine
10
67830.600000000006
20
35178.730000000003
30
0.0
11
67880.399999999994
21
34698.199999999997
31
0.0
0
LINE
5
86a
100
AcDbEntity
8
1-0
6
DOT
62
4
100
AcDbLine
10
67880.399999999994
20
34698.199999999997
30
0.0
11
67921.449999999997
21
34214.959999999999
31
0.0
0
LINE
5
86b
100
AcDbEntity
8
1-0
6
DOT
62
4
100
AcDbLine
10
67921.449999999997
20
34214.959999999999
30
0.0
11
67955.009999999995
21
33729.150000000001
31
0.0
0
LINE
5
86c
100
AcDbEntity
8
1-0
6
DOT
62
4
100
AcDbLine
10
67955.009999999995
20
33729.150000000001
30
0.0
11
67982.449999999997
21
33240.870000000003
31
0.0
0
LINE
5
86d
100
AcDbEntity
8
1-0
6
DOT
62
4
100
AcDbLine
10
67982.449999999997
20
33240.870000000003
30
0.0
11
68005.029999999999
21
32750.270000000000
31
0.0
0
LINE
5
86e
100
AcDbEntity
8
1-0
6
DOT
62
4
100
AcDbLine
10
68005.029999999999
20
32750.270000000000
30
0.0
11
68024.110000000001
21
32257.470000000001
31
0.0
0
LINE
5
86f
100
AcDbEntity
8
1-0
6
DOT
62
4
100
AcDbLine
10
68024.110000000001
20
32257.470000000001
30
0.0
11
68040.949999999997
21
31762.590000000000
31
0.0
0
LINE
5
870
100
AcDbEntity
8
1-0
6
DOT
62
4
100
AcDbLine
10
68040.949999999997
20
31762.590000000000
30
0.0
11
68056.880000000005
21
31265.740000000002
31
0.0
0
LINE
5
871
100
AcDbEntity
8
1-0
6
DOT
62
4
100
AcDbLine
10
68056.880000000005
20
31265.740000000002
30
0.0
11
68073.240000000005
21
30767.049999999999
31
0.0
0
LINE
5
872
100
AcDbEntity
8
1-0
6
DOT
62
4
100
AcDbLine
10
68073.240000000005
20
30767.049999999999
30
0.0
11
68091.309999999998
21
30266.680000000000
31
0.0
0
LINE
5
873
100
AcDbEntity
8
1-0
6
DOT
62
4
100
AcDbLine
10
68091.309999999998
20
30266.680000000000
30
0.0
11
68112.399999999994
21
29764.700000000001
31
0.0
0
LINE
5
874
100
AcDbEntity
8
1-0
6
DOT
62
4
100
AcDbLine
10
68112.399999999994
20
29764.700000000001
30
0.0
11
68137.820000000007
21
29261.279999999999
31
0.0
0
LINE
5
875
100
AcDbEntity
8
1-0
6
DOT
62
4
100
AcDbLine
10
68137.820000000007
20
29261.279999999999
30
0.0
11
68168.910000000003
21
28756.520000000000
31
0.0
0
LINE
5
876
100
AcDbEntity
8
1-0
6
DOT
62
4
100
AcDbLine
10
68168.910000000003
20
28756.520000000000
30
0.0
11
68206.940000000002
21
28250.570000000000
31
0.0
0
LINE
5
877
100
AcDbEntity
8
1-0
6
DOT
62
4
100
AcDbLine
10
68206.940000000002
20
28250.570000000000
30
0.0
11
68253.259999999995
21
27743.500000000000
31
0.0
0
LINE
5
878
100
AcDbEntity
8
1-0
6
DOT
62
4
100
AcDbLine
10
68253.259999999995
20
27743.500000000000
30
0.0
11
68309.169999999998
21
27235.500000000000
31
0.0
0
LINE
5
879
100
AcDbEntity
8
1-0
6
DOT
62
4
100
AcDbLine
10
68309.169999999998
20
27235.500000000000
30
0.0
11
68375.970000000001
21
26726.660000000000
31
0.0
0
LINE
5
87a
100
AcDbEntity
8
1-0
6
DOT
62
4
100
AcDbLine
10
68375.970000000001
20
26726.660000000000
30
0.0
11
68454.990000000005
21
26217.110000000001
31
0.0
0
LINE
5
87b
100
AcDbEntity
8
1-0
6
DOT
62
4
100
AcDbLine
10
68454.990000000005
20
26217.110000000001
30
0.0
11
68547.490000000005
21
25706.959999999999
31
0.0
0
LINE
5
87c
100
AcDbEntity
8
1-0
6
DOT
62
4
100
AcDbLine
10
68547.490000000005
20
25706.959999999999
30
0.0
11
68654.839999999997
21
25196.369999999999
31
0.0
0
LINE
5
87d
100
AcDbEntity
8
1-0
6
DOT
62
4
100
AcDbLine
10
68654.839999999997
20
25196.369999999999
30
0.0
11
68778.320000000007
21
24685.900000000001
31
0.0
0
LINE
5
87e
100
AcDbEntity
8
1-0
6
DOT
62
4
100
AcDbLine
10
68778.320000000007
20
24685.900000000001
30
0.0
11
68919.190000000002
21
24178.320000000000
31
0.0
0
LINE
5
87f
100
AcDbEntity
8
1-0
6
DOT
62
4
100
AcDbLine
10
68919.190000000002
20
24178.320000000000
30
0.0
11
69078.610000000001
21
23676.990000000002
31
0.0
0
LINE
5
880
100
AcDbEntity
8
1-0
6
DOT
62
4
100
AcDbLine
10
69078.610000000001
20
23676.990000000002
30
0.0
11
69257.839999999997
21
23185.259999999998
31
0.0
0
LINE
5
881
100
AcDbEntity
8
1-0
6
DOT
62
4
100
AcDbLine
10
69257.839999999997
20
23185.259999999998
30
0.0
11
69458.130000000005
21
22706.490000000002
31
0.0
0
LINE
5
882
100
AcDbEntity
8
1-0
6
DOT
62
4
100
AcDbLine
10
69458.130000000005
20
22706.490000000002
30
0.0
11
69680.630000000005
21
22244.060000000001
31
0.0
0
LINE
5
883
100
AcDbEntity
8
1-0
6
DOT
62
4
100
AcDbLine
10
69680.630000000005
20
22244.060000000001
30
0.0
11
69926.630000000005
21
21801.310000000001
31
0.0
0
LINE
5
884
100
AcDbEntity
8
1-0
6
DOT
62
4
100
AcDbLine
10
69926.630000000005
20
21801.310000000001
30
0.0
11
70197.289999999994
21
21381.599999999999
31
0.0
0
LINE
5
885
100
AcDbEntity
8
1-0
6
DOT
62
4
100
AcDbLine
10
70197.289999999994
20
21381.599999999999
30
0.0
11
70493.899999999994
21
20988.299999999999
31
0.0
0
LINE
5
886
100
AcDbEntity
8
1-0
6
DOT
62
4
100
AcDbLine
10
70493.899999999994
20
20988.299999999999
30
0.0
11
70817.630000000005
21
20624.759999999998
31
0.0
0
LINE
5
887
100
AcDbEntity
8
1-0
6
DOT
62
4
100
AcDbLine
10
70817.630000000005
20
20624.759999999998
30
0.0
11
71169.710000000006
21
20294.360000000001
31
0.0
0
LINE
5
888
100
AcDbEntity
8
1-0
6
DOT
62
4
100
AcDbLine
10
71169.710000000006
20
20294.360000000001
30
0.0
11
71550.929999999993
21
19999.720000000001
31
0.0
0
LINE
5
889
100
AcDbEntity
8
1-0
6
DOT
62
4
100
AcDbLine
10
71550.929999999993
20
19999.720000000001
30
0.0
11
71959.110000000001
21
19738.619999999999
31
0.0
0
LINE
5
88a
100
AcDbEntity
8
1-0
6
DOT
62
4
100
AcDbLine
10
71959.110000000001
20
19738.619999999999
30
0.0
11
72390.899999999994
21
19506.889999999999
31
0.0
0
LINE
5
88b
100
AcDbEntity
8
1-0
6
DOT
62
4
100
AcDbLine
10
72390.899999999994
20
19506.889999999999
30
0.0
11
72842.919999999998
21
19300.310000000001
31
0.0
0
LINE
5
88c
100
AcDbEntity
8
1-0
6
DOT
62
4
100
AcDbLine
10
72842.919999999998
20
19300.310000000001
30
0.0
11
73311.830000000002
21
19114.740000000002
31
0.0
0
LINE
5
88d
100
AcDbEntity
8
1-0
6
DOT
62
4
100
AcDbLine
10
73311.830000000002
20
19114.740000000002
30
0.0
11
73794.220000000001
21
18945.959999999999
31
0.0
0
LINE
5
88e
100
AcDbEntity
8
1-0
6
DOT
62
4
100
AcDbLine
10
73794.220000000001
20
18945.959999999999
30
0.0
11
74286.740000000005
21
18789.790000000001
31
0.0
0
LINE
5
88f
100
AcDbEntity
8
1-0
6
DOT
62
4
100
AcDbLine
10
74286.740000000005
20
18789.790000000001
30
0.0
11
74786.039999999994
21
18642.040000000001
31
0.0
0
LINE
5
890
100
AcDbEntity
8
1-0
6
DOT
62
4
100
AcDbLine
10
74786.039999999994
20
18642.040000000001
30
0.0
11
75288.729999999996
21
18498.529999999999
31
0.0
0
LINE
5
891
100
AcDbEntity
8
1-0
6
DOT
62
4
100
AcDbLine
10
75288.729999999996
20
18498.529999999999
30
0.0
11
75293.970000000001
21
18497.029999999999
31
0.0
0
LINE
5
892
100
AcDbEntity
8
1-0
6
DOT
62
4
100
AcDbLine
10
20320.799999999999
20
12896.340000000000
30
0.0
11
20706.910000000000
21
13009.790000000001
31
0.0
0
LINE
5
893
100
AcDbEntity
8
1-0
6
DOT
62
4
100
AcDbLine
10
20706.910000000000
20
13009.790000000001
30
0.0
11
21085.200000000001
21
13133.500000000000
31
0.0
0
LINE
5
894
100
AcDbEntity
8
1-0
6
DOT
62
4
100
AcDbLine
10
21085.200000000001
20
13133.500000000000
30
0.0
11
21447.779999999999
21
13277.760000000000
31
0.0
0
LINE
5
895
100
AcDbEntity
8
1-0
6
DOT
62
4
100
AcDbLine
10
21447.779999999999
20
13277.760000000000
30
0.0
11
21786.860000000001
21
13452.860000000001
31
0.0
0
LINE
5
896
100
AcDbEntity
8
1-0
6
DOT
62
4
100
AcDbLine
10
21786.860000000001
20
13452.860000000001
30
0.0
11
22094.630000000001
21
13668.910000000000
31
0.0
0
LINE
5
897
100
AcDbEntity
8
1-0
6
DOT
62
4
100
AcDbLine
10
22094.630000000001
20
13668.910000000000
30
0.0
11
22369.139999999999
21
13928.559999999999
31
0.0
0
LINE
5
898
100
AcDbEntity
8
1-0
6
DOT
62
4
100
AcDbLine
10
22369.139999999999
20
13928.559999999999
30
0.0
11
22616.509999999998
21
14223.780000000001
31
0.0
0
LINE
5
899
100
AcDbEntity
8
1-0
6
DOT
62
4
100
AcDbLine
10
22616.509999999998
20
14223.780000000001
30
0.0
11
22843.509999999998
21
14545.650000000000
31
0.0
0
LINE
5
89a
100
AcDbEntity
8
1-0
6
DOT
62
4
100
AcDbLine
10
22843.509999999998
20
14545.650000000000
30
0.0
11
23056.939999999999
21
14885.309999999999
31
0.0
0
LINE
5
89b
100
AcDbEntity
8
1-0
6
DOT
62
4
100
AcDbLine
10
23056.939999999999
20
14885.309999999999
30
0.0
11
23263.580000000002
21
15233.850000000000
31
0.0
0
LINE
5
89c
100
AcDbEntity
8
1-0
6
DOT
62
4
100
AcDbLine
10
36176.730000000003
20
14524.590000000000
30
0.0
11
36677.000000000000
21
14483.299999999999
31
0.0
0
LINE
5
89d
100
AcDbEntity
8
1-0
6
DOT
62
4
100
AcDbLine
10
36677.000000000000
20
14483.299999999999
30
0.0
11
37177.239999999998
21
14442.920000000000
31
0.0
0
LINE
5
89e
100
AcDbEntity
8
1-0
6
DOT
62
4
100
AcDbLine
10
37177.239999999998
20
14442.920000000000
30
0.0
11
37677.430000000000
21
14404.420000000000
31
0.0
0
LINE
5
89f
100
AcDbEntity
8
1-0
6
DOT
62
4
100
AcDbLine
10
37677.430000000000
20
14404.420000000000
30
0.0
11
38177.519999999997
21
14368.690000000001
31
0.0
0
LINE
5
8a0
100
AcDbEntity
8
1-0
6
DOT
62
4
100
AcDbLine
10
38177.519999999997
20
14368.690000000001
30
0.0
11
38677.489999999998
21
14336.690000000001
31
0.0
0
LINE
5
8a1
100
AcDbEntity
8
1-0
6
DOT
62
4
100
AcDbLine
10
38677.489999999998
20
14336.690000000001
30
0.0
11
39177.339999999997
21
14309.320000000000
31
0.0
0
LINE
5
8a2
100
AcDbEntity
8
1-0
6
DOT
62
4
100
AcDbLine
10
39177.339999999997
20
14309.320000000000
30
0.0
11
39677.000000000000
21
14287.530000000001
31
0.0
0
LINE
5
8a3
100
AcDbEntity
8
1-0
6
DOT
62
4
100
AcDbLine
10
39677.000000000000
20
14287.530000000001
30
0.0
11
40176.449999999997
21
14272.219999999999
31
0.0
0
LINE
5
8a4
100
AcDbEntity
8
1-0
6
DOT
62
4
100
AcDbLine
10
40176.449999999997
20
14272.219999999999
30
0.0
11
40675.660000000003
21
14264.350000000000
31
0.0
0
LINE
5
8a5
100
AcDbEntity
8
1-0
6
DOT
62
4
100
AcDbLine
10
40675.660000000003
20
14264.350000000000
30
0.0
11
41174.620000000003
21
14264.840000000000
31
0.0
0
LINE
5
8a6
100
AcDbEntity
8
1-0
6
DOT
62
4
100
AcDbLine
10
41174.620000000003
20
14264.840000000000
30
0.0
11
41673.279999999999
21
14274.600000000000
31
0.0
0
LINE
5
8a7
100
AcDbEntity
8
1-0
6
DOT
62
4
100
AcDbLine
10
41673.279999999999
20
14274.600000000000
30
0.0
11
42171.629999999997
21
14294.590000000000
31
0.0
0
LINE
5
8a8
100
AcDbEntity
8
1-0
6
DOT
62
4
100
AcDbLine
10
42171.629999999997
20
14294.590000000000
30
0.0
11
42669.620000000003
21
14325.459999999999
31
0.0
0
LINE
5
8a9
100
AcDbEntity
8
1-0
6
DOT
62
4
100
AcDbLine
10
42669.620000000003
20
14325.459999999999
30
0.0
11
43167.110000000001
21
14367.330000000000
31
0.0
0
LINE
5
8aa
100
AcDbEntity
8
1-0
6
DOT
62
4
100
AcDbLine
10
43167.110000000001
20
14367.330000000000
30
0.0
11
43664.029999999999
21
14420.260000000000
31
0.0
0
LINE
5
8ab
100
AcDbEntity
8
1-0
6
DOT
62
4
100
AcDbLine
10
43664.029999999999
20
14420.260000000000
30
0.0
11
44160.250000000000
21
14484.330000000000
31
0.0
0
LINE
5
8ac
100
AcDbEntity
8
1-0
6
DOT
62
4
100
AcDbLine
10
44160.250000000000
20
14484.330000000000
30
0.0
11
44655.699999999997
21
14559.590000000000
31
0.0
0
LINE
5
8ad
100
AcDbEntity
8
1-0
6
DOT
62
4
100
AcDbLine
10
44655.699999999997
20
14559.590000000000
30
0.0
11
45150.269999999997
21
14646.110000000001
31
0.0
0
LINE
5
8ae
100
AcDbEntity
8
1-0
6
DOT
62
4
100
AcDbLine
10
45150.269999999997
20
14646.110000000001
30
0.0
11
45643.800000000003
21
14743.920000000000
31
0.0
0
LINE
5
8af
100
AcDbEntity
8
1-0
6
DOT
62
4
100
AcDbLine
10
45643.800000000003
20
14743.920000000000
30
0.0
11
46135.410000000003
21
14854.250000000000
31
0.0
0
LINE
5
8b0
100
AcDbEntity
8
1-0
6
DOT
62
4
100
AcDbLine
10
46135.410000000003
20
14854.250000000000
30
0.0
11
46622.589999999997
21
14980.440000000001
31
0.0
0
LINE
5
8b1
100
AcDbEntity
8
1-0
6
DOT
62
4
100
AcDbLine
10
46622.589999999997
20
14980.440000000001
30
0.0
11
47102.690000000002
21
15126.059999999999
31
0.0
0
LINE
5
8b2
100
AcDbEntity
8
1-0
6
DOT
62
4
100
AcDbLine
10
47102.690000000002
20
15126.059999999999
30
0.0
11
47573.059999999998
21
15294.709999999999
31
0.0
0
LINE
5
8b3
100
AcDbEntity
8
1-0
6
DOT
62
4
100
AcDbLine
10
47573.059999999998
20
15294.709999999999
30
0.0
11
48031.010000000002
21
15489.950000000001
31
0.0
0
LINE
5
8b4
100
AcDbEntity
8
1-0
6
DOT
62
4
100
AcDbLine
10
48031.010000000002
20
15489.950000000001
30
0.0
11
48474.300000000003
21
15714.709999999999
31
0.0
0
LINE
5
8b5
100
AcDbEntity
8
1-0
6
DOT
62
4
100
AcDbLine
10
48474.300000000003
20
15714.709999999999
30
0.0
11
48903.260000000002
21
15967.209999999999
31
0.0
0
LINE
5
8b6
100
AcDbEntity
8
1-0
6
DOT
62
4
100
AcDbLine
10
48903.260000000002
20
15967.209999999999
30
0.0
11
49319.360000000001
21
16243.700000000001
31
0.0
0
LINE
5
8b7
100
AcDbEntity
8
1-0
6
DOT
62
4
100
AcDbLine
10
49319.360000000001
20
16243.700000000001
30
0.0
11
49724.120000000003
21
16540.439999999999
31
0.0
0
LINE
5
8b8
100
AcDbEntity
8
1-0
6
DOT
62
4
100
AcDbLine
10
49724.120000000003
20
16540.439999999999
30
0.0
11
50119.019999999997
21
16853.630000000001
31
0.0
0
LINE
5
8b9
100
AcDbEntity
8
1-0
6
DOT
62
4
100
AcDbLine
10
50119.019999999997
20
16853.630000000001
30
0.0
11
50505.519999999997
21
17179.560000000001
31
0.0
0
LINE
5
8ba
100
AcDbEntity
8
1-0
6
DOT
62
4
100
AcDbLine
10
50505.519999999997
20
17179.560000000001
30
0.0
11
50885.099999999999
21
17514.419999999998
31
0.0
0
LINE
5
8bb
100
AcDbEntity
8
1-0
6
DOT
62
4
100
AcDbLine
10
50885.099999999999
20
17514.419999999998
30
0.0
11
51259.250000000000
21
17854.509999999998
31
0.0
0
LINE
5
8bc
100
AcDbEntity
8
1-0
6
DOT
62
4
100
AcDbLine
10
51259.250000000000
20
17854.509999999998
30
0.0
11
51629.459999999999
21
18196.040000000001
31
0.0
0
LINE
5
8bd
100
AcDbEntity
8
1-0
6
DOT
62
4
100
AcDbLine
10
51629.459999999999
20
18196.040000000001
30
0.0
11
51997.190000000002
21
18535.250000000000
31
0.0
0
LINE
5
8be
100
AcDbEntity
8
1-0
6
DOT
62
4
100
AcDbLine
10
51997.190000000002
20
18535.250000000000
30
0.0
11
52363.919999999998
21
18868.520000000000
31
0.0
0
LINE
5
8bf
100
AcDbEntity
8
1-0
6
DOT
62
4
100
AcDbLine
10
52363.919999999998
20
18868.520000000000
30
0.0
11
52731.169999999998
21
19196.810000000001
31
0.0
0
LINE
5
8c0
100
AcDbEntity
8
1-0
6
DOT
62
4
100
AcDbLine
10
52731.169999999998
20
19196.810000000001
30
0.0
11
53100.309999999998
21
19527.150000000001
31
0.0
0
LINE
5
8c1
100
AcDbEntity
8
1-0
6
DOT
62
4
100
AcDbLine
10
53100.309999999998
20
19527.150000000001
30
0.0
11
53472.870000000003
21
19866.950000000001
31
0.0
0
LINE
5
8c2
100
AcDbEntity
8
1-0
6
DOT
62
4
100
AcDbLine
10
53472.870000000003
20
19866.950000000001
30
0.0
11
53849.940000000002
21
20223.610000000001
31
0.0
0
LINE
5
8c3
100
AcDbEntity
8
1-0
6
DOT
62
4
100
AcDbLine
10
53849.940000000002
20
20223.610000000001
30
0.0
11
54217.290000000001
21
20601.959999999999
31
0.0
0
LINE
5
8c4
100
AcDbEntity
8
1-0
6
DOT
62
4
100
AcDbLine
10
54217.290000000001
20
20601.959999999999
30
0.0
11
54538.389999999999
21
21003.209999999999
31
0.0
0
LINE
5
8c5
100
AcDbEntity
8
1-0
6
DOT
62
4
100
AcDbLine
10
54538.389999999999
20
21003.209999999999
30
0.0
11
54774.900000000001
21
21428.259999999998
31
0.0
0
LINE
5
8c6
100
AcDbEntity
8
1-0
6
DOT
62
4
100
AcDbLine
10
54774.900000000001
20
21428.259999999998
30
0.0
11
54889.980000000003
21
21877.660000000000
31
0.0
0
LINE
5
8c7
100
AcDbEntity
8
1-0
6
DOT
62
4
100
AcDbLine
10
54889.980000000003
20
21877.660000000000
30
0.0
11
54874.940000000002
21
22345.939999999999
31
0.0
0
LINE
5
8c8
100
AcDbEntity
8
1-0
6
DOT
62
4
100
AcDbLine
10
54874.940000000002
20
22345.939999999999
30
0.0
11
54746.489999999998
21
22822.099999999999
31
0.0
0
LINE
5
8c9
100
AcDbEntity
8
1-0
6
DOT
62
4
100
AcDbLine
10
54746.489999999998
20
22822.099999999999
30
0.0
11
54522.190000000002
21
23294.939999999999
31
0.0
0
LINE
5
8ca
100
AcDbEntity
8
1-0
6
DOT
62
4
100
AcDbLine
10
54522.190000000002
20
23294.939999999999
30
0.0
11
54219.690000000002
21
23753.290000000001
31
0.0
0
LINE
5
8cb
100
AcDbEntity
8
1-0
6
DOT
62
4
100
AcDbLine
10
54219.690000000002
20
23753.290000000001
30
0.0
11
53856.559999999998
21
24185.950000000001
31
0.0
0
LINE
5
8cc
100
AcDbEntity
8
1-0
6
DOT
62
4
100
AcDbLine
10
53856.559999999998
20
24185.950000000001
30
0.0
11
53450.440000000002
21
24581.730000000000
31
0.0
0
LINE
5
8cd
100
AcDbEntity
8
1-0
6
DOT
62
4
100
AcDbLine
10
53450.440000000002
20
24581.730000000000
30
0.0
11
53018.889999999999
21
24929.490000000002
31
0.0
0
LINE
5
8ce
100
AcDbEntity
8
1-0
6
DOT
62
4
100
AcDbLine
10
53018.889999999999
20
24929.490000000002
30
0.0
11
52578.029999999999
21
25226.570000000000
31
0.0
0
LINE
5
8cf
100
AcDbEntity
8
1-0
6
DOT
62
4
100
AcDbLine
10
52578.029999999999
20
25226.570000000000
30
0.0
11
52140.070000000000
21
25492.700000000001
31
0.0
0
LINE
5
8d0
100
AcDbEntity
8
1-0
6
DOT
62
4
100
AcDbLine
10
52140.070000000000
20
25492.700000000001
30
0.0
11
51716.580000000002
21
25751.180000000000
31
0.0
0
LINE
5
8d1
100
AcDbEntity
8
1-0
6
DOT
62
4
100
AcDbLine
10
51716.580000000002
20
25751.180000000000
30
0.0
11
51319.180000000000
21
26025.349999999999
31
0.0
0
LINE
5
8d2
100
AcDbEntity
8
1-0
6
DOT
62
4
100
AcDbLine
10
51319.180000000000
20
26025.349999999999
30
0.0
11
50959.410000000003
21
26338.490000000002
31
0.0
0
LINE
5
8d3
100
AcDbEntity
8
1-0
6
DOT
62
4
100
AcDbLine
10
50959.410000000003
20
26338.490000000002
30
0.0
11
50645.720000000001
21
26708.270000000000
31
0.0
0
LINE
5
8d4
100
AcDbEntity
8
1-0
6
DOT
62
4
100
AcDbLine
10
50645.720000000001
20
26708.270000000000
30
0.0
11
50371.519999999997
21
27125.189999999999
31
0.0
0
LINE
5
8d5
100
AcDbEntity
8
1-0
6
DOT
62
4
100
AcDbLine
10
50371.519999999997
20
27125.189999999999
30
0.0
11
50125.669999999998
21
27571.619999999999
31
0.0
0
LINE
5
8d6
100
AcDbEntity
8
1-0
6
DOT
62
4
100
AcDbLine
10
50125.669999999998
20
27571.619999999999
30
0.0
11
49897.070000000000
21
28029.959999999999
31
0.0
0
LINE
5
8d7
100
AcDbEntity
8
1-0
6
DOT
62
4
100
AcDbLine
10
49897.070000000000
20
28029.959999999999
30
0.0
11
49676.089999999997
21
28485.250000000000
31
0.0
0
LINE
5
8d8
100
AcDbEntity
8
1-0
6
DOT
62
4
100
AcDbLine
10
49676.089999999997
20
28485.250000000000
30
0.0
11
49461.029999999999
21
28936.700000000001
31
0.0
0
LINE
5
8d9
100
AcDbEntity
8
1-0
6
DOT
62
4
100
AcDbLine
10
49461.029999999999
20
28936.700000000001
30
0.0
11
49252.900000000001
21
29388.330000000002
31
0.0
0
LINE
5
8da
100
AcDbEntity
8
1-0
6
DOT
62
4
100
AcDbLine
10
49252.900000000001
20
29388.330000000002
30
0.0
11
49052.699999999997
21
29844.110000000001
31
0.0
0
LINE
5
8db
100
AcDbEntity
8
1-0
6
DOT
62
4
100
AcDbLine
10
49052.699999999997
20
29844.110000000001
30
0.0
11
48861.629999999997
21
30307.849999999999
31
0.0
0
LINE
5
8dc
100
AcDbEntity
8
1-0
6
DOT
62
4
100
AcDbLine
10
48861.629999999997
20
30307.849999999999
30
0.0
11
48684.269999999997
21
30780.320000000000
31
0.0
0
LINE
5
8dd
100
AcDbEntity
8
1-0
6
DOT
62
4
100
AcDbLine
10
48684.269999999997
20
30780.320000000000
30
0.0
11
48527.650000000001
21
31260.029999999999
31
0.0
0
LINE
5
8de
100
AcDbEntity
8
1-0
6
DOT
62
4
100
AcDbLine
10
48527.650000000001
20
31260.029999999999
30
0.0
11
48398.959999999999
21
31745.290000000001
31
0.0
0
LINE
5
8df
100
AcDbEntity
8
1-0
6
DOT
62
4
100
AcDbLine
10
48398.959999999999
20
31745.290000000001
30
0.0
11
48305.389999999999
21
32234.549999999999
31
0.0
0
LINE
5
8e0
100
AcDbEntity
8
1-0
6
DOT
62
4
100
AcDbLine
10
48305.389999999999
20
32234.549999999999
30
0.0
11
48253.839999999997
21
32726.189999999999
31
0.0
0
LINE
5
8e1
100
AcDbEntity
8
1-0
6
DOT
62
4
100
AcDbLine
10
48253.839999999997
20
32726.189999999999
30
0.0
11
48244.989999999998
21
33219.260000000002
31
0.0
0
LINE
5
8e2
100
AcDbEntity
8
1-0
6
DOT
62
4
100
AcDbLine
10
48244.989999999998
20
33219.260000000002
30
0.0
11
48273.339999999997
21
33713.309999999998
31
0.0
0
LINE
5
8e3
100
AcDbEntity
8
1-0
6
DOT
62
4
100
AcDbLine
10
48273.339999999997
20
33713.309999999998
30
0.0
11
48333.190000000002
21
34208.000000000000
31
0.0
0
LINE
5
8e4
100
AcDbEntity
8
1-0
6
DOT
62
4
100
AcDbLine
10
48333.190000000002
20
34208.000000000000
30
0.0
11
48418.790000000001
21
34702.930000000000
31
0.0
0
LINE
5
8e5
100
AcDbEntity
8
1-0
6
DOT
62
4
100
AcDbLine
10
48418.790000000001
20
34702.930000000000
30
0.0
11
48524.440000000002
21
35197.709999999999
31
0.0
0
LINE
5
8e6
100
AcDbEntity
8
1-0
6
DOT
62
4
100
AcDbLine
10
48524.440000000002
20
35197.709999999999
30
0.0
11
48644.379999999997
21
35691.980000000003
31
0.0
0
LINE
5
8e7
100
AcDbEntity
8
1-0
6
DOT
62
4
100
AcDbLine
10
48644.379999999997
20
35691.980000000003
30
0.0
11
48772.889999999999
21
36185.389999999999
31
0.0
0
LINE
5
8e8
100
AcDbEntity
8
1-0
6
DOT
62
4
100
AcDbLine
10
48772.889999999999
20
36185.389999999999
30
0.0
11
48904.209999999999
21
36677.480000000003
31
0.0
0
LINE
5
8e9
100
AcDbEntity
8
1-0
6
DOT
62
4
100
AcDbLine
10
48904.209999999999
20
36677.480000000003
30
0.0
11
49032.650000000001
21
37167.959999999999
31
0.0
0
LINE
5
8ea
100
AcDbEntity
8
1-0
6
DOT
62
4
100
AcDbLine
10
49032.650000000001
20
37167.959999999999
30
0.0
11
49152.589999999997
21
37656.389999999999
31
0.0
0
LINE
5
8eb
100
AcDbEntity
8
1-0
6
DOT
62
4
100
AcDbLine
10
49152.589999999997
20
37656.389999999999
30
0.0
11
49262.209999999999
21
38143.059999999998
31
0.0
0
LINE
5
8ec
100
AcDbEntity
8
1-0
6
DOT
62
4
100
AcDbLine
10
49262.209999999999
20
38143.059999999998
30
0.0
11
49364.559999999998
21
38628.900000000001
31
0.0
0
LINE
5
8ed
100
AcDbEntity
8
1-0
6
DOT
62
4
100
AcDbLine
10
49364.559999999998
20
38628.900000000001
30
0.0
11
49462.919999999998
21
39114.919999999998
31
0.0
0
LINE
5
8ee
100
AcDbEntity
8
1-0
6
DOT
62
4
100
AcDbLine
10
49462.919999999998
20
39114.919999999998
30
0.0
11
49560.639999999999
21
39602.099999999999
31
0.0
0
LINE
5
8ef
100
AcDbEntity
8
1-0
6
DOT
62
4
100
AcDbLine
10
49560.639999999999
20
39602.099999999999
30
0.0
11
49660.980000000003
21
40091.480000000003
31
0.0
0
LINE
5
8f0
100
AcDbEntity
8
1-0
6
DOT
62
4
100
AcDbLine
10
49660.980000000003
20
40091.480000000003
30
0.0
11
49767.269999999997
21
40584.070000000000
31
0.0
0
LINE
5
8f1
100
AcDbEntity
8
1-0
6
DOT
62
4
100
AcDbLine
10
49767.269999999997
20
40584.070000000000
30
0.0
11
49882.839999999997
21
41080.830000000002
31
0.0
0
LINE
5
8f2
100
AcDbEntity
8
1-0
6
DOT
62
4
100
AcDbLine
10
49882.839999999997
20
41080.830000000002
30
0.0
11
50012.540000000001
21
41579.849999999999
31
0.0
0
LINE
5
8f3
100
AcDbEntity
8
1-0
6
DOT
62
4
100
AcDbLine
10
50012.540000000001
20
41579.849999999999
30
0.0
11
50165.070000000000
21
42071.800000000003
31
0.0
0
LINE
5
8f4
100
AcDbEntity
8
1-0
6
DOT
62
4
100
AcDbLine
10
50165.070000000000
20
42071.800000000003
30
0.0
11
50349.760000000002
21
42546.160000000003
31
0.0
0
LINE
5
8f5
100
AcDbEntity
8
1-0
6
DOT
62
4
100
AcDbLine
10
50349.760000000002
20
42546.160000000003
30
0.0
11
50575.900000000001
21
42992.540000000001
31
0.0
0
LINE
5
8f6
100
AcDbEntity
8
1-0
6
DOT
62
4
100
AcDbLine
10
50575.900000000001
20
42992.540000000001
30
0.0
11
50852.839999999997
21
43400.410000000003
31
0.0
0
LINE
5
8f7
100
AcDbEntity
8
1-0
6
DOT
62
4
100
AcDbLine
10
50852.839999999997
20
43400.410000000003
30
0.0
11
51189.080000000002
21
43760.029999999999
31
0.0
0
LINE
5
8f8
100
AcDbEntity
8
1-0
6
DOT
62
4
100
AcDbLine
10
51189.080000000002
20
43760.029999999999
30
0.0
11
51575.099999999999
21
44077.989999999998
31
0.0
0
LINE
5
8f9
100
AcDbEntity
8
1-0
6
DOT
62
4
100
AcDbLine
10
51575.099999999999
20
44077.989999999998
30
0.0
11
51983.800000000003
21
44376.699999999997
31
0.0
0
LINE
5
8fa
100
AcDbEntity
8
1-0
6
DOT
62
4
100
AcDbLine
10
51983.800000000003
20
44376.699999999997
30
0.0
11
52387.389999999999
21
44679.220000000001
31
0.0
0
LINE
5
8fb
100
AcDbEntity
8
1-0
6
DOT
62
4
100
AcDbLine
10
52387.389999999999
20
44679.220000000001
30
0.0
11
52758.029999999999
21
45008.690000000002
31
0.0
0
LINE
5
8fc
100
AcDbEntity
8
1-0
6
DOT
62
4
100
AcDbLine
10
52758.029999999999
20
45008.690000000002
30
0.0
11
53072.690000000002
21
45383.839999999997
31
0.0
0
LINE
5
8fd
100
AcDbEntity
8
1-0
6
DOT
62
4
100
AcDbLine
10
53072.690000000002
20
45383.839999999997
30
0.0
11
53331.169999999998
21
45802.849999999999
31
0.0
0
LINE
5
8fe
100
AcDbEntity
8
1-0
6
DOT
62
4
100
AcDbLine
10
53331.169999999998
20
45802.849999999999
30
0.0
11
53540.339999999997
21
46257.470000000001
31
0.0
0
LINE
5
8ff
100
AcDbEntity
8
1-0
6
DOT
62
4
100
AcDbLine
10
53540.339999999997
20
46257.470000000001
30
0.0
11
53707.029999999999
21
46739.489999999998
31
0.0
0
LINE
5
900
100
AcDbEntity
8
1-0
6
DOT
62
4
100
AcDbLine
10
53707.029999999999
20
46739.489999999998
30
0.0
11
53838.010000000002
21
47240.709999999999
31
0.0
0
LINE
5
901
100
AcDbEntity
8
1-0
6
DOT
62
4
100
AcDbLine
10
53838.010000000002
20
47240.709999999999
30
0.0
11
53940.180000000000
21
47752.980000000003
31
0.0
0
LINE
5
902
100
AcDbEntity
8
1-0
6
DOT
62
4
100
AcDbLine
10
53940.180000000000
20
47752.980000000003
30
0.0
11
54020.290000000001
21
48268.019999999997
31
0.0
0
LINE
5
903
100
AcDbEntity
8
1-0
6
DOT
62
4
100
AcDbLine
10
54020.290000000001
20
48268.019999999997
30
0.0
11
54085.110000000001
21
48777.919999999998
31
0.0
0
LINE
5
904
100
AcDbEntity
8
1-0
6
DOT
62
4
100
AcDbLine
10
54085.110000000001
20
48777.919999999998
30
0.0
11
54138.519999999997
21
49279.779999999999
31
0.0
0
LINE
5
905
100
AcDbEntity
8
1-0
6
DOT
62
4
100
AcDbLine
10
54138.519999999997
20
49279.779999999999
30
0.0
11
54182.010000000002
21
49775.230000000003
31
0.0
0
LINE
5
906
100
AcDbEntity
8
1-0
6
DOT
62
4
100
AcDbLine
10
54182.010000000002
20
49775.230000000003
30
0.0
11
54216.919999999998
21
50266.250000000000
31
0.0
0
LINE
5
907
100
AcDbEntity
8
1-0
6
DOT
62
4
100
AcDbLine
10
54216.919999999998
20
50266.250000000000
30
0.0
11
54244.570000000000
21
50754.720000000001
31
0.0
0
LINE
5
908
100
AcDbEntity
8
1-0
6
DOT
62
4
100
AcDbLine
10
54244.570000000000
20
50754.720000000001
30
0.0
11
54266.300000000003
21
51242.540000000001
31
0.0
0
LINE
5
909
100
AcDbEntity
8
1-0
6
DOT
62
4
100
AcDbLine
10
54266.300000000003
20
51242.540000000001
30
0.0
11
54283.449999999997
21
51731.550000000003
31
0.0
0
LINE
5
90a
100
AcDbEntity
8
1-0
6
DOT
62
4
100
AcDbLine
10
54283.449999999997
20
51731.550000000003
30
0.0
11
54297.360000000001
21
52223.709999999999
31
0.0
0
LINE
5
90b
100
AcDbEntity
8
1-0
6
DOT
62
4
100
AcDbLine
10
54297.360000000001
20
52223.709999999999
30
0.0
11
54309.389999999999
21
52720.910000000003
31
0.0
0
LINE
5
90c
100
AcDbEntity
8
1-0
6
DOT
62
4
100
AcDbLine
10
54309.389999999999
20
52720.910000000003
30
0.0
11
54320.860000000001
21
53225.000000000000
31
0.0
0
LINE
5
90d
100
AcDbEntity
8
1-0
6
DOT
62
4
100
AcDbLine
10
54320.860000000001
20
53225.000000000000
30
0.0
11
54333.099999999999
21
53737.900000000001
31
0.0
0
LINE
5
90e
100
AcDbEntity
8
1-0
6
DOT
62
4
100
AcDbLine
10
54333.099999999999
20
53737.900000000001
30
0.0
11
54347.500000000000
21
54261.489999999998
31
0.0
0
LINE
5
90f
100
AcDbEntity
8
1-0
6
DOT
62
4
100
AcDbLine
10
54347.500000000000
20
54261.489999999998
30
0.0
11
54363.709999999999
21
54796.430000000000
31
0.0
0
LINE
5
910
100
AcDbEntity
8
1-0
6
DOT
62
4
100
AcDbLine
10
54363.709999999999
20
54796.430000000000
30
0.0
11
54371.029999999999
21
55335.129999999997
31
0.0
0
LINE
5
911
100
AcDbEntity
8
1-0
6
DOT
62
4
100
AcDbLine
10
54371.029999999999
20
55335.129999999997
30
0.0
11
54354.699999999997
21
55866.839999999997
31
0.0
0
LINE
5
912
100
AcDbEntity
8
1-0
6
DOT
62
4
100
AcDbLine
10
54354.699999999997
20
55866.839999999997
30
0.0
11
54299.919999999998
21
56380.879999999997
31
0.0
0
LINE
5
913
100
AcDbEntity
8
1-0
6
DOT
62
4
100
AcDbLine
10
54299.919999999998
20
56380.879999999997
30
0.0
11
54191.919999999998
21
56866.440000000002
31
0.0
0
LINE
5
914
100
AcDbEntity
8
1-0
6
DOT
62
4
100
AcDbLine
10
54191.919999999998
20
56866.440000000002
30
0.0
11
54015.870000000003
21
57312.790000000001
31
0.0
0
LINE
5
915
100
AcDbEntity
8
1-0
6
DOT
62
4
100
AcDbLine
10
54015.870000000003
20
57312.790000000001
30
0.0
11
53757.019999999997
21
57709.220000000001
31
0.0
0
LINE
5
916
100
AcDbEntity
8
1-0
6
DOT
62
4
100
AcDbLine
10
53757.019999999997
20
57709.220000000001
30
0.0
11
53412.629999999997
21
58053.360000000001
31
0.0
0
LINE
5
917
100
AcDbEntity
8
1-0
6
DOT
62
4
100
AcDbLine
10
53412.629999999997
20
58053.360000000001
30
0.0
11
53020.139999999999
21
58370.860000000001
31
0.0
0
LINE
5
918
100
AcDbEntity
8
1-0
6
DOT
62
4
100
AcDbLine
10
53020.139999999999
20
58370.860000000001
30
0.0
11
52625.389999999999
21
58693.160000000003
31
0.0
0
LINE
5
919
100
AcDbEntity
8
1-0
6
DOT
62
4
100
AcDbLine
10
52625.389999999999
20
58693.160000000003
30
0.0
11
52273.830000000002
21
59051.500000000000
31
0.0
0
LINE
5
91a
100
AcDbEntity
8
1-0
6
DOT
62
4
100
AcDbLine
10
52273.830000000002
20
59051.500000000000
30
0.0
11
51985.839999999997
21
59458.910000000003
31
0.0
0
LINE
5
91b
100
AcDbEntity
8
1-0
6
DOT
62
4
100
AcDbLine
10
51985.839999999997
20
59458.910000000003
30
0.0
11
51742.949999999997
21
59900.190000000002
31
0.0
0
LINE
5
91c
100
AcDbEntity
8
1-0
6
DOT
62
4
100
AcDbLine
10
51742.949999999997
20
59900.190000000002
30
0.0
11
51523.349999999999
21
60357.769999999997
31
0.0
0
LINE
5
91d
100
AcDbEntity
8
1-0
6
DOT
62
4
100
AcDbLine
10
51523.349999999999
20
60357.769999999997
30
0.0
11
51305.139999999999
21
60814.040000000001
31
0.0
0
LINE
5
91e
100
AcDbEntity
8
1-0
6
DOT
62
4
100
AcDbLine
10
51305.139999999999
20
60814.040000000001
30
0.0
11
51066.559999999998
21
61251.360000000001
31
0.0
0
LINE
5
91f
100
AcDbEntity
8
1-0
6
DOT
62
4
100
AcDbLine
10
51066.559999999998
20
61251.360000000001
30
0.0
11
50786.129999999997
21
61652.510000000002
31
0.0
0
LINE
5
920
100
AcDbEntity
8
1-0
6
DOT
62
4
100
AcDbLine
10
50786.129999999997
20
61652.510000000002
30
0.0
11
50455.690000000002
21
62011.059999999998
31
0.0
0
LINE
5
921
100
AcDbEntity
8
1-0
6
DOT
62
4
100
AcDbLine
10
50455.690000000002
20
62011.059999999998
30
0.0
11
50082.730000000003
21
62333.419999999998
31
0.0
0
LINE
5
922
100
AcDbEntity
8
1-0
6
DOT
62
4
100
AcDbLine
10
50082.730000000003
20
62333.419999999998
30
0.0
11
49675.690000000002
21
62626.790000000001
31
0.0
0
LINE
5
923
100
AcDbEntity
8
1-0
6
DOT
62
4
100
AcDbLine
10
49675.690000000002
20
62626.790000000001
30
0.0
11
49243.010000000002
21
62898.269999999997
31
0.0
0
LINE
5
924
100
AcDbEntity
8
1-0
6
DOT
62
4
100
AcDbLine
10
49243.010000000002
20
62898.269999999997
30
0.0
11
48793.089999999997
21
63155.110000000001
31
0.0
0
LINE
5
925
100
AcDbEntity
8
1-0
6
DOT
62
4
100
AcDbLine
10
48793.089999999997
20
63155.110000000001
30
0.0
11
48334.379999999997
21
63404.470000000001
31
0.0
0
LINE
5
926
100
AcDbEntity
8
1-0
6
DOT
62
4
100
AcDbLine
10
48334.379999999997
20
63404.470000000001
30
0.0
11
48313.629999999997
21
63415.629999999997
31
0.0
0
LINE
5
927
100
AcDbEntity
8
1-0
6
CONTINUOUS
62
3
100
AcDbLine
10
23001.740000000002
20
2175.770000000000
30
0.0
11
23499.970000000001
21
2224.080000000000
31
0.0
0
LINE
5
928
100
AcDbEntity
8
1-0
6
CONTINUOUS
62
3
100
AcDbLine
10
23499.970000000001
20
2224.080000000000
30
0.0
11
23998.230000000000
21
2271.320000000000
31
0.0
0
LINE
5
929
100
AcDbEntity
8
1-0
6
CONTINUOUS
62
3
100
AcDbLine
10
23998.230000000000
20
2271.320000000000
30
0.0
11
24496.520000000000
21
2316.430000000000
31
0.0
0
LINE
5
92a
100
AcDbEntity
8
1-0
6
CONTINUOUS
62
3
100
AcDbLine
10
24496.520000000000
20
2316.430000000000
30
0.0
11
24994.930000000000
21
2358.300000000000
31
0.0
0
LINE
5
92b
100
AcDbEntity
8
1-0
6
CONTINUOUS
62
3
100
AcDbLine
10
24994.930000000000
20
2358.300000000000
30
0.0
11
25493.470000000001
21
2395.900000000000
31
0.0
0
LINE
5
92c
100
AcDbEntity
8
1-0
6
CONTINUOUS
62
3
100
AcDbLine
10
25493.470000000001
20
2395.900000000000
30
0.0
11
25992.160000000000
21
2428.140000000000
31
0.0
0
LINE
5
92d
100
AcDbEntity
8
1-0
6
CONTINUOUS
62
3
100
AcDbLine
10
25992.160000000000
20
2428.140000000000
30
0.0
11
26491.029999999999
21
2453.940000000000
31
0.0
0
LINE
5
92e
100
AcDbEntity
8
1-0
6
CONTINUOUS
62
3
100
AcDbLine
10
26491.029999999999
20
2453.940000000000
30
0.0
11
26990.080000000002
21
2472.310000000000
31
0.0
0
LINE
5
92f
100
AcDbEntity
8
1-0
6
CONTINUOUS
62
3
100
AcDbLine
10
26990.080000000002
20
2472.310000000000
30
0.0
11
27489.380000000001
21
2483.140000000000
31
0.0
0
LINE
5
930
100
AcDbEntity
8
1-0
6
CONTINUOUS
62
3
100
AcDbLine
10
27489.380000000001
20
2483.140000000000
30
0.0
11
27988.889999999999
21
2487.040000000000
31
0.0
0
LINE
5
931
100
AcDbEntity
8
1-0
6
CONTINUOUS
62
3
100
AcDbLine
10
27988.889999999999
20
2487.040000000000
30
0.0
11
28488.560000000001
21
2484.560000000000
31
0.0
0
LINE
5
932
100
AcDbEntity
8
1-0
6
CONTINUOUS
62
3
100
AcDbLine
10
28488.560000000001
20
2484.560000000000
30
0.0
11
28988.430000000000
21
2476.340000000000
31
0.0
0
LINE
5
933
100
AcDbEntity
8
1-0
6
CONTINUOUS
62
3
100
AcDbLine
10
28988.430000000000
20
2476.340000000000
30
0.0
11
29488.459999999999
21
2462.940000000000
31
0.0
0
LINE
5
934
100
AcDbEntity
8
1-0
6
CONTINUOUS
62
3
100
AcDbLine
10
29488.459999999999
20
2462.940000000000
30
0.0
11
29988.650000000001
21
2444.980000000000
31
0.0
0
LINE
5
935
100
AcDbEntity
8
1-0
6
CONTINUOUS
62
3
100
AcDbLine
10
29988.650000000001
20
2444.980000000000
30
0.0
11
30488.980000000000
21
2423.040000000000
31
0.0
0
LINE
5
936
100
AcDbEntity
8
1-0
6
CONTINUOUS
62
3
100
AcDbLine
10
30488.980000000000
20
2423.040000000000
30
0.0
11
30989.410000000000
21
2397.730000000000
31
0.0
0
LINE
5
937
100
AcDbEntity
8
1-0
6
CONTINUOUS
62
3
100
AcDbLine
10
30989.410000000000
20
2397.730000000000
30
0.0
11
31489.990000000002
21
2369.630000000000
31
0.0
0
LINE
5
938
100
AcDbEntity
8
1-0
6
CONTINUOUS
62
3
100
AcDbLine
10
31489.990000000002
20
2369.630000000000
30
0.0
11
31990.599999999999
21
2339.970000000000
31
0.0
0
LINE
5
939
100
AcDbEntity
8
1-0
6
CONTINUOUS
62
3
100
AcDbLine
10
31990.599999999999
20
2339.970000000000
30
0.0
11
32491.180000000000
21
2311.280000000000
31
0.0
0
LINE
5
93a
100
AcDbEntity
8
1-0
6
CONTINUOUS
62
3
100
AcDbLine
10
32491.180000000000
20
2311.280000000000
30
0.0
11
32991.580000000002
21
2286.260000000000
31
0.0
0
LINE
5
93b
100
AcDbEntity
8
1-0
6
CONTINUOUS
62
3
100
AcDbLine
10
32991.580000000002
20
2286.260000000000
30
0.0
11
33491.699999999997
21
2267.610000000000
31
0.0
0
LINE
5
93c
100
AcDbEntity
8
1-0
6
CONTINUOUS
62
3
100
AcDbLine
10
33491.699999999997
20
2267.610000000000
30
0.0
11
33991.360000000001
21
2258.050000000000
31
0.0
0
LINE
5
93d
100
AcDbEntity
8
1-0
6
CONTINUOUS
62
3
100
AcDbLine
10
33991.360000000001
20
2258.050000000000
30
0.0
11
34490.480000000003
21
2260.260000000000
31
0.0
0
LINE
5
93e
100
AcDbEntity
8
1-0
6
CONTINUOUS
62
3
100
AcDbLine
10
34490.480000000003
20
2260.260000000000
30
0.0
11
34988.919999999998
21
2276.970000000000
31
0.0
0
LINE
5
93f
100
AcDbEntity
8
1-0
6
CONTINUOUS
62
3
100
AcDbLine
10
34988.919999999998
20
2276.970000000000
30
0.0
11
35486.599999999999
21
2310.160000000000
31
0.0
0
LINE
5
940
100
AcDbEntity
8
1-0
6
CONTINUOUS
62
3
100
AcDbLine
10
35486.599999999999
20
2310.160000000000
30
0.0
11
35983.669999999998
21
2357.410000000000
31
0.0
0
LINE
5
941
100
AcDbEntity
8
1-0
6
CONTINUOUS
62
3
100
AcDbLine
10
35983.669999999998
20
2357.410000000000
30
0.0
11
36480.349999999999
21
2414.560000000000
31
0.0
0
LINE
5
942
100
AcDbEntity
8
1-0
6
CONTINUOUS
62
3
100
AcDbLine
10
36480.349999999999
20
2414.560000000000
30
0.0
11
36976.839999999997
21
2477.420000000000
31
0.0
0
LINE
5
943
100
AcDbEntity
8
1-0
6
CONTINUOUS
62
3
100
AcDbLine
10
36976.839999999997
20
2477.420000000000
30
0.0
11
37473.419999999998
21
2541.830000000000
31
0.0
0
LINE
5
944
100
AcDbEntity
8
1-0
6
CONTINUOUS
62
3
100
AcDbLine
10
37473.419999999998
20
2541.830000000000
30
0.0
11
37970.269999999997
21
2603.580000000000
31
0.0
0
LINE
5
945
100
AcDbEntity
8
1-0
6
CONTINUOUS
62
3
100
AcDbLine
10
37970.269999999997
20
2603.580000000000
30
0.0
11
38467.709999999999
21
2658.510000000000
31
0.0
0
LINE
5
946
100
AcDbEntity
8
1-0
6
CONTINUOUS
62
3
100
AcDbLine
10
38467.709999999999
20
2658.510000000000
30
0.0
11
38965.879999999997
21
2702.440000000000
31
0.0
0
LINE
5
947
100
AcDbEntity
8
1-0
6
CONTINUOUS
62
3
100
AcDbLine
10
38965.879999999997
20
2702.440000000000
30
0.0
11
39464.940000000002
21
2732.780000000000
31
0.0
0
LINE
5
948
100
AcDbEntity
8
1-0
6
CONTINUOUS
62
3
100
AcDbLine
10
39464.940000000002
20
2732.780000000000
30
0.0
11
39964.690000000002
21
2750.520000000000
31
0.0
0
LINE
5
949
100
AcDbEntity
8
1-0
6
CONTINUOUS
62
3
100
AcDbLine
10
39964.690000000002
20
2750.520000000000
30
0.0
11
40464.870000000003
21
2757.210000000000
31
0.0
0
LINE
5
94a
100
AcDbEntity
8
1-0
6
CONTINUOUS
62
3
100
AcDbLine
10
40464.870000000003
20
2757.210000000000
30
0.0
11
40965.330000000002
21
2754.370000000000
31
0.0
0
LINE
5
94b
100
AcDbEntity
8
1-0
6
CONTINUOUS
62
3
100
AcDbLine
10
40965.330000000002
20
2754.370000000000
30
0.0
11
41465.790000000001
21
2743.550000000000
31
0.0
0
LINE
5
94c
100
AcDbEntity
8
1-0
6
CONTINUOUS
62
3
100
AcDbLine
10
41465.790000000001
20
2743.550000000000
30
0.0
11
41966.029999999999
21
2726.280000000000
31
0.0
0
LINE
5
94d
100
AcDbEntity
8
1-0
6
CONTINUOUS
62
3
100
AcDbLine
10
41966.029999999999
20
2726.280000000000
30
0.0
11
42465.879999999997
21
2704.170000000000
31
0.0
0
LINE
5
94e
100
AcDbEntity
8
1-0
6
CONTINUOUS
62
3
100
AcDbLine
10
42465.879999999997
20
2704.170000000000
30
0.0
11
42965.360000000001
21
2679.310000000000
31
0.0
0
LINE
5
94f
100
AcDbEntity
8
1-0
6
CONTINUOUS
62
3
100
AcDbLine
10
42965.360000000001
20
2679.310000000000
30
0.0
11
43464.690000000002
21
2654.040000000000
31
0.0
0
LINE
5
950
100
AcDbEntity
8
1-0
6
CONTINUOUS
62
3
100
AcDbLine
10
43464.690000000002
20
2654.040000000000
30
0.0
11
43963.989999999998
21
2630.700000000000
31
0.0
0
LINE
5
951
100
AcDbEntity
8
1-0
6
CONTINUOUS
62
3
100
AcDbLine
10
43963.989999999998
20
2630.700000000000
30
0.0
11
44463.410000000003
21
2611.550000000000
31
0.0
0
LINE
5
952
100
AcDbEntity
8
1-0
6
CONTINUOUS
62
3
100
AcDbLine
10
44463.410000000003
20
2611.550000000000
30
0.0
11
44963.040000000001
21
2597.830000000000
31
0.0
0
LINE
5
953
100
AcDbEntity
8
1-0
6
CONTINUOUS
62
3
100
AcDbLine
10
44963.040000000001
20
2597.830000000000
30
0.0
11
45462.919999999998
21
2588.600000000000
31
0.0
0
LINE
5
954
100
AcDbEntity
8
1-0
6
CONTINUOUS
62
3
100
AcDbLine
10
45462.919999999998
20
2588.600000000000
30
0.0
11
45962.919999999998
21
2582.720000000000
31
0.0
0
LINE
5
955
100
AcDbEntity
8
1-0
6
CONTINUOUS
62
3
100
AcDbLine
10
45962.919999999998
20
2582.720000000000
30
0.0
11
46463.010000000002
21
2579.050000000000
31
0.0
0
LINE
5
956
100
AcDbEntity
8
1-0
6
CONTINUOUS
62
3
100
AcDbLine
10
46463.010000000002
20
2579.050000000000
30
0.0
11
46963.199999999997
21
2576.410000000000
31
0.0
0
LINE
5
957
100
AcDbEntity
8
1-0
6
CONTINUOUS
62
3
100
AcDbLine
10
46963.199999999997
20
2576.410000000000
30
0.0
11
47463.410000000003
21
2573.640000000000
31
0.0
0
LINE
5
958
100
AcDbEntity
8
1-0
6
CONTINUOUS
62
3
100
AcDbLine
10
47463.410000000003
20
2573.640000000000
30
0.0
11
47963.559999999998
21
2569.630000000000
31
0.0
0
LINE
5
959
100
AcDbEntity
8
1-0
6
CONTINUOUS
62
3
100
AcDbLine
10
47963.559999999998
20
2569.630000000000
30
0.0
11
48463.680000000000
21
2563.190000000000
31
0.0
0
LINE
5
95a
100
AcDbEntity
8
1-0
6
CONTINUOUS
62
3
100
AcDbLine
10
48463.680000000000
20
2563.190000000000
30
0.0
11
48963.680000000000
21
2553.200000000000
31
0.0
0
LINE
5
95b
100
AcDbEntity
8
1-0
6
CONTINUOUS
62
3
100
AcDbLine
10
48963.680000000000
20
2553.200000000000
30
0.0
11
49463.529999999999
21
2538.470000000000
31
0.0
0
LINE
5
95c
100
AcDbEntity
8
1-0
6
CONTINUOUS
62
3
100
AcDbLine
10
49463.529999999999
20
2538.470000000000
30
0.0
11
49963.169999999998
21
2517.890000000000
31
0.0
0
LINE
5
95d
100
AcDbEntity
8
1-0
6
CONTINUOUS
62
3
100
AcDbLine
10
49963.169999999998
20
2517.890000000000
30
0.0
11
50462.580000000002
21
2490.270000000000
31
0.0
0
LINE
5
95e
100
AcDbEntity
8
1-0
6
CONTINUOUS
62
3
100
AcDbLine
10
50462.580000000002
20
2490.270000000000
30
0.0
11
50961.699999999997
21
2454.470000000000
31
0.0
0
LINE
5
95f
100
AcDbEntity
8
1-0
6
CONTINUOUS
62
3
100
AcDbLine
10
50961.699999999997
20
2454.470000000000
30
0.0
11
51460.480000000003
21
2409.370000000000
31
0.0
0
LINE
5
960
100
AcDbEntity
8
1-0
6
CONTINUOUS
62
3
100
AcDbLine
10
51460.480000000003
20
2409.370000000000
30
0.0
11
51958.980000000003
21
2356.410000000000
31
0.0
0
LINE
5
961
100
AcDbEntity
8
1-0
6
CONTINUOUS
62
3
100
AcDbLine
10
51958.980000000003
20
2356.410000000000
30
0.0
11
52457.339999999997
21
2301.610000000000
31
0.0
0
LINE
5
962
100
AcDbEntity
8
1-0
6
CONTINUOUS
62
3
100
AcDbLine
10
52457.339999999997
20
2301.610000000000
30
0.0
11
52955.720000000001
21
2251.550000000000
31
0.0
0
LINE
5
963
100
AcDbEntity
8
1-0
6
CONTINUOUS
62
3
100
AcDbLine
10
52955.720000000001
20
2251.550000000000
30
0.0
11
53454.309999999998
21
2212.710000000000
31
0.0
0
LINE
5
964
100
AcDbEntity
8
1-0
6
CONTINUOUS
62
3
100
AcDbLine
10
53454.309999999998
20
2212.710000000000
30
0.0
11
53953.269999999997
21
2191.640000000000
31
0.0
0
LINE
5
965
100
AcDbEntity
8
1-0
6
CONTINUOUS
62
3
100
AcDbLine
10
53953.269999999997
20
2191.640000000000
30
0.0
11
54452.820000000000
21
2194.880000000000
31
0.0
0
LINE
5
966
100
AcDbEntity
8
1-0
6
CONTINUOUS
62
3
100
AcDbLine
10
54452.820000000000
20
2194.880000000000
30
0.0
11
54952.669999999998
21
2228.190000000000
31
0.0
0
LINE
5
967
100
AcDbEntity
8
1-0
6
CONTINUOUS
62
3
100
AcDbLine
10
54952.669999999998
20
2228.190000000000
30
0.0
11
55450.440000000002
21
2293.450000000000
31
0.0
0
LINE
5
968
100
AcDbEntity
8
1-0
6
CONTINUOUS
62
3
100
AcDbLine
10
55450.440000000002
20
2293.450000000000
30
0.0
11
55943.050000000003
21
2391.260000000000
31
0.0
0
LINE
5
969
100
AcDbEntity
8
1-0
6
CONTINUOUS
62
3
100
AcDbLine
10
55943.050000000003
20
2391.260000000000
30
0.0
11
56427.339999999997
21
2522.190000000000
31
0.0
0
LINE
5
96a
100
AcDbEntity
8
1-0
6
CONTINUOUS
62
3
100
AcDbLine
10
56427.339999999997
20
2522.190000000000
30
0.0
11
56900.570000000000
21
2686.180000000000
31
0.0
0
LINE
5
96b
100
AcDbEntity
8
1-0
6
CONTINUOUS
62
3
100
AcDbLine
10
56900.570000000000
20
2686.180000000000
30
0.0
11
57366.180000000000
21
2869.680000000000
31
0.0
0
LINE
5
96c
100
AcDbEntity
8
1-0
6
CONTINUOUS
62
3
100
AcDbLine
10
57366.180000000000
20
2869.680000000000
30
0.0
11
57833.589999999997
21
3046.420000000000
31
0.0
0
LINE
5
96d
100
AcDbEntity
8
1-0
6
CONTINUOUS
62
3
100
AcDbLine
10
57833.589999999997
20
3046.420000000000
30
0.0
11
58311.830000000002
21
3191.290000000000
31
0.0
0
LINE
5
96e
100
AcDbEntity
8
1-0
6
CONTINUOUS
62
3
100
AcDbLine
10
58311.830000000002
20
3191.290000000000
30
0.0
11
58799.379999999997
21
3308.340000000000
31
0.0
0
LINE
5
96f
100
AcDbEntity
8
1-0
6
CONTINUOUS
62
3
100
AcDbLine
10
58799.379999999997
20
3308.340000000000
30
0.0
11
59285.339999999997
21
3427.240000000000
31
0.0
0
LINE
5
970
100
AcDbEntity
8
1-0
6
CONTINUOUS
62
3
100
AcDbLine
10
59285.339999999997
20
3427.240000000000
30
0.0
11
59758.820000000000
21
3578.040000000000
31
0.0
0
LINE
5
971
100
AcDbEntity
8
1-0
6
CONTINUOUS
62
3
100
AcDbLine
10
59758.820000000000
20
3578.040000000000
30
0.0
11
60216.180000000000
21
3771.490000000000
31
0.0
0
LINE
5
972
100
AcDbEntity
8
1-0
6
CONTINUOUS
62
3
100
AcDbLine
10
60216.180000000000
20
3771.490000000000
30
0.0
11
60663.389999999999
21
3993.840000000000
31
0.0
0
LINE
5
973
100
AcDbEntity
8
1-0
6
CONTINUOUS
62
3
100
AcDbLine
10
60663.389999999999
20
3993.840000000000
30
0.0
11
61106.930000000000
21
4229.770000000000
31
0.0
0
LINE
5
974
100
AcDbEntity
8
1-0
6
CONTINUOUS
62
3
100
AcDbLine
10
61106.930000000000
20
4229.770000000000
30
0.0
11
61553.250000000000
21
4463.930000000000
31
0.0
0
LINE
5
975
100
AcDbEntity
8
1-0
6
CONTINUOUS
62
3
100
AcDbLine
10
61553.250000000000
20
4463.930000000000
30
0.0
11
62008.120000000003
21
4682.530000000000
31
0.0
0
LINE
5
976
100
AcDbEntity
8
1-0
6
CONTINUOUS
62
3
100
AcDbLine
10
62008.120000000003
20
4682.530000000000
30
0.0
11
62466.860000000001
21
4891.230000000000
31
0.0
0
LINE
5
977
100
AcDbEntity
8
1-0
6
CONTINUOUS
62
3
100
AcDbLine
10
62466.860000000001
20
4891.230000000000
30
0.0
11
62917.570000000000
21
5109.290000000000
31
0.0
0
LINE
5
978
100
AcDbEntity
8
1-0
6
CONTINUOUS
62
3
100
AcDbLine
10
62917.570000000000
20
5109.290000000000
30
0.0
11
63348.239999999998
21
5356.300000000000
31
0.0
0
LINE
5
979
100
AcDbEntity
8
1-0
6
CONTINUOUS
62
3
100
AcDbLine
10
63348.239999999998
20
5356.300000000000
30
0.0
11
63748.110000000001
21
5649.790000000000
31
0.0
0
LINE
5
97a
100
AcDbEntity
8
1-0
6
CONTINUOUS
62
3
100
AcDbLine
10
63748.110000000001
20
5649.790000000000
30
0.0
11
64122.190000000002
21
5982.600000000000
31
0.0
0
LINE
5
97b
100
AcDbEntity
8
1-0
6
CONTINUOUS
62
3
100
AcDbLine
10
64122.190000000002
20
5982.600000000000
30
0.0
11
64370.029999999999
21
6219.900000000000
31
0.0
0
LINE
5
97c
100
AcDbEntity
8
1-0
6
CONTINUOUS
62
3
100
AcDbLine
10
6592.920000000000
20
626.580000000000
30
0.0
11
7099.240000000000
21
586.250000000000
31
0.0
0
LINE
5
97d
100
AcDbEntity
8
1-0
6
CONTINUOUS
62
3
100
AcDbLine
10
7099.240000000000
20
586.250000000000
30
0.0
11
7601.200000000000
21
578.470000000000
31
0.0
0
LINE
5
97e
100
AcDbEntity
8
1-0
6
CONTINUOUS
62
3
100
AcDbLine
10
7601.200000000000
20
578.470000000000
30
0.0
11
8094.450000000000
21
635.750000000000
31
0.0
0
LINE
5
97f
100
AcDbEntity
8
1-0
6
CONTINUOUS
62
3
100
AcDbLine
10
8094.450000000000
20
635.750000000000
30
0.0
11
8576.990000000000
21
772.670000000000
31
0.0
0
LINE
5
980
100
AcDbEntity
8
1-0
6
CONTINUOUS
62
3
100
AcDbLine
10
8576.990000000000
20
772.670000000000
30
0.0
11
9060.910000000000
21
898.550000000000
31
0.0
0
LINE
5
981
100
AcDbEntity
8
1-0
6
CONTINUOUS
62
3
100
AcDbLine
10
9060.910000000000
20
898.550000000000
30
0.0
11
9559.290000000001
21
914.690000000000
31
0.0
0
LINE
5
982
100
AcDbEntity
8
1-0
6
CONTINUOUS
62
3
100
AcDbLine
10
9559.290000000001
20
914.690000000000
30
0.0
11
10055.080000000000
21
951.940000000000
31
0.0
0
LINE
5
983
100
AcDbEntity
8
1-0
6
CONTINUOUS
62
3
100
AcDbLine
10
10055.080000000000
20
951.940000000000
30
0.0
11
10537.870000000001
21
1088.800000000000
31
0.0
0
LINE
5
984
100
AcDbEntity
8
1-0
6
CONTINUOUS
62
3
100
AcDbLine
10
10537.870000000001
20
1088.800000000000
30
0.0
11
11017.910000000000
21
1244.020000000000
31
0.0
0
LINE
5
985
100
AcDbEntity
8
1-0
6
CONTINUOUS
62
3
100
AcDbLine
10
11017.910000000000
20
1244.020000000000
30
0.0
11
11506.190000000001
21
1331.150000000000
31
0.0
0
LINE
5
986
100
AcDbEntity
8
1-0
6
CONTINUOUS
62
3
100
AcDbLine
10
11506.190000000001
20
1331.150000000000
30
0.0
11
12006.100000000000
21
1331.330000000000
31
0.0
0
LINE
5
987
100
AcDbEntity
8
1-0
6
CONTINUOUS
62
3
100
AcDbLine
10
12006.100000000000
20
1331.330000000000
30
0.0
11
12510.280000000001
21
1320.870000000000
31
0.0
0
LINE
5
988
100
AcDbEntity
8
1-0
6
CONTINUOUS
62
3
100
AcDbLine
10
12510.280000000001
20
1320.870000000000
30
0.0
11
13012.209999999999
21
1351.960000000000
31
0.0
0
LINE
5
989
100
AcDbEntity
8
1-0
6
CONTINUOUS
62
3
100
AcDbLine
10
13012.209999999999
20
1351.960000000000
30
0.0
11
13508.059999999999
21
1428.810000000000
31
0.0
0
LINE
5
98a
100
AcDbEntity
8
1-0
6
CONTINUOUS
62
3
100
AcDbLine
10
13508.059999999999
20
1428.810000000000
30
0.0
11
13994.139999999999
21
1551.460000000000
31
0.0
0
LINE
5
98b
100
AcDbEntity
8
1-0
6
CONTINUOUS
62
3
100
AcDbLine
10
13994.139999999999
20
1551.460000000000
30
0.0
11
14468.320000000000
21
1714.880000000000
31
0.0
0
LINE
5
98c
100
AcDbEntity
8
1-0
6
CONTINUOUS
62
3
100
AcDbLine
10
14468.320000000000
20
1714.880000000000
30
0.0
11
14942.139999999999
21
1868.750000000000
31
0.0
0
LINE
5
98d
100
AcDbEntity
8
1-0
6
CONTINUOUS
62
3
100
AcDbLine
10
14942.139999999999
20
1868.750000000000
30
0.0
11
15428.680000000000
21
1961.550000000000
31
0.0
0
LINE
5
98e
100
AcDbEntity
8
1-0
6
CONTINUOUS
62
3
100
AcDbLine
10
15428.680000000000
20
1961.550000000000
30
0.0
11
15926.480000000000
21
2001.420000000000
31
0.0
0
LINE
5
98f
100
AcDbEntity
8
1-0
6
CONTINUOUS
62
3
100
AcDbLine
10
15926.480000000000
20
2001.420000000000
30
0.0
11
16431.730000000000
21
2006.430000000000
31
0.0
0
LINE
5
990
100
AcDbEntity
8
1-0
6
CONTINUOUS
62
3
100
AcDbLine
10
16431.730000000000
20
2006.430000000000
30
0.0
11
16907.070000000000
21
1995.530000000000
31
0.0
0
CIRCLE
5
991
100
AcDbEntity
8
1-0
6
CONTINUOUS
62
4
100
AcDbCircle
10
62107.510000000002
20
10527.230000000000
30
0.0
40
99.999999069885
0
CIRCLE
5
992
100
AcDbEntity
8
1-0
6
CONTINUOUS
62
4
100
AcDbCircle
10
70046.960000000006
20
9953.180000000000
30
0.0
40
99.999999069885
0
CIRCLE
5
993
100
AcDbEntity
8
1-0
6
CONTINUOUS
62
4
100
AcDbCircle
10
42901.639999999999
20
13078.209999999999
30
0.0
40
99.999999069885
0
CIRCLE
5
994
100
AcDbEntity
8
1-0
6
CONTINUOUS
62
4
100
AcDbCircle
10
51958.160000000003
20
12910.860000000001
30
0.0
40
99.999999069885
0
CIRCLE
5
995
100
AcDbEntity
8
1-0
6
CONTINUOUS
62
4
100
AcDbCircle
10
-4919.680000000000
20
-430.460000000000
30
0.0
40
99.999999069885
0
CIRCLE
5
996
100
AcDbEntity
8
1-0
6
CONTINUOUS
62
4
100
AcDbCircle
10
4277.100000000000
20
-5869.010000000000
30
0.0
40
99.999999069885
0
CIRCLE
5
997
100
AcDbEntity
8
1-0
6
CONTINUOUS
62
4
100
AcDbCircle
10
75577.300000000003
20
9381.090000000000
30
0.0
40
99.999999069885
0
CIRCLE
5
998
100
AcDbEntity
8
1-0
6
CONTINUOUS
62
4
100
AcDbCircle
10
-12061.100000000000
20
3391.850000000000
30
0.0
40
99.999999069885
0
CIRCLE
5
999
100
AcDbEntity
8
1-0
6
CONTINUOUS
62
3
100
AcDbCircle
10
74846.070000000007
20
-591.990000000000
30
0.0
40
299.999997209656
0
CIRCLE
5
99a
100
AcDbEntity
8
1-0
6
CONTINUOUS
62
3
100
AcDbCircle
10
-4096.530000000000
20
22774.400000000001
30
0.0
40
299.999997209656
0
CIRCLE
5
99b
100
AcDbEntity
8
1-0
6
CONTINUOUS
62
3
100
AcDbCircle
10
5102.490000000000
20
13019.639999999999
30
0.0
40
349.999996744598
0
CIRCLE
5
99c
100
AcDbEntity
8
1-0
6
CONTINUOUS
62
3
100
AcDbCircle
10
5102.490000000000
20
13019.639999999999
30
0.0
40
299.999997209656
0
CIRCLE
5
99d
100
AcDbEntity
8
1-0
6
CONTINUOUS
62
4
100
AcDbCircle
10
24145.869999999999
20
15906.639999999999
30
0.0
40
99.999999069885
0
CIRCLE
5
99e
100
AcDbEntity
8
1-0
6
CONTINUOUS
62
4
100
AcDbCircle
10
33561.919999999998
20
14083.350000000000
30
0.0
40
99.999999069885
0
CIRCLE
5
99f
100
AcDbEntity
8
1-0
6
CONTINUOUS
62
4
100
AcDbCircle
10
4193.880000000000
20
18014.360000000001
30
0.0
40
99.999999069885
0
CIRCLE
5
9a0
100
AcDbEntity
8
1-0
6
CONTINUOUS
62
4
100
AcDbCircle
10
13980.379999999999
20
16834.220000000001
30
0.0
40
99.999999069885
0
TEXT
5
9a1
100
AcDbEntity
8
1-0
62
6
100
AcDbText
10
2227.580
20
10887.100
30
0.0
40
585.000
1
蓋上標高 EL=9.75
41
1.083
50
0.000
100
AcDbText
0
TEXT
5
9a2
100
AcDbEntity
8
1-0
62
6
100
AcDbText
10
2291.330
20
11758.290
30
0.0
40
585.000
1
ポンプ・ピット
41
1.083
50
0.000
100
AcDbText
0
TEXT
5
9a3
100
AcDbEntity
8
1-0
62
2
100
AcDbText
10
38664.420
20
4310.050
30
0.0
40
390.000
1
9.07
41
1.050
50
0.000
100
AcDbText
0
TEXT
5
9a4
100
AcDbEntity
8
1-0
62
2
100
AcDbText
10
38350.870
20
3741.730
30
0.0
40
390.000
1
（9.07）
41
1.050
50
0.000
100
AcDbText
0
TEXT
5
9a5
100
AcDbEntity
8
1-0
62
2
100
AcDbText
10
43142.930
20
12854.410
30
0.0
40
390.000
1
T-83
41
1.050
50
0.000
100
AcDbText
0
TEXT
5
9a6
100
AcDbEntity
8
1-0
62
2
100
AcDbText
10
4453.620
20
17811.170
30
0.0
40
390.000
1
T-79
41
1.050
50
0.000
100
AcDbText
0
TEXT
5
9a7
100
AcDbEntity
8
1-0
62
2
100
AcDbText
10
0.000
20
0.000
30
0.0
40
390.000
1
T-66
41
1.050
50
0.000
100
AcDbText
0
TEXT
5
9a8
100
AcDbEntity
8
1-0
62
6
100
AcDbText
10
6735.700
20
53089.360
30
0.0
40
585.000
1
大覚寺名古曽滝跡現況平面図
41
1.083
50
0.000
100
AcDbText
0
TEXT
5
9a9
100
AcDbEntity
8
1-0
62
6
100
AcDbText
10
19313.110
20
1627.220
30
0.0
40
585.000
1
9.0
41
1.083
50
0.000
100
AcDbText
0
TEXT
5
9aa
100
AcDbEntity
8
1-0
62
2
100
AcDbText
10
-3429.600
20
22393.500
30
0.0
40
390.000
1
T-78
41
1.050
50
0.000
100
AcDbText
0
TEXT
5
9ab
100
AcDbEntity
8
1-0
62
2
100
AcDbText
10
0.000
20
0.000
30
0.0
40
390.000
1
T-64
41
1.050
50
0.000
100
AcDbText
0
TEXT
5
9ac
100
AcDbEntity
8
1-0
62
2
100
AcDbText
10
24396.920
20
15696.440
30
0.0
40
390.000
1
T-81
41
1.050
50
0.000
100
AcDbText
0
TEXT
5
9ad
100
AcDbEntity
8
1-0
62
2
100
AcDbText
10
33787.700
20
13872.250
30
0.0
40
390.000
1
T-82
41
1.050
50
0.000
100
AcDbText
0
TEXT
5
9ae
100
AcDbEntity
8
1-0
62
2
100
AcDbText
10
62383.700
20
10315.140
30
0.0
40
390.000
1
T-85
41
1.050
50
0.000
100
AcDbText
0
TEXT
5
9af
100
AcDbEntity
8
1-0
62
2
100
AcDbText
10
52232.490
20
12712.380
30
0.0
40
390.000
1
T-84
41
1.050
50
0.000
100
AcDbText
0
TEXT
5
9b0
100
AcDbEntity
8
1-0
62
2
100
AcDbText
10
1097.660
20
640.750
30
0.0
40
390.000
1
天神島
41
1.050
50
0.000
100
AcDbText
0
TEXT
5
9b1
100
AcDbEntity
8
1-0
62
2
100
AcDbText
10
14174.250
20
16632.920
30
0.0
40
390.000
1
T-80
41
1.050
50
0.000
100
AcDbText
0
TEXT
5
9b2
100
AcDbEntity
8
1-0
62
2
100
AcDbText
10
0.000
20
0.000
30
0.0
40
390.000
1
T-77
41
1.050
50
0.000
100
AcDbText
0
TEXT
5
9b3
100
AcDbEntity
8
1-0
62
2
100
AcDbText
10
70295.890
20
9722.170
30
0.0
40
390.000
1
T-86
41
1.050
50
0.000
100
AcDbText
0
TEXT
5
9b4
100
AcDbEntity
8
1-0
62
2
100
AcDbText
10
-4667.100
20
-660.260
30
0.0
40
390.000
1
T-65
41
1.050
50
0.000
100
AcDbText
0
TEXT
5
9b5
100
AcDbEntity
8
1-0
62
2
100
AcDbText
10
74738.740
20
-1833.290
30
0.0
40
390.000
1
T-2
41
1.050
50
0.000
100
AcDbText
0
TEXT
5
9b6
100
AcDbEntity
8
1-0
62
2
100
AcDbText
10
75812.160
20
9169.260
30
0.0
40
390.000
1
T-1
41
1.050
50
0.000
100
AcDbText
0
TEXT
5
9b7
100
AcDbEntity
8
1-0
62
6
100
AcDbText
10
36757.660
20
34036.960
30
0.0
40
585.000
1
名古曽滝跡
41
1.083
50
0.000
100
AcDbText
0
TEXT
5
9b8
100
AcDbEntity
8
1-0
62
3
100
AcDbText
10
78109.260
20
4668.550
30
0.0
40
292.500
1
100
41
1.000
50
0.000
100
AcDbText
0
TEXT
5
9b9
100
AcDbEntity
8
1-0
62
3
100
AcDbText
10
75713.860
20
5804.740
30
0.0
40
292.500
1
事
41
1.000
50
0.000
100
AcDbText
0
TEXT
5
9ba
100
AcDbEntity
8
1-0
62
3
100
AcDbText
10
76298.860
20
5804.740
30
0.0
40
292.500
1
業
41
1.000
50
0.000
100
AcDbText
0
TEXT
5
9bb
100
AcDbEntity
8
1-0
62
3
100
AcDbText
10
76883.860
20
5804.740
30
0.0
40
292.500
1
名
41
1.000
50
0.000
100
AcDbText
0
TEXT
5
9bc
100
AcDbEntity
8
1-0
62
3
100
AcDbText
10
77760.970
20
5768.180
30
0.0
40
292.500
1
大沢の池環境管理プロジェクト
41
1.000
50
0.000
100
AcDbText
0
TEXT
5
9bd
100
AcDbEntity
8
1-0
62
3
100
AcDbText
10
79447.810
20
4668.550
30
0.0
40
292.500
1
図面番号
41
1.000
50
0.000
100
AcDbText
0
TEXT
5
9be
100
AcDbEntity
8
1-0
62
3
100
AcDbText
10
77789.810
20
4668.550
30
0.0
40
292.500
1
1/
41
1.000
50
0.000
100
AcDbText
0
TEXT
5
9bf
100
AcDbEntity
8
1-0
62
3
100
AcDbText
10
75713.860
20
4684.960
30
0.0
40
292.500
1
縮
41
1.000
50
0.000
100
AcDbText
0
TEXT
5
9c0
100
AcDbEntity
8
1-0
62
3
100
AcDbText
10
76883.860
20
4684.960
30
0.0
40
292.500
1
尺
41
1.000
50
0.000
100
AcDbText
0
TEXT
5
9c1
100
AcDbEntity
8
1-0
62
3
100
AcDbText
10
75713.860
20
3565.160
30
0.0
40
292.500
1
調
41
1.000
50
0.000
100
AcDbText
0
TEXT
5
9c2
100
AcDbEntity
8
1-0
62
3
100
AcDbText
10
76883.860
20
3565.160
30
0.0
40
292.500
1
製
41
1.000
50
0.000
100
AcDbText
0
TEXT
5
9c3
100
AcDbEntity
8
1-0
62
6
100
AcDbText
10
46283.870
20
4207.440
30
0.0
40
585.000
1
大　沢　池
41
1.083
50
0.000
100
AcDbText
0
TEXT
5
9c4
100
AcDbEntity
8
1-0
62
3
100
AcDbText
10
75713.860
20
4127.660
30
0.0
40
292.500
1
測
41
1.000
50
0.000
100
AcDbText
0
TEXT
5
9c5
100
AcDbEntity
8
1-0
62
3
100
AcDbText
10
76883.860
20
4127.660
30
0.0
40
292.500
1
量
41
1.000
50
0.000
100
AcDbText
0
TEXT
5
9c6
100
AcDbEntity
8
1-0
62
3
100
AcDbText
10
75713.860
20
3002.660
30
0.0
40
292.500
1
作
41
1.000
50
0.000
100
AcDbText
0
TEXT
5
9c7
100
AcDbEntity
8
1-0
62
3
100
AcDbText
10
76103.860
20
3002.660
30
0.0
40
292.500
1
業
41
1.000
50
0.000
100
AcDbText
0
TEXT
5
9c8
100
AcDbEntity
8
1-0
62
3
100
AcDbText
10
76493.860
20
3002.660
30
0.0
40
292.500
1
機
41
1.000
50
0.000
100
AcDbText
0
TEXT
5
9c9
100
AcDbEntity
8
1-0
62
3
100
AcDbText
10
76883.860
20
3002.660
30
0.0
40
292.500
1
関
41
1.000
50
0.000
100
AcDbText
0
TEXT
5
9ca
100
AcDbEntity
8
1-0
62
3
100
AcDbText
10
75713.860
20
5242.240
30
0.0
40
292.500
1
図
41
1.000
50
0.000
100
AcDbText
0
TEXT
5
9cb
100
AcDbEntity
8
1-0
62
3
100
AcDbText
10
76298.860
20
5242.240
30
0.0
40
292.500
1
面
41
1.000
50
0.000
100
AcDbText
0
TEXT
5
9cc
100
AcDbEntity
8
1-0
62
3
100
AcDbText
10
76883.860
20
5242.240
30
0.0
40
292.500
1
名
41
1.000
50
0.000
100
AcDbText
0
TEXT
5
9cd
100
AcDbEntity
8
1-0
62
3
100
AcDbText
10
77444.080
20
4105.750
30
0.0
40
292.500
1
平成13年8月17日～平成17年11月6日
41
1.000
50
0.000
100
AcDbText
0
TEXT
5
9ce
100
AcDbEntity
8
1-0
62
7
100
AcDbText
10
12300.010
20
48745.680
30
0.0
40
195.000
1
0
41
1.000
50
0.000
100
AcDbText
0
TEXT
5
9cf
100
AcDbEntity
8
1-0
62
7
100
AcDbText
10
11266.190
20
48736.970
30
0.0
40
195.000
1
1
41
1.000
50
0.000
100
AcDbText
0
TEXT
5
9d0
100
AcDbEntity
8
1-0
62
7
100
AcDbText
10
16260.460
20
48724.150
30
0.0
40
195.000
1
4 m
41
1.000
50
0.000
100
AcDbText
0
TEXT
5
9d1
100
AcDbEntity
8
1-0
62
6
100
AcDbText
10
10777.120
20
51164.880
30
0.0
40
585.000
1
縮尺 壱百分之壱
41
1.083
50
0.000
100
AcDbText
0
TEXT
5
9d2
100
AcDbEntity
8
1-0
62
7
100
AcDbText
10
14260.780
20
48717.730
30
0.0
40
195.000
1
2
41
1.000
50
0.000
100
AcDbText
0
TEXT
5
9d3
100
AcDbEntity
8
1-0
62
3
100
AcDbText
10
12698.120
20
49249.430
30
0.0
40
341.250
1
Scale　1/100
41
1.000
50
0.000
100
AcDbText
0
TEXT
5
9d4
100
AcDbEntity
8
1-0
62
3
100
AcDbText
10
78485.760
20
5220.330
30
0.0
40
292.500
1
名古曽滝跡現況平面図
41
1.000
50
0.000
100
AcDbText
0
TEXT
5
9d5
100
AcDbEntity
8
1-0
62
3
100
AcDbText
10
78207.990
20
2980.750
30
0.0
40
292.500
1
ソウギョ・バスターズ
41
1.000
50
0.000
100
AcDbText
0
TEXT
5
9d6
100
AcDbEntity
8
1-0
62
3
100
AcDbText
10
78624.640
20
3543.250
30
0.0
40
292.500
1
平成17年12月1日
41
1.000
50
0.000
100
AcDbText
0
TEXT
5
9d7
100
AcDbEntity
8
1-0
62
7
100
AcDbText
10
15261.120
20
48724.150
30
0.0
40
195.000
1
3
41
1.000
50
0.000
100
AcDbText
0
TEXT
5
9d8
100
AcDbEntity
8
1-0
62
7
100
AcDbText
10
13260.450
20
48724.150
30
0.0
40
195.000
1
1
41
1.000
50
0.000
100
AcDbText
0
POINT
5
9d9
100
AcDbEntity
8
1-0
62
7
100
AcDbPoint
10
-4096.530000000000
20
22774.400000000001
30
0.0
0
POINT
5
9da
100
AcDbEntity
8
1-0
62
7
100
AcDbPoint
10
62107.510000000002
20
10527.230000000000
30
0.0
0
POINT
5
9db
100
AcDbEntity
8
1-0
62
7
100
AcDbPoint
10
74846.070000000007
20
-591.990000000000
30
0.0
0
POINT
5
9dc
100
AcDbEntity
8
1-0
62
7
100
AcDbPoint
10
75577.300000000003
20
9381.090000000000
30
0.0
0
POINT
5
9dd
100
AcDbEntity
8
1-0
62
7
100
AcDbPoint
10
38366.790000000001
20
4285.160000000000
30
0.0
0
POINT
5
9de
100
AcDbEntity
8
1-0
62
7
100
AcDbPoint
10
0.000000000000
20
0.000000000000
30
0.0
0
POINT
5
9df
100
AcDbEntity
8
1-0
62
7
100
AcDbPoint
10
0.000000000000
20
0.000000000000
30
0.0
0
POINT
5
9e0
100
AcDbEntity
8
1-0
62
7
100
AcDbPoint
10
70046.960000000006
20
9953.180000000000
30
0.0
0
POINT
5
9e1
100
AcDbEntity
8
1-0
62
7
100
AcDbPoint
10
0.000000000000
20
0.000000000000
30
0.0
0
POINT
5
9e2
100
AcDbEntity
8
1-0
62
7
100
AcDbPoint
10
-4919.680000000000
20
-430.460000000000
30
0.0
0
POINT
5
9e3
100
AcDbEntity
8
1-0
62
7
100
AcDbPoint
10
51958.160000000003
20
12910.860000000001
30
0.0
0
POINT
5
9e4
100
AcDbEntity
8
1-0
62
7
100
AcDbPoint
10
13980.379999999999
20
16834.220000000001
30
0.0
0
POINT
5
9e5
100
AcDbEntity
8
1-0
62
7
100
AcDbPoint
10
24145.869999999999
20
15906.639999999999
30
0.0
0
POINT
5
9e6
100
AcDbEntity
8
1-0
62
7
100
AcDbPoint
10
4193.880000000000
20
18014.360000000001
30
0.0
0
POINT
5
9e7
100
AcDbEntity
8
1-0
62
7
100
AcDbPoint
10
33561.919999999998
20
14083.350000000000
30
0.0
0
POINT
5
9e8
100
AcDbEntity
8
1-0
62
7
100
AcDbPoint
10
42901.639999999999
20
13078.209999999999
30
0.0
0
POINT
5
9e9
100
AcDbEntity
8
1-0
62
7
100
AcDbPoint
10
5102.490000000000
20
13019.639999999999
30
0.0
0
ENDSEC
0
EOF
