0
SECTION
2
HEADER
9
$ACADVER
1
AC1009
9
$EXTMIN
10
0.000
20
0.000
30
0.0
9
$EXTMAX
10
84100.000
20
59400.000
30
0.0
9
$LTSCALE
40
100.000
9
$PDMODE
70
0
9
$PDSIZE
40
40.0
0
ENDSEC
0
SECTION
2
TABLES
0
TABLE
2
LTYPE
70
9
0
LTYPE
5
1f4
2
CONTINUOUS
70
64
3
SolidLine
72
65
73
0
40
0.0
0
LTYPE
5
1f5
2
DOT
70
64
3
--  --  --  --  --  --  --  --     
72
65
73
2
40
3.000
49
1.000
49
-2.000
0
LTYPE
5
1f6
2
DASHED
70
64
3
----    ----    ----    ----    
72
65
73
2
40
5.000
49
2.000
49
-3.000
0
LTYPE
5
1f7
2
DASHED2
70
64
3
------  ------  ------  ------ 
72
65
73
2
40
10.000
49
4.000
49
-6.000
0
LTYPE
5
1f8
2
CENTER
70
64
3
----- - ----- - ----- - ----- - 
72
65
73
4
40
10.000
49
6.000
49
-3.000
49
1.000
49
-3.000
0
LTYPE
5
1f9
2
CENTER2
70
64
3
----------  --  ----------  -- 
72
65
73
4
40
17.000
49
12.000
49
-5.000
49
2.000
49
-5.000
0
LTYPE
5
1fa
2
PHANTOM
70
64
3
--- - - --- - - --- - - --- - -
72
65
73
6
40
13.000
49
5.000
49
-3.000
49
1.000
49
-3.000
49
1.000
49
-3.000
0
LTYPE
5
1fb
2
PHANTOM2
70
64
3
--------  -  -  --------  -  -
72
65
73
6
40
20.000
49
6.000
49
-5.000
49
2.000
49
-5.000
49
2.000
49
-5.000
0
LTYPE
5
1fc
2
HIDDEN
70
64
3
-   -   -   -   -   -   -   -   
72
65
73
2
40
3.000
49
0.500
49
-2.500
0
ENDTAB
0
TABLE
2
STYLE
70
1
0
STYLE
5
1fd
100
AcDbSymbolTableRecord
100
AcDbTextStyleTableRecord
2
STANDARD
70
0
40
0.0
41
1.0
50
0.0
71
0
42
0.0
3
txt.shx
4
extfont.shx
0
STYLE
5
1fe
100
AcDbSymbolTableRecord
100
AcDbTextStyleTableRecord
2
TATEGAKI
70
4
40
0.0
41
1.0
50
0.0
71
0
42
0.0
3
txt.shx
4
extfont.shx
0
STYLE
5
1ff
100
AcDbSymbolTableRecord
100
AcDbTextStyleTableRecord
2
DIM
70
0
40
0.0
41
0.75
50
0.0
71
0
42
0.0
3
txt.shx
4
extfont.shx
0
STYLE
5
200
100
AcDbSymbolTableRecord
100
AcDbTextStyleTableRecord
2
_Gothic_
70
0
40
0.0
41
1.0
50
0.0
71
0
42
0.0
3
MS Gothic
4

0
STYLE
5
201
100
AcDbSymbolTableRecord
100
AcDbTextStyleTableRecord
2
_TateGothic_
70
4
40
0.0
41
1.0
50
0.0
71
0
42
0.0
3
@MS Gothic
4

0
ENDTAB
0
TABLE
2
LAYER
5
403
100
AcDbSymbolTable
70
10
0
LAYER
5
404
100
AcDbSymbolTableRecord
100
AcDbLayerTableRecord
2
1-0
70
0
62
7
6
CONTINUOUS
0
LAYER
5
405
100
AcDbSymbolTableRecord
100
AcDbLayerTableRecord
2
2-0
70
0
62
-7
6
CONTINUOUS
0
ENDTAB
0
ENDSEC
0
SECTION
2
ENTITIES
0
LINE
5
406
100
AcDbEntity
8
1-0
6
CONTINUOUS
62
4
100
AcDbLine
10
74586.279999999999
20
6898.450000000000
30
0.0
11
74586.279999999999
21
3533.870000000000
31
0.0
0
LINE
5
407
100
AcDbEntity
8
1-0
6
CONTINUOUS
62
4
100
AcDbLine
10
73034.210000000006
20
3533.870000000000
30
0.0
11
80315.449999999997
21
3533.870000000000
31
0.0
0
LINE
5
408
100
AcDbEntity
8
1-0
6
CONTINUOUS
62
4
100
AcDbLine
10
73034.210000000006
20
6898.450000000000
30
0.0
11
80315.449999999997
21
6898.450000000000
31
0.0
0
LINE
5
409
100
AcDbEntity
8
1-0
6
CONTINUOUS
62
4
100
AcDbLine
10
73034.210000000006
20
6335.950000000000
30
0.0
11
80315.449999999997
21
6335.950000000000
31
0.0
0
LINE
5
40a
100
AcDbEntity
8
1-0
6
CONTINUOUS
62
4
100
AcDbLine
10
73034.210000000006
20
4658.870000000000
30
0.0
11
80315.449999999997
21
4658.870000000000
31
0.0
0
LINE
5
40b
100
AcDbEntity
8
1-0
6
CONTINUOUS
62
4
100
AcDbLine
10
73034.210000000006
20
4096.370000000000
30
0.0
11
80315.449999999997
21
4096.370000000000
31
0.0
0
LINE
5
40c
100
AcDbEntity
8
1-0
6
CONTINUOUS
62
4
100
AcDbLine
10
76544.610000000001
20
5773.450000000000
30
0.0
11
76544.610000000001
21
5221.370000000000
31
0.0
0
LINE
5
40d
100
AcDbEntity
8
1-0
6
CONTINUOUS
62
4
100
AcDbLine
10
78430.039999999994
20
5773.450000000000
30
0.0
11
78430.039999999994
21
5221.370000000000
31
0.0
0
LINE
5
40e
100
AcDbEntity
8
1-0
6
CONTINUOUS
62
4
100
AcDbLine
10
73034.210000000006
20
5773.450000000000
30
0.0
11
80315.449999999997
21
5773.450000000000
31
0.0
0
LINE
5
40f
100
AcDbEntity
8
1-0
6
CONTINUOUS
62
4
100
AcDbLine
10
73034.210000000006
20
5221.370000000000
30
0.0
11
80315.449999999997
21
5221.370000000000
31
0.0
0
LINE
5
410
100
AcDbEntity
8
1-0
6
CONTINUOUS
62
4
100
AcDbLine
10
73034.210000000006
20
6898.450000000000
30
0.0
11
73034.210000000006
21
3533.870000000000
31
0.0
0
LINE
5
411
100
AcDbEntity
8
1-0
6
CONTINUOUS
62
4
100
AcDbLine
10
80315.449999999997
20
6898.450000000000
30
0.0
11
80315.449999999997
21
3533.870000000000
31
0.0
0
LINE
5
412
100
AcDbEntity
8
1-0
6
CONTINUOUS
62
4
100
AcDbLine
10
14591.580000000000
20
46064.980000000003
30
0.0
11
14591.580000000000
21
46126.330000000002
31
0.0
0
LINE
5
413
100
AcDbEntity
8
1-0
6
CONTINUOUS
62
4
100
AcDbLine
10
16191.580000000000
20
46064.980000000003
30
0.0
11
16191.580000000000
21
46145.699999999997
31
0.0
0
LINE
5
414
100
AcDbEntity
8
1-0
6
CONTINUOUS
62
4
100
AcDbLine
10
15191.580000000000
20
46064.980000000003
30
0.0
11
15191.580000000000
21
46145.699999999997
31
0.0
0
LINE
5
415
100
AcDbEntity
8
1-0
6
CONTINUOUS
62
3
100
AcDbLine
10
5839.210000000000
20
45493.430000000000
30
0.0
11
5712.520000000000
21
47158.730000000003
31
0.0
0
LINE
5
416
100
AcDbEntity
8
1-0
6
CONTINUOUS
62
4
100
AcDbLine
10
5839.210000000000
20
53557.419999999998
30
0.0
11
5839.210000000000
21
44597.430000000000
31
0.0
0
LINE
5
417
100
AcDbEntity
8
1-0
6
CONTINUOUS
62
4
100
AcDbLine
10
5839.210000000000
20
50869.430000000000
30
0.0
11
5712.520000000000
21
47412.129999999997
31
0.0
0
LINE
5
418
100
AcDbEntity
8
1-0
6
CONTINUOUS
62
4
100
AcDbLine
10
6345.990000000000
20
46778.650000000001
30
0.0
11
6109.090000000000
21
47173.610000000001
31
0.0
0
LINE
5
419
100
AcDbEntity
8
1-0
6
CONTINUOUS
62
3
100
AcDbLine
10
5660.010000000000
20
54095.029999999999
30
0.0
11
5660.010000000000
21
54632.629999999997
31
0.0
0
LINE
5
41a
100
AcDbEntity
8
1-0
6
CONTINUOUS
62
4
100
AcDbLine
10
5332.430000000000
20
46778.650000000001
30
0.0
11
5723.620000000000
21
47013.220000000001
31
0.0
0
LINE
5
41b
100
AcDbEntity
8
1-0
6
CONTINUOUS
62
3
100
AcDbLine
10
5332.430000000000
20
47792.199999999997
30
0.0
11
5717.890000000000
21
47560.849999999999
31
0.0
0
LINE
5
41c
100
AcDbEntity
8
1-0
6
CONTINUOUS
62
4
100
AcDbLine
10
5839.210000000000
20
45493.430000000000
30
0.0
11
5965.900000000000
21
47158.730000000003
31
0.0
0
LINE
5
41d
100
AcDbEntity
8
1-0
6
CONTINUOUS
62
3
100
AcDbLine
10
5928.810000000000
20
52661.419999999998
30
0.0
11
5749.610000000000
21
52303.029999999999
31
0.0
0
LINE
5
41e
100
AcDbEntity
8
1-0
6
CONTINUOUS
62
3
100
AcDbLine
10
5660.010000000000
20
54632.629999999997
30
0.0
11
6018.410000000000
21
54095.019999999997
31
0.0
0
LINE
5
41f
100
AcDbEntity
8
1-0
6
CONTINUOUS
62
3
100
AcDbLine
10
6345.990000000000
20
47792.199999999997
30
0.0
11
6109.080000000000
21
47397.250000000000
31
0.0
0
LINE
5
420
100
AcDbEntity
8
1-0
6
CONTINUOUS
62
4
100
AcDbLine
10
4495.210000000000
20
47285.430000000000
30
0.0
11
5712.520000000000
21
47158.730000000003
31
0.0
0
LINE
5
421
100
AcDbEntity
8
1-0
6
CONTINUOUS
62
3
100
AcDbLine
10
4495.210000000000
20
47285.430000000000
30
0.0
11
5712.520000000000
21
47412.129999999997
31
0.0
0
LINE
5
422
100
AcDbEntity
8
1-0
6
CONTINUOUS
62
4
100
AcDbLine
10
4047.210000000000
20
47285.430000000000
30
0.0
11
7631.210000000000
21
47285.430000000000
31
0.0
0
LINE
5
423
100
AcDbEntity
8
1-0
6
CONTINUOUS
62
3
100
AcDbLine
10
6345.990000000000
20
46778.650000000001
30
0.0
11
5954.800000000000
21
47013.220000000001
31
0.0
0
LINE
5
424
100
AcDbEntity
8
1-0
6
CONTINUOUS
62
3
100
AcDbLine
10
5839.210000000000
20
50869.430000000000
30
0.0
11
5965.900000000000
21
47412.129999999997
31
0.0
0
LINE
5
425
100
AcDbEntity
8
1-0
6
CONTINUOUS
62
4
100
AcDbLine
10
6472.870000000000
20
47919.080000000002
30
0.0
11
5205.550000000000
21
46651.769999999997
31
0.0
0
LINE
5
426
100
AcDbEntity
8
1-0
6
CONTINUOUS
62
3
100
AcDbLine
10
7183.210000000000
20
47285.430000000000
30
0.0
11
5965.900000000000
21
47158.730000000003
31
0.0
0
LINE
5
427
100
AcDbEntity
8
1-0
6
CONTINUOUS
62
3
100
AcDbLine
10
6018.410000000000
20
54095.019999999997
30
0.0
11
6018.410000000000
21
54632.629999999997
31
0.0
0
LINE
5
428
100
AcDbEntity
8
1-0
6
CONTINUOUS
62
4
100
AcDbLine
10
5839.210000000000
20
53557.419999999998
30
0.0
11
5749.600000000000
21
52661.419999999998
31
0.0
0
LINE
5
429
100
AcDbEntity
8
1-0
6
CONTINUOUS
62
4
100
AcDbLine
10
5332.430000000000
20
47792.199999999997
30
0.0
11
5569.330000000000
21
47397.250000000000
31
0.0
0
LINE
5
42a
100
AcDbEntity
8
1-0
6
CONTINUOUS
62
4
100
AcDbLine
10
13691.570000000000
20
46124.980000000003
30
0.0
11
18691.580000000002
21
46124.980000000003
31
0.0
0
LINE
5
42b
100
AcDbEntity
8
1-0
6
CONTINUOUS
62
4
100
AcDbLine
10
13691.570000000000
20
46064.980000000003
30
0.0
11
13691.570000000000
21
46164.980000000003
31
0.0
0
LINE
5
42c
100
AcDbEntity
8
1-0
6
CONTINUOUS
62
3
100
AcDbLine
10
5839.210000000000
20
53557.419999999998
30
0.0
11
5928.810000000000
21
52661.419999999998
31
0.0
0
LINE
5
42d
100
AcDbEntity
8
1-0
6
CONTINUOUS
62
4
100
AcDbLine
10
17691.570000000000
20
46064.980000000003
30
0.0
11
17691.570000000000
21
46164.980000000003
31
0.0
0
LINE
5
42e
100
AcDbEntity
8
1-0
6
CONTINUOUS
62
4
100
AcDbLine
10
18691.580000000002
20
46064.980000000003
30
0.0
11
18691.580000000002
21
46164.980000000003
31
0.0
0
LINE
5
42f
100
AcDbEntity
8
1-0
6
CONTINUOUS
62
4
100
AcDbLine
10
14091.580000000000
20
46064.980000000003
30
0.0
11
14091.580000000000
21
46123.099999999999
31
0.0
0
LINE
5
430
100
AcDbEntity
8
1-0
6
CONTINUOUS
62
4
100
AcDbLine
10
16691.580000000002
20
46064.980000000003
30
0.0
11
16691.580000000002
21
46164.980000000003
31
0.0
0
LINE
5
431
100
AcDbEntity
8
1-0
6
CONTINUOUS
62
4
100
AcDbLine
10
16191.580000000000
20
46064.980000000003
30
0.0
11
16191.580000000000
21
46145.699999999997
31
0.0
0
LINE
5
432
100
AcDbEntity
8
1-0
6
CONTINUOUS
62
4
100
AcDbLine
10
14391.580000000000
20
46064.980000000003
30
0.0
11
14391.580000000000
21
46123.099999999999
31
0.0
0
LINE
5
433
100
AcDbEntity
8
1-0
6
CONTINUOUS
62
4
100
AcDbLine
10
14191.580000000000
20
46064.980000000003
30
0.0
11
14191.580000000000
21
46145.699999999997
31
0.0
0
LINE
5
434
100
AcDbEntity
8
1-0
6
CONTINUOUS
62
4
100
AcDbLine
10
16191.580000000000
20
46064.980000000003
30
0.0
11
16191.580000000000
21
46145.699999999997
31
0.0
0
LINE
5
435
100
AcDbEntity
8
1-0
6
CONTINUOUS
62
4
100
AcDbLine
10
18191.570000000000
20
46064.980000000003
30
0.0
11
18191.570000000000
21
46145.699999999997
31
0.0
0
LINE
5
436
100
AcDbEntity
8
1-0
6
CONTINUOUS
62
4
100
AcDbLine
10
5749.600000000000
20
52661.419999999998
30
0.0
11
5928.810000000000
21
52303.029999999999
31
0.0
0
LINE
5
437
100
AcDbEntity
8
1-0
6
CONTINUOUS
62
4
100
AcDbLine
10
14491.570000000000
20
46064.980000000003
30
0.0
11
14491.570000000000
21
46124.720000000001
31
0.0
0
LINE
5
438
100
AcDbEntity
8
1-0
6
CONTINUOUS
62
4
100
AcDbLine
10
13891.580000000000
20
46064.980000000003
30
0.0
11
13891.580000000000
21
46123.099999999999
31
0.0
0
LINE
5
439
100
AcDbEntity
8
1-0
6
CONTINUOUS
62
3
100
AcDbLine
10
5749.610000000000
20
52303.029999999999
30
0.0
11
5839.210000000000
21
51944.629999999997
31
0.0
0
LINE
5
43a
100
AcDbEntity
8
1-0
6
CONTINUOUS
62
3
100
AcDbLine
10
5332.430000000000
20
46778.650000000001
30
0.0
11
5569.330000000000
21
47173.599999999999
31
0.0
0
LINE
5
43b
100
AcDbEntity
8
1-0
6
CONTINUOUS
62
4
100
AcDbLine
10
13991.580000000000
20
46064.980000000003
30
0.0
11
13991.580000000000
21
46124.720000000001
31
0.0
0
LINE
5
43c
100
AcDbEntity
8
1-0
6
CONTINUOUS
62
4
100
AcDbLine
10
6345.990000000000
20
47792.199999999997
30
0.0
11
5960.530000000000
21
47560.849999999999
31
0.0
0
LINE
5
43d
100
AcDbEntity
8
1-0
6
CONTINUOUS
62
4
100
AcDbLine
10
5205.560000000000
20
47919.080000000002
30
0.0
11
6472.870000000000
21
46651.779999999999
31
0.0
0
LINE
5
43e
100
AcDbEntity
8
1-0
6
CONTINUOUS
62
4
100
AcDbLine
10
5928.810000000000
20
52303.029999999999
30
0.0
11
5839.210000000000
21
51944.629999999997
31
0.0
0
LINE
5
43f
100
AcDbEntity
8
1-0
6
CONTINUOUS
62
4
100
AcDbLine
10
7183.210000000000
20
47285.430000000000
30
0.0
11
5965.900000000000
21
47412.129999999997
31
0.0
0
LINE
5
440
100
AcDbEntity
8
1-0
6
CONTINUOUS
62
4
100
AcDbLine
10
14691.580000000000
20
46064.980000000003
30
0.0
11
14691.580000000000
21
46164.980000000003
31
0.0
0
LINE
5
441
100
AcDbEntity
8
1-0
6
CONTINUOUS
62
4
100
AcDbLine
10
15691.580000000000
20
46064.980000000003
30
0.0
11
15691.580000000000
21
46164.980000000003
31
0.0
0
LINE
5
442
100
AcDbEntity
8
1-0
6
CONTINUOUS
62
4
100
AcDbLine
10
17191.580000000002
20
46064.980000000003
30
0.0
11
17191.580000000002
21
46145.699999999997
31
0.0
0
LINE
5
443
100
AcDbEntity
8
1-0
6
CONTINUOUS
62
4
100
AcDbLine
10
16191.580000000000
20
46064.980000000003
30
0.0
11
16191.580000000000
21
46145.699999999997
31
0.0
0
LINE
5
444
100
AcDbEntity
8
1-0
6
CONTINUOUS
62
4
100
AcDbLine
10
16691.580000000002
20
46064.980000000003
30
0.0
11
16691.580000000002
21
46164.980000000003
31
0.0
0
LINE
5
445
100
AcDbEntity
8
1-0
6
CONTINUOUS
62
4
100
AcDbLine
10
14291.580000000000
20
46064.980000000003
30
0.0
11
14291.580000000000
21
46121.489999999998
31
0.0
0
LINE
5
446
100
AcDbEntity
8
1-0
6
CONTINUOUS
62
4
100
AcDbLine
10
13691.570000000000
20
46064.980000000003
30
0.0
11
18691.580000000002
21
46064.980000000003
31
0.0
0
LINE
5
447
100
AcDbEntity
8
1-0
6
CONTINUOUS
62
4
100
AcDbLine
10
13791.580000000000
20
46064.980000000003
30
0.0
11
13791.580000000000
21
46123.099999999999
31
0.0
0
LINE
5
448
100
AcDbEntity
8
1-0
6
CONTINUOUS
62
4
100
AcDbLine
10
1922.100000000000
20
41945.269999999997
30
0.0
11
2976.130000000000
21
41371.669999999998
31
0.0
0
LINE
5
449
100
AcDbEntity
8
1-0
6
CONTINUOUS
62
4
100
AcDbLine
10
4571.340000000000
20
40845.129999999997
30
0.0
11
4703.090000000000
21
40773.430000000000
31
0.0
0
LINE
5
44a
100
AcDbEntity
8
1-0
6
CONTINUOUS
62
4
100
AcDbLine
10
6665.220000000000
20
39705.660000000003
30
0.0
11
6975.320000000000
21
40275.540000000001
31
0.0
0
LINE
5
44b
100
AcDbEntity
8
1-0
6
CONTINUOUS
62
4
100
AcDbLine
10
10629.309999999999
20
37263.820000000000
30
0.0
11
12034.690000000001
21
36499.019999999997
31
0.0
0
LINE
5
44c
100
AcDbEntity
8
1-0
6
CONTINUOUS
62
4
100
AcDbLine
10
4637.220000000000
20
40809.279999999999
30
0.0
11
4852.300000000000
21
41204.540000000001
31
0.0
0
LINE
5
44d
100
AcDbEntity
8
1-0
6
CONTINUOUS
62
4
100
AcDbLine
10
15087.629999999999
20
35463.809999999998
30
0.0
11
15517.049999999999
21
36252.910000000003
31
0.0
0
LINE
5
44e
100
AcDbEntity
8
1-0
6
CONTINUOUS
62
4
100
AcDbLine
10
14999.799999999999
20
35511.610000000001
30
0.0
11
15175.469999999999
21
35416.010000000002
31
0.0
0
LINE
5
44f
100
AcDbEntity
8
1-0
6
CONTINUOUS
62
4
100
AcDbLine
10
4367.880000000000
20
40785.070000000000
30
0.0
11
4763.150000000000
21
40569.980000000003
31
0.0
0
LINE
5
450
100
AcDbEntity
8
1-0
6
CONTINUOUS
62
3
100
AcDbLine
10
4811.210000000000
20
25857.889999999999
30
0.0
11
6657.130000000000
21
32525.509999999998
31
0.0
0
LINE
5
451
100
AcDbEntity
8
1-0
6
CONTINUOUS
62
4
100
AcDbLine
10
2592.520000000000
20
41921.980000000003
30
0.0
11
2757.780000000000
21
42225.650000000001
31
0.0
0
LINE
5
452
100
AcDbEntity
8
1-0
6
CONTINUOUS
62
4
100
AcDbLine
10
5994.790000000000
20
39728.949999999997
30
0.0
11
7048.820000000000
21
39155.360000000001
31
0.0
0
LINE
5
453
100
AcDbEntity
8
1-0
6
CONTINUOUS
62
4
100
AcDbLine
10
11164.090000000000
20
37200.489999999998
30
0.0
11
11691.110000000001
21
36913.690000000002
31
0.0
0
LINE
5
454
100
AcDbEntity
8
1-0
6
CONTINUOUS
62
4
100
AcDbLine
10
2526.650000000000
20
41957.830000000002
30
0.0
11
2658.400000000000
21
41886.129999999997
31
0.0
0
LINE
5
455
100
AcDbEntity
8
1-0
6
CONTINUOUS
62
4
100
AcDbLine
10
6599.340000000000
20
39741.519999999997
30
0.0
11
6731.090000000000
21
39669.809999999998
31
0.0
0
LINE
5
456
100
AcDbEntity
8
1-0
6
CONTINUOUS
62
4
100
AcDbLine
10
6395.880000000000
20
39681.459999999999
30
0.0
11
6791.150000000000
21
39466.360000000001
31
0.0
0
LINE
5
457
100
AcDbEntity
8
1-0
6
CONTINUOUS
62
4
100
AcDbLine
10
14145.940000000001
20
35407.029999999999
30
0.0
11
15551.320000000000
21
34642.239999999998
31
0.0
0
LINE
5
458
100
AcDbEntity
8
1-0
6
CONTINUOUS
62
4
100
AcDbLine
10
3966.790000000000
20
40832.570000000000
30
0.0
11
5020.820000000000
21
40258.970000000001
31
0.0
0
LINE
5
459
100
AcDbEntity
8
1-0
6
CONTINUOUS
62
4
100
AcDbLine
10
8403.799999999999
20
15585.450000000001
30
0.0
11
8533.530000000001
21
16117.209999999999
31
0.0
0
LINE
5
45a
100
AcDbEntity
8
1-0
6
CONTINUOUS
62
4
100
AcDbLine
10
1146.850000000000
20
17356.020000000000
30
0.0
11
1297.750000000000
21
17974.560000000001
31
0.0
0
LINE
5
45b
100
AcDbEntity
8
1-0
6
CONTINUOUS
62
4
100
AcDbLine
10
1049.690000000000
20
17379.709999999999
30
0.0
11
1244.000000000000
21
17332.310000000001
31
0.0
0
LINE
5
45c
100
AcDbEntity
8
1-0
6
CONTINUOUS
62
4
100
AcDbLine
10
9745.110000000001
20
15142.389999999999
30
0.0
11
10328.010000000000
21
15000.180000000000
31
0.0
0
LINE
5
45d
100
AcDbEntity
8
1-0
6
CONTINUOUS
62
4
100
AcDbLine
10
2908.690000000000
20
16810.360000000001
30
0.0
11
3491.590000000000
21
16668.139999999999
31
0.0
0
LINE
5
45e
100
AcDbEntity
8
1-0
6
CONTINUOUS
62
4
100
AcDbLine
10
6684.840000000000
20
16004.850000000000
30
0.0
11
6879.140000000000
21
15957.440000000001
31
0.0
0
LINE
5
45f
100
AcDbEntity
8
1-0
6
CONTINUOUS
62
3
100
AcDbLine
10
13611.170000000000
20
13947.450000000001
30
0.0
11
14781.240000000000
21
15117.520000000000
31
0.0
0
LINE
5
460
100
AcDbEntity
8
1-0
6
CONTINUOUS
62
4
100
AcDbLine
10
11574.440000000001
20
14811.870000000001
30
0.0
11
11693.340000000000
21
15299.209999999999
31
0.0
0
LINE
5
461
100
AcDbEntity
8
1-0
6
CONTINUOUS
62
4
100
AcDbLine
10
4628.840000000000
20
16390.669999999998
30
0.0
11
5211.740000000000
21
16248.459999999999
31
0.0
0
LINE
5
462
100
AcDbEntity
8
1-0
6
CONTINUOUS
62
3
100
AcDbLine
10
1410.620000000000
20
42052.839999999997
30
0.0
11
17489.599999999999
21
33302.820000000000
31
0.0
0
LINE
5
463
100
AcDbEntity
8
1-0
6
CONTINUOUS
62
4
100
AcDbLine
10
11435.360000000001
20
37280.570000000000
30
0.0
11
11611.030000000001
21
37184.970000000001
31
0.0
0
LINE
5
464
100
AcDbEntity
8
1-0
6
CONTINUOUS
62
4
100
AcDbLine
10
14704.610000000001
20
35387.620000000003
30
0.0
11
15231.639999999999
21
35100.820000000000
31
0.0
0
LINE
5
465
100
AcDbEntity
8
1-0
6
CONTINUOUS
62
4
100
AcDbLine
10
8850.469999999999
20
38687.250000000000
30
0.0
11
9026.150000000000
21
38591.639999999999
31
0.0
0
LINE
5
466
100
AcDbEntity
8
1-0
6
CONTINUOUS
62
3
100
AcDbLine
10
18618.139999999999
20
34963.730000000003
30
0.0
11
29812.570000000000
21
32902.339999999997
31
0.0
0
LINE
5
467
100
AcDbEntity
8
1-0
6
CONTINUOUS
62
3
100
AcDbLine
10
2040.080000000000
20
42693.349999999999
30
0.0
11
18618.139999999999
21
34963.730000000003
31
0.0
0
LINE
5
468
100
AcDbEntity
8
1-0
6
CONTINUOUS
62
4
100
AcDbLine
10
8579.200000000001
20
38607.169999999998
30
0.0
11
9106.230000000000
21
38320.370000000003
31
0.0
0
LINE
5
469
100
AcDbEntity
8
1-0
6
CONTINUOUS
62
4
100
AcDbLine
10
2323.190000000000
20
41897.769999999997
30
0.0
11
2718.450000000000
21
41682.680000000000
31
0.0
0
LINE
5
46a
100
AcDbEntity
8
1-0
6
CONTINUOUS
62
4
100
AcDbLine
10
8044.430000000000
20
38670.500000000000
30
0.0
11
9449.810000000000
21
37905.699999999997
31
0.0
0
LINE
5
46b
100
AcDbEntity
8
1-0
6
CONTINUOUS
62
4
100
AcDbLine
10
11523.200000000001
20
37232.769999999997
30
0.0
11
11929.969999999999
21
37980.269999999997
31
0.0
0
LINE
5
46c
100
AcDbEntity
8
1-0
6
CONTINUOUS
62
3
100
AcDbLine
10
581.830000000000
20
27028.790000000001
30
0.0
11
4811.210000000000
21
25857.889999999999
31
0.0
0
LINE
5
46d
100
AcDbEntity
8
1-0
6
CONTINUOUS
62
3
100
AcDbLine
10
6657.130000000000
20
32525.509999999998
30
0.0
11
701.290000000000
21
34174.389999999999
31
0.0
0
LINE
5
46e
100
AcDbEntity
8
1-0
6
CONTINUOUS
62
4
100
AcDbLine
10
8938.320000000000
20
38639.440000000002
30
0.0
11
9225.110000000001
21
39166.459999999999
31
0.0
0
LINE
5
46f
100
AcDbEntity
8
1-0
6
CONTINUOUS
62
4
100
AcDbLine
10
31735.220000000001
20
30887.049999999999
30
0.0
11
34021.129999999997
21
30907.000000000000
31
0.0
0
LINE
5
470
100
AcDbEntity
8
1-0
6
CONTINUOUS
62
4
100
AcDbLine
10
6305.290000000000
20
23831.689999999999
30
0.0
11
6498.160000000000
21
23535.380000000001
31
0.0
0
LINE
5
471
100
AcDbEntity
8
1-0
6
CONTINUOUS
62
4
100
AcDbLine
10
5275.200000000000
20
23793.990000000002
30
0.0
11
5571.530000000000
21
23986.860000000001
31
0.0
0
LINE
5
472
100
AcDbEntity
8
1-0
6
CONTINUOUS
62
4
100
AcDbLine
10
5326.930000000000
20
24038.580000000002
30
0.0
11
5519.800000000000
21
23742.270000000000
31
0.0
0
LINE
5
473
100
AcDbEntity
8
1-0
6
CONTINUOUS
62
4
100
AcDbLine
10
3310.300000000000
20
24533.660000000000
30
0.0
11
3484.540000000000
21
24226.020000000000
31
0.0
0
LINE
5
474
100
AcDbEntity
8
1-0
6
CONTINUOUS
62
4
100
AcDbLine
10
2279.860000000000
20
24559.540000000001
30
0.0
11
2587.490000000000
21
24733.770000000000
31
0.0
0
LINE
5
475
100
AcDbEntity
8
1-0
6
CONTINUOUS
62
4
100
AcDbLine
10
2346.550000000000
20
24800.470000000001
30
0.0
11
2520.790000000000
21
24492.830000000002
31
0.0
0
LINE
5
476
100
AcDbEntity
8
1-0
6
CONTINUOUS
62
4
100
AcDbLine
10
4207.350000000000
20
24025.910000000000
30
0.0
11
4514.990000000000
21
24200.150000000001
31
0.0
0
LINE
5
477
100
AcDbEntity
8
1-0
6
CONTINUOUS
62
4
100
AcDbLine
10
4274.060000000000
20
24266.849999999999
30
0.0
11
4448.280000000000
21
23959.209999999999
31
0.0
0
LINE
5
478
100
AcDbEntity
8
1-0
6
CONTINUOUS
62
4
100
AcDbLine
10
3243.600000000000
20
24292.730000000000
30
0.0
11
3551.230000000000
21
24466.959999999999
31
0.0
0
LINE
5
479
100
AcDbEntity
8
1-0
6
CONTINUOUS
62
4
100
AcDbLine
10
11089.930000000000
20
22819.930000000000
30
0.0
11
11282.799999999999
21
22523.619999999999
31
0.0
0
LINE
5
47a
100
AcDbEntity
8
1-0
6
CONTINUOUS
62
4
100
AcDbLine
10
10167.030000000001
20
22759.560000000001
30
0.0
11
10463.340000000000
21
22952.430000000000
31
0.0
0
LINE
5
47b
100
AcDbEntity
8
1-0
6
CONTINUOUS
62
4
100
AcDbLine
10
10218.760000000000
20
23004.150000000001
30
0.0
11
10411.629999999999
21
22707.840000000000
31
0.0
0
LINE
5
47c
100
AcDbEntity
8
1-0
6
CONTINUOUS
62
4
100
AcDbLine
10
12016.580000000000
20
22368.459999999999
30
0.0
11
12312.889999999999
21
22561.330000000002
31
0.0
0
LINE
5
47d
100
AcDbEntity
8
1-0
6
CONTINUOUS
62
4
100
AcDbLine
10
12068.290000000001
20
22613.049999999999
30
0.0
11
12261.160000000000
21
22316.740000000002
31
0.0
0
LINE
5
47e
100
AcDbEntity
8
1-0
6
CONTINUOUS
62
4
100
AcDbLine
10
11038.200000000001
20
22575.340000000000
30
0.0
11
11334.530000000001
21
22768.209999999999
31
0.0
0
LINE
5
47f
100
AcDbEntity
8
1-0
6
CONTINUOUS
62
4
100
AcDbLine
10
9188.670000000000
20
22966.439999999999
30
0.0
11
9484.980000000000
21
23159.320000000000
31
0.0
0
LINE
5
480
100
AcDbEntity
8
1-0
6
CONTINUOUS
62
4
100
AcDbLine
10
7231.940000000000
20
23380.220000000001
30
0.0
11
7528.250000000000
21
23573.090000000000
31
0.0
0
LINE
5
481
100
AcDbEntity
8
1-0
6
CONTINUOUS
62
4
100
AcDbLine
10
7283.660000000000
20
23624.810000000001
30
0.0
11
7476.530000000000
21
23328.490000000002
31
0.0
0
LINE
5
482
100
AcDbEntity
8
1-0
6
CONTINUOUS
62
4
100
AcDbLine
10
6253.580000000000
20
23587.099999999999
30
0.0
11
6549.890000000000
21
23779.970000000001
31
0.0
0
LINE
5
483
100
AcDbEntity
8
1-0
6
CONTINUOUS
62
4
100
AcDbLine
10
9240.400000000000
20
23211.040000000001
30
0.0
11
9433.270000000000
21
22914.720000000001
31
0.0
0
LINE
5
484
100
AcDbEntity
8
1-0
6
CONTINUOUS
62
4
100
AcDbLine
10
8210.310000000000
20
23173.330000000002
30
0.0
11
8506.620000000001
21
23366.200000000001
31
0.0
0
LINE
5
485
100
AcDbEntity
8
1-0
6
CONTINUOUS
62
4
100
AcDbLine
10
8262.020000000000
20
23417.919999999998
30
0.0
11
8454.889999999999
21
23121.610000000001
31
0.0
0
LINE
5
486
100
AcDbEntity
8
1-0
6
CONTINUOUS
62
4
100
AcDbLine
10
1316.100000000000
20
24826.349999999999
30
0.0
11
1623.740000000000
21
25000.580000000002
31
0.0
0
LINE
5
487
100
AcDbEntity
8
1-0
6
CONTINUOUS
62
4
100
AcDbLine
10
1382.810000000000
20
25067.290000000001
30
0.0
11
1557.050000000000
21
24759.650000000001
31
0.0
0
LINE
5
488
100
AcDbEntity
8
1-0
6
CONTINUOUS
62
4
100
AcDbLine
10
31308.830000000002
20
18565.840000000000
30
0.0
11
31556.650000000001
21
18818.009999999998
31
0.0
0
LINE
5
489
100
AcDbEntity
8
1-0
6
CONTINUOUS
62
4
100
AcDbLine
10
31306.650000000001
20
18815.830000000002
30
0.0
11
31558.830000000002
21
18568.020000000000
31
0.0
0
LINE
5
48a
100
AcDbEntity
8
1-0
6
CONTINUOUS
62
4
100
AcDbLine
10
30308.880000000001
20
18557.110000000001
30
0.0
11
30556.680000000000
21
18809.279999999999
31
0.0
0
LINE
5
48b
100
AcDbEntity
8
1-0
6
CONTINUOUS
62
4
100
AcDbLine
10
33306.570000000000
20
18833.279999999999
30
0.0
11
33558.750000000000
21
18585.470000000001
31
0.0
0
LINE
5
48c
100
AcDbEntity
8
1-0
6
CONTINUOUS
62
4
100
AcDbLine
10
32308.799999999999
20
18574.560000000001
30
0.0
11
32556.599999999999
21
18826.730000000000
31
0.0
0
LINE
5
48d
100
AcDbEntity
8
1-0
6
CONTINUOUS
62
4
100
AcDbLine
10
32306.619999999999
20
18824.549999999999
30
0.0
11
32558.779999999999
21
18576.740000000002
31
0.0
0
LINE
5
48e
100
AcDbEntity
8
1-0
6
CONTINUOUS
62
4
100
AcDbLine
10
30306.700000000001
20
18807.099999999999
30
0.0
11
30558.860000000001
21
18559.290000000001
31
0.0
0
LINE
5
48f
100
AcDbEntity
8
1-0
6
CONTINUOUS
62
4
100
AcDbLine
10
26832.830000000002
20
19490.939999999999
30
0.0
11
27025.700000000001
21
19194.630000000001
31
0.0
0
LINE
5
490
100
AcDbEntity
8
1-0
6
CONTINUOUS
62
4
100
AcDbLine
10
25802.740000000002
20
19453.230000000000
30
0.0
11
26099.049999999999
21
19646.110000000001
31
0.0
0
LINE
5
491
100
AcDbEntity
8
1-0
6
CONTINUOUS
62
4
100
AcDbLine
10
25854.459999999999
20
19697.830000000002
30
0.0
11
26047.330000000002
21
19401.520000000000
31
0.0
0
LINE
5
492
100
AcDbEntity
8
1-0
6
CONTINUOUS
62
4
100
AcDbLine
10
27759.470000000001
20
19039.459999999999
30
0.0
11
28055.779999999999
21
19232.330000000002
31
0.0
0
LINE
5
493
100
AcDbEntity
8
1-0
6
CONTINUOUS
62
4
100
AcDbLine
10
27811.200000000001
20
19284.060000000001
30
0.0
11
28004.070000000000
21
18987.740000000002
31
0.0
0
LINE
5
494
100
AcDbEntity
8
1-0
6
CONTINUOUS
62
4
100
AcDbLine
10
26781.110000000001
20
19246.349999999999
30
0.0
11
27077.419999999998
21
19439.220000000001
31
0.0
0
LINE
5
495
100
AcDbEntity
8
1-0
6
CONTINUOUS
62
4
100
AcDbLine
10
35978.620000000003
20
19423.020000000000
30
0.0
11
35656.320000000000
21
19568.360000000001
31
0.0
0
LINE
5
496
100
AcDbEntity
8
1-0
6
CONTINUOUS
62
4
100
AcDbLine
10
35002.129999999997
20
19053.540000000001
30
0.0
11
35147.480000000003
21
19375.840000000000
31
0.0
0
LINE
5
497
100
AcDbEntity
8
1-0
6
CONTINUOUS
62
4
100
AcDbLine
10
34913.660000000003
20
19287.369999999999
30
0.0
11
35235.959999999999
21
19142.020000000000
31
0.0
0
LINE
5
498
100
AcDbEntity
8
1-0
6
CONTINUOUS
62
3
100
AcDbLine
10
29812.570000000000
20
32902.339999999997
30
0.0
11
41242.129999999997
21
33002.080000000002
31
0.0
0
LINE
5
499
100
AcDbEntity
8
1-0
6
CONTINUOUS
62
4
100
AcDbLine
10
35890.150000000001
20
19656.840000000000
30
0.0
11
35744.790000000001
21
19334.540000000001
31
0.0
0
LINE
5
49a
100
AcDbEntity
8
1-0
6
CONTINUOUS
62
4
100
AcDbLine
10
34222.669999999998
20
18758.610000000001
30
0.0
11
34368.019999999997
21
19080.910000000000
31
0.0
0
LINE
5
49b
100
AcDbEntity
8
1-0
6
CONTINUOUS
62
4
100
AcDbLine
10
28543.250000000000
20
18873.720000000001
30
0.0
11
28839.580000000002
21
19066.590000000000
31
0.0
0
LINE
5
49c
100
AcDbEntity
8
1-0
6
CONTINUOUS
62
4
100
AcDbLine
10
28594.980000000000
20
19118.310000000001
30
0.0
11
28787.849999999999
21
18822.000000000000
31
0.0
0
LINE
5
49d
100
AcDbEntity
8
1-0
6
CONTINUOUS
62
4
100
AcDbLine
10
33308.760000000002
20
18583.279999999999
30
0.0
11
33556.570000000000
21
18835.459999999999
31
0.0
0
LINE
5
49e
100
AcDbEntity
8
1-0
6
CONTINUOUS
62
4
100
AcDbLine
10
34134.190000000002
20
18992.430000000000
30
0.0
11
34456.489999999998
21
18847.090000000000
31
0.0
0
LINE
5
49f
100
AcDbEntity
8
1-0
6
CONTINUOUS
62
4
100
AcDbLine
10
29301.860000000001
20
18713.310000000001
30
0.0
11
29598.180000000000
21
18906.180000000000
31
0.0
0
LINE
5
4a0
100
AcDbEntity
8
1-0
6
CONTINUOUS
62
4
100
AcDbLine
10
29353.580000000002
20
18957.900000000001
30
0.0
11
29546.459999999999
21
18661.590000000000
31
0.0
0
LINE
5
4a1
100
AcDbEntity
8
1-0
6
CONTINUOUS
62
4
100
AcDbLine
10
16933.650000000001
20
21328.689999999999
30
0.0
11
17229.970000000001
21
21521.560000000001
31
0.0
0
LINE
5
4a2
100
AcDbEntity
8
1-0
6
CONTINUOUS
62
4
100
AcDbLine
10
16985.380000000001
20
21573.279999999999
30
0.0
11
17178.250000000000
21
21276.970000000001
31
0.0
0
LINE
5
4a3
100
AcDbEntity
8
1-0
6
CONTINUOUS
62
4
100
AcDbLine
10
15930.030000000001
20
21540.919999999998
30
0.0
11
16226.340000000000
21
21733.790000000001
31
0.0
0
LINE
5
4a4
100
AcDbEntity
8
1-0
6
CONTINUOUS
62
4
100
AcDbLine
10
18942.099999999999
20
21159.509999999998
30
0.0
11
19134.970000000001
21
20863.200000000001
31
0.0
0
LINE
5
4a5
100
AcDbEntity
8
1-0
6
CONTINUOUS
62
4
100
AcDbLine
10
17912.029999999999
20
21121.799999999999
30
0.0
11
18208.340000000000
21
21314.669999999998
31
0.0
0
LINE
5
4a6
100
AcDbEntity
8
1-0
6
CONTINUOUS
62
4
100
AcDbLine
10
17963.740000000002
20
21366.400000000001
30
0.0
11
18156.610000000001
21
21070.080000000002
31
0.0
0
LINE
5
4a7
100
AcDbEntity
8
1-0
6
CONTINUOUS
62
4
100
AcDbLine
10
15981.760000000000
20
21785.509999999998
30
0.0
11
16174.629999999999
21
21489.200000000001
31
0.0
0
LINE
5
4a8
100
AcDbEntity
8
1-0
6
CONTINUOUS
62
4
100
AcDbLine
10
14025.020000000000
20
22199.279999999999
30
0.0
11
14217.889999999999
21
21902.970000000001
31
0.0
0
LINE
5
4a9
100
AcDbEntity
8
1-0
6
CONTINUOUS
62
4
100
AcDbLine
10
12994.940000000001
20
22161.580000000002
30
0.0
11
13291.250000000000
21
22354.439999999999
31
0.0
0
LINE
5
4aa
100
AcDbEntity
8
1-0
6
CONTINUOUS
62
4
100
AcDbLine
10
13046.660000000000
20
22406.169999999998
30
0.0
11
13239.530000000001
21
22109.849999999999
31
0.0
0
LINE
5
4ab
100
AcDbEntity
8
1-0
6
CONTINUOUS
62
4
100
AcDbLine
10
14951.670000000000
20
21747.799999999999
30
0.0
11
15247.980000000000
21
21940.669999999998
31
0.0
0
LINE
5
4ac
100
AcDbEntity
8
1-0
6
CONTINUOUS
62
4
100
AcDbLine
10
15003.400000000000
20
21992.389999999999
30
0.0
11
15196.270000000000
21
21696.080000000002
31
0.0
0
LINE
5
4ad
100
AcDbEntity
8
1-0
6
CONTINUOUS
62
4
100
AcDbLine
10
13973.309999999999
20
21954.689999999999
30
0.0
11
14269.620000000001
21
22147.560000000001
31
0.0
0
LINE
5
4ae
100
AcDbEntity
8
1-0
6
CONTINUOUS
62
4
100
AcDbLine
10
23897.730000000000
20
20111.599999999999
30
0.0
11
24090.599999999999
21
19815.279999999999
31
0.0
0
LINE
5
4af
100
AcDbEntity
8
1-0
6
CONTINUOUS
62
4
100
AcDbLine
10
22867.639999999999
20
20073.889999999999
30
0.0
11
23163.970000000001
21
20266.759999999998
31
0.0
0
LINE
5
4b0
100
AcDbEntity
8
1-0
6
CONTINUOUS
62
4
100
AcDbLine
10
22919.369999999999
20
20318.480000000000
30
0.0
11
23112.240000000002
21
20022.169999999998
31
0.0
0
LINE
5
4b1
100
AcDbEntity
8
1-0
6
CONTINUOUS
62
4
100
AcDbLine
10
24824.380000000001
20
19660.119999999999
30
0.0
11
25120.689999999999
21
19852.990000000002
31
0.0
0
LINE
5
4b2
100
AcDbEntity
8
1-0
6
CONTINUOUS
62
4
100
AcDbLine
10
24876.090000000000
20
19904.709999999999
30
0.0
11
25068.959999999999
21
19608.400000000001
31
0.0
0
LINE
5
4b3
100
AcDbEntity
8
1-0
6
CONTINUOUS
62
4
100
AcDbLine
10
23846.020000000000
20
19867.000000000000
30
0.0
11
24142.330000000002
21
20059.869999999999
31
0.0
0
LINE
5
4b4
100
AcDbEntity
8
1-0
6
CONTINUOUS
62
4
100
AcDbLine
10
21825.480000000000
20
20294.259999999998
30
0.0
11
22121.790000000001
21
20487.130000000001
31
0.0
0
LINE
5
4b5
100
AcDbEntity
8
1-0
6
CONTINUOUS
62
4
100
AcDbLine
10
19868.750000000000
20
20708.029999999999
30
0.0
11
20165.060000000001
21
20900.910000000000
31
0.0
0
LINE
5
4b6
100
AcDbEntity
8
1-0
6
CONTINUOUS
62
4
100
AcDbLine
10
19920.459999999999
20
20952.619999999999
30
0.0
11
20113.340000000000
21
20656.310000000001
31
0.0
0
LINE
5
4b7
100
AcDbEntity
8
1-0
6
CONTINUOUS
62
4
100
AcDbLine
10
18890.389999999999
20
20914.919999999998
30
0.0
11
19186.700000000001
21
21107.790000000001
31
0.0
0
LINE
5
4b8
100
AcDbEntity
8
1-0
6
CONTINUOUS
62
4
100
AcDbLine
10
21877.209999999999
20
20538.860000000001
30
0.0
11
22070.080000000002
21
20242.540000000001
31
0.0
0
LINE
5
4b9
100
AcDbEntity
8
1-0
6
CONTINUOUS
62
4
100
AcDbLine
10
20847.119999999999
20
20501.150000000001
30
0.0
11
21143.430000000000
21
20694.020000000000
31
0.0
0
LINE
5
4ba
100
AcDbEntity
8
1-0
6
CONTINUOUS
62
4
100
AcDbLine
10
20898.840000000000
20
20745.740000000002
30
0.0
11
21091.709999999999
21
20449.430000000000
31
0.0
0
LINE
5
4bb
100
AcDbEntity
8
1-0
6
CONTINUOUS
62
4
100
AcDbLine
10
3129.650000000000
20
16872.250000000000
30
0.0
11
3323.950000000000
21
16824.840000000000
31
0.0
0
LINE
5
4bc
100
AcDbEntity
8
1-0
6
CONTINUOUS
62
3
100
AcDbLine
10
517.240000000000
20
22071.849999999999
30
0.0
11
4461.280000000000
21
21044.709999999999
31
0.0
0
LINE
5
4bd
100
AcDbEntity
8
1-0
6
CONTINUOUS
62
3
100
AcDbLine
10
3653.120000000000
20
17941.480000000000
30
0.0
11
13954.639999999999
21
15273.780000000001
31
0.0
0
LINE
5
4be
100
AcDbEntity
8
1-0
6
CONTINUOUS
62
3
100
AcDbLine
10
15274.580000000000
20
20370.790000000001
30
0.0
11
15704.770000000000
21
18683.490000000002
31
0.0
0
LINE
5
4bf
100
AcDbEntity
8
1-0
6
CONTINUOUS
62
3
100
AcDbLine
10
12574.930000000000
20
14336.170000000000
30
0.0
11
550.060000000000
21
17270.020000000000
31
0.0
0
LINE
5
4c0
100
AcDbEntity
8
1-0
6
CONTINUOUS
62
3
100
AcDbLine
10
4586.100000000000
20
21528.880000000001
30
0.0
11
387.600000000000
21
22622.290000000001
31
0.0
0
LINE
5
4c1
100
AcDbEntity
8
1-0
6
CONTINUOUS
62
4
100
AcDbLine
10
12825.370000000001
20
14390.870000000001
30
0.0
11
13408.270000000000
21
14248.660000000000
31
0.0
0
LINE
5
4c2
100
AcDbEntity
8
1-0
6
CONTINUOUS
62
3
100
AcDbLine
10
15274.580000000000
20
20370.790000000001
30
0.0
11
438.750000000000
21
24059.470000000001
31
0.0
0
LINE
5
4c3
100
AcDbEntity
8
1-0
6
CONTINUOUS
62
3
100
AcDbLine
10
14781.240000000000
20
15117.520000000000
30
0.0
11
15704.719999999999
21
18683.619999999999
31
0.0
0
LINE
5
4c4
100
AcDbEntity
8
1-0
6
CONTINUOUS
62
3
100
AcDbLine
10
13611.400000000000
20
13948.330000000000
30
0.0
11
12574.930000000000
21
14336.170000000000
31
0.0
0
LINE
5
4c5
100
AcDbEntity
8
1-0
6
CONTINUOUS
62
3
100
AcDbLine
10
3528.300000000000
20
17457.310000000001
30
0.0
11
13829.290000000001
21
14789.750000000000
31
0.0
0
LINE
5
4c6
100
AcDbEntity
8
1-0
6
CONTINUOUS
62
3
100
AcDbLine
10
596.890000000000
20
18737.410000000000
30
0.0
11
3653.120000000000
21
17941.480000000000
31
0.0
0
LINE
5
4c7
100
AcDbEntity
8
1-0
6
CONTINUOUS
62
3
100
AcDbLine
10
667.230000000000
20
18202.419999999998
30
0.0
11
3528.300000000000
21
17457.310000000001
31
0.0
0
LINE
5
4c8
100
AcDbEntity
8
1-0
6
CONTINUOUS
62
3
100
AcDbLine
10
4457.030000000000
20
21045.810000000001
30
0.0
11
14758.540000000001
21
18378.110000000001
31
0.0
0
LINE
5
4c9
100
AcDbEntity
8
1-0
6
CONTINUOUS
62
4
100
AcDbLine
10
8306.650000000000
20
15609.150000000000
30
0.0
11
8500.959999999999
21
15561.740000000000
31
0.0
0
LINE
5
4ca
100
AcDbEntity
8
1-0
6
CONTINUOUS
62
4
100
AcDbLine
10
828.730000000000
20
17317.830000000002
30
0.0
11
1411.630000000000
21
17175.610000000001
31
0.0
0
LINE
5
4cb
100
AcDbEntity
8
1-0
6
CONTINUOUS
62
4
100
AcDbLine
10
9966.070000000000
20
15204.280000000001
30
0.0
11
10160.379999999999
21
15156.879999999999
31
0.0
0
LINE
5
4cc
100
AcDbEntity
8
1-0
6
CONTINUOUS
62
4
100
AcDbLine
10
8085.690000000000
20
15547.260000000000
30
0.0
11
8668.590000000000
21
15405.040000000001
31
0.0
0
LINE
5
4cd
100
AcDbEntity
8
1-0
6
CONTINUOUS
62
4
100
AcDbLine
10
11256.330000000000
20
14773.690000000001
30
0.0
11
11839.230000000000
21
14631.469999999999
31
0.0
0
LINE
5
4ce
100
AcDbEntity
8
1-0
6
CONTINUOUS
62
4
100
AcDbLine
10
4849.800000000000
20
16452.560000000001
30
0.0
11
5044.110000000000
21
16405.150000000001
31
0.0
0
LINE
5
4cf
100
AcDbEntity
8
1-0
6
CONTINUOUS
62
4
100
AcDbLine
10
6463.880000000000
20
15942.959999999999
30
0.0
11
7046.780000000000
21
15800.740000000000
31
0.0
0
LINE
5
4d0
100
AcDbEntity
8
1-0
6
CONTINUOUS
62
4
100
AcDbLine
10
3226.800000000000
20
16848.549999999999
30
0.0
11
3373.030000000000
21
17447.919999999998
31
0.0
0
LINE
5
4d1
100
AcDbEntity
8
1-0
6
CONTINUOUS
62
4
100
AcDbLine
10
10063.230000000000
20
15180.590000000000
30
0.0
11
10182.250000000000
21
15668.440000000001
31
0.0
0
LINE
5
4d2
100
AcDbEntity
8
1-0
6
CONTINUOUS
62
4
100
AcDbLine
10
4946.960000000000
20
16428.860000000001
30
0.0
11
5088.660000000000
21
17009.700000000001
31
0.0
0
LINE
5
4d3
100
AcDbEntity
8
1-0
6
CONTINUOUS
62
4
100
AcDbLine
10
11477.290000000001
20
14835.580000000000
30
0.0
11
11671.590000000000
21
14788.170000000000
31
0.0
0
LINE
5
4d4
100
AcDbEntity
8
1-0
6
CONTINUOUS
62
4
100
AcDbLine
10
6781.990000000000
20
15981.150000000000
30
0.0
11
6912.710000000000
21
16516.950000000001
31
0.0
0
LINE
5
4d5
100
AcDbEntity
8
1-0
6
CONTINUOUS
62
4
100
AcDbLine
10
13046.330000000000
20
14452.760000000000
30
0.0
11
13240.639999999999
21
14405.350000000000
31
0.0
0
LINE
5
4d6
100
AcDbEntity
8
1-0
6
CONTINUOUS
62
3
100
AcDbLine
10
13611.170000000000
20
13947.450000000001
30
0.0
11
15274.580000000000
21
20370.799999999999
31
0.0
0
LINE
5
4d7
100
AcDbEntity
8
1-0
6
DOT
62
3
100
AcDbLine
10
56385.230000000003
20
27860.209999999999
30
0.0
11
57120.260000000002
21
27944.770000000000
31
0.0
0
LINE
5
4d8
100
AcDbEntity
8
1-0
6
DOT
62
3
100
AcDbLine
10
81076.199999999997
20
31914.279999999999
30
0.0
11
73488.729999999996
21
29827.720000000001
31
0.0
0
LINE
5
4d9
100
AcDbEntity
8
1-0
6
DOT
62
3
100
AcDbLine
10
81076.199999999997
20
31914.279999999999
30
0.0
11
83688.029999999999
21
33063.489999999998
31
0.0
0
LINE
5
4da
100
AcDbEntity
8
1-0
6
DOT
62
3
100
AcDbLine
10
73488.729999999996
20
29827.720000000001
30
0.0
11
54624.290000000001
21
27657.650000000001
31
0.0
0
LINE
5
4db
100
AcDbEntity
8
1-0
6
CONTINUOUS
62
4
100
AcDbLine
10
13143.490000000000
20
14429.059999999999
30
0.0
11
13250.150000000000
21
14866.230000000000
31
0.0
0
LINE
5
4dc
100
AcDbEntity
8
1-0
6
CONTINUOUS
62
3
100
AcDbLine
10
4586.100000000000
20
21528.880000000001
30
0.0
11
14883.889999999999
21
18862.150000000001
31
0.0
0
LINE
5
4dd
100
AcDbEntity
8
1-0
6
CONTINUOUS
62
4
100
AcDbLine
10
45743.320000000000
20
20517.770000000000
30
0.0
11
44192.540000000001
21
19254.810000000001
31
0.0
0
LINE
5
4de
100
AcDbEntity
8
1-0
6
CONTINUOUS
62
4
100
AcDbLine
10
57377.410000000003
20
22929.660000000000
30
0.0
11
57444.930000000000
21
21499.340000000000
31
0.0
0
LINE
5
4df
100
AcDbEntity
8
1-0
6
CONTINUOUS
62
4
100
AcDbLine
10
54557.440000000002
20
23269.009999999998
30
0.0
11
52567.879999999997
21
23064.970000000001
31
0.0
0
LINE
5
4e0
100
AcDbEntity
8
1-0
6
CONTINUOUS
62
4
100
AcDbLine
10
45438.669999999998
20
19902.110000000001
30
0.0
11
44857.129999999997
21
19428.500000000000
31
0.0
0
LINE
5
4e1
100
AcDbEntity
8
1-0
6
CONTINUOUS
62
4
100
AcDbLine
10
45424.800000000003
20
19523.250000000000
30
0.0
11
45230.949999999997
21
19365.380000000001
31
0.0
0
LINE
5
4e2
100
AcDbEntity
8
1-0
6
CONTINUOUS
62
4
100
AcDbLine
10
47361.139999999999
20
20738.000000000000
30
0.0
11
47638.570000000000
21
19929.270000000000
31
0.0
0
LINE
5
4e3
100
AcDbEntity
8
1-0
6
CONTINUOUS
62
4
100
AcDbLine
10
57738.550000000003
20
23232.029999999999
30
0.0
11
56989.379999999997
21
23196.650000000001
31
0.0
0
LINE
5
4e4
100
AcDbEntity
8
1-0
6
CONTINUOUS
62
4
100
AcDbLine
10
50578.559999999998
20
22143.080000000002
30
0.0
11
49869.150000000001
21
21899.700000000001
31
0.0
0
LINE
5
4e5
100
AcDbEntity
8
1-0
6
CONTINUOUS
62
4
100
AcDbLine
10
53745.160000000003
20
22612.720000000001
30
0.0
11
53496.449999999997
21
22587.209999999999
31
0.0
0
LINE
5
4e6
100
AcDbEntity
8
1-0
6
CONTINUOUS
62
4
100
AcDbLine
10
53620.809999999998
20
22599.959999999999
30
0.0
11
53787.129999999997
21
20977.950000000001
31
0.0
0
LINE
5
4e7
100
AcDbEntity
8
1-0
6
CONTINUOUS
62
4
100
AcDbLine
10
57502.260000000002
20
22935.549999999999
30
0.0
11
57252.540000000001
21
22923.770000000000
31
0.0
0
LINE
5
4e8
100
AcDbEntity
8
1-0
6
CONTINUOUS
62
4
100
AcDbLine
10
53964.769999999997
20
22921.740000000002
30
0.0
11
53218.680000000000
21
22845.220000000001
31
0.0
0
LINE
5
4e9
100
AcDbEntity
8
1-0
6
CONTINUOUS
62
4
100
AcDbLine
10
51077.260000000002
20
22615.459999999999
30
0.0
11
49185.480000000003
21
21966.480000000000
31
0.0
0
LINE
5
4ea
100
AcDbEntity
8
1-0
6
CONTINUOUS
62
4
100
AcDbLine
10
30088.099999999999
20
31895.799999999999
30
0.0
11
30165.730000000000
21
32747.259999999998
31
0.0
0
LINE
5
4eb
100
AcDbEntity
8
1-0
6
CONTINUOUS
62
4
100
AcDbLine
10
32634.970000000001
20
31464.919999999998
30
0.0
11
33384.940000000002
21
31471.470000000001
31
0.0
0
LINE
5
4ec
100
AcDbEntity
8
1-0
6
CONTINUOUS
62
4
100
AcDbLine
10
32012.480000000000
20
31174.470000000001
30
0.0
11
34012.400000000001
21
31191.930000000000
31
0.0
0
LINE
5
4ed
100
AcDbEntity
8
1-0
6
CONTINUOUS
62
4
100
AcDbLine
10
29688.759999999998
20
31646.029999999999
30
0.0
11
30435.660000000000
21
31577.910000000000
31
0.0
0
LINE
5
4ee
100
AcDbEntity
8
1-0
6
CONTINUOUS
62
4
100
AcDbLine
10
29963.599999999999
20
31907.150000000001
30
0.0
11
30212.580000000002
21
31884.439999999999
31
0.0
0
LINE
5
4ef
100
AcDbEntity
8
1-0
6
CONTINUOUS
62
3
100
AcDbLine
10
29812.570000000000
20
32902.339999999997
30
0.0
11
34130.410000000003
21
32940.019999999997
31
0.0
0
LINE
5
4f0
100
AcDbEntity
8
1-0
6
CONTINUOUS
62
3
100
AcDbLine
10
29193.090000000000
20
31118.869999999999
30
0.0
11
31735.220000000001
21
30887.049999999999
31
0.0
0
LINE
5
4f1
100
AcDbEntity
8
1-0
6
CONTINUOUS
62
4
100
AcDbLine
10
19182.950000000001
20
33564.980000000003
30
0.0
11
19920.080000000002
21
33426.639999999999
31
0.0
0
LINE
5
4f2
100
AcDbEntity
8
1-0
6
CONTINUOUS
62
3
100
AcDbLine
10
17489.599999999999
20
33302.820000000000
30
0.0
11
25249.610000000001
21
31846.480000000000
31
0.0
0
LINE
5
4f3
100
AcDbEntity
8
1-0
6
CONTINUOUS
62
3
100
AcDbLine
10
25249.610000000001
20
31846.480000000000
30
0.0
11
29193.090000000000
21
31118.869999999999
31
0.0
0
LINE
5
4f4
100
AcDbEntity
8
1-0
6
CONTINUOUS
62
4
100
AcDbLine
10
45327.870000000003
20
19444.320000000000
30
0.0
11
45546.760000000002
21
19175.549999999999
31
0.0
0
LINE
5
4f5
100
AcDbEntity
8
1-0
6
CONTINUOUS
62
4
100
AcDbLine
10
19481.230000000000
20
33798.970000000001
30
0.0
11
19726.939999999999
21
33752.860000000001
31
0.0
0
LINE
5
4f6
100
AcDbEntity
8
1-0
6
CONTINUOUS
62
3
100
AcDbLine
10
31735.220000000001
20
30887.049999999999
30
0.0
11
34021.129999999997
21
30907.000000000000
31
0.0
0
LINE
5
4f7
100
AcDbEntity
8
1-0
6
CONTINUOUS
62
4
100
AcDbLine
10
18516.110000000001
20
33400.139999999999
30
0.0
11
20481.790000000001
21
33031.250000000000
31
0.0
0
LINE
5
4f8
100
AcDbEntity
8
1-0
6
CONTINUOUS
62
4
100
AcDbLine
10
29040.459999999999
20
31418.959999999999
30
0.0
11
31032.189999999999
21
31237.330000000002
31
0.0
0
LINE
5
4f9
100
AcDbEntity
8
1-0
6
CONTINUOUS
62
4
100
AcDbLine
10
69985.559999999998
20
25623.730000000000
30
0.0
11
69245.949999999997
21
25499.279999999999
31
0.0
0
LINE
5
4fa
100
AcDbEntity
8
1-0
6
CONTINUOUS
62
4
100
AcDbLine
10
69786.320000000007
20
25301.200000000001
30
0.0
11
69539.789999999994
21
25259.720000000001
31
0.0
0
LINE
5
4fb
100
AcDbEntity
8
1-0
6
CONTINUOUS
62
4
100
AcDbLine
10
73971.929999999993
20
26093.450000000001
30
0.0
11
74355.919999999998
21
24324.000000000000
31
0.0
0
LINE
5
4fc
100
AcDbEntity
8
1-0
6
CONTINUOUS
62
4
100
AcDbLine
10
78115.899999999994
20
26992.770000000000
30
0.0
11
77871.580000000002
21
26939.740000000002
31
0.0
0
LINE
5
4fd
100
AcDbEntity
8
1-0
6
CONTINUOUS
62
4
100
AcDbLine
10
77993.759999999995
20
26966.250000000000
30
0.0
11
78416.179999999993
21
25019.680000000000
31
0.0
0
LINE
5
4fe
100
AcDbEntity
8
1-0
6
CONTINUOUS
62
4
100
AcDbLine
10
74094.080000000002
20
26119.959999999999
30
0.0
11
73849.779999999999
21
26066.939999999999
31
0.0
0
LINE
5
4ff
100
AcDbEntity
8
1-0
6
CONTINUOUS
62
4
100
AcDbLine
10
70554.610000000001
20
26008.500000000000
30
0.0
11
68582.330000000002
21
25676.619999999999
31
0.0
0
LINE
5
500
100
AcDbEntity
8
1-0
6
CONTINUOUS
62
4
100
AcDbLine
10
50434.559999999998
20
21792.369999999999
30
0.0
11
50198.099999999999
21
21711.250000000000
31
0.0
0
LINE
5
501
100
AcDbEntity
8
1-0
6
CONTINUOUS
62
4
100
AcDbLine
10
50316.339999999997
20
21751.820000000000
30
0.0
11
50733.559999999998
21
20535.610000000001
31
0.0
0
LINE
5
502
100
AcDbEntity
8
1-0
6
CONTINUOUS
62
4
100
AcDbLine
10
47479.360000000001
20
20778.560000000001
30
0.0
11
47242.900000000001
21
20697.430000000000
31
0.0
0
LINE
5
503
100
AcDbEntity
8
1-0
6
CONTINUOUS
62
4
100
AcDbLine
10
58349.419999999998
20
23546.169999999998
30
0.0
11
56351.650000000001
21
23451.869999999999
31
0.0
0
LINE
5
504
100
AcDbEntity
8
1-0
6
CONTINUOUS
62
4
100
AcDbLine
10
48122.059999999998
20
21601.650000000001
30
0.0
11
46230.279999999999
21
20952.660000000000
31
0.0
0
LINE
5
505
100
AcDbEntity
8
1-0
6
CONTINUOUS
62
4
100
AcDbLine
10
47623.360000000001
20
21129.259999999998
30
0.0
11
46913.949999999997
21
20885.889999999999
31
0.0
0
LINE
5
506
100
AcDbEntity
8
1-0
6
CONTINUOUS
62
4
100
AcDbLine
10
65175.349999999999
20
24417.040000000001
30
0.0
11
64931.070000000000
21
24363.919999999998
31
0.0
0
LINE
5
507
100
AcDbEntity
8
1-0
6
CONTINUOUS
62
4
100
AcDbLine
10
69663.050000000003
20
25280.459999999999
30
0.0
11
69947.149999999994
21
23592.060000000001
31
0.0
0
LINE
5
508
100
AcDbEntity
8
1-0
6
CONTINUOUS
62
4
100
AcDbLine
10
65909.240000000005
20
25159.959999999999
30
0.0
11
63954.919999999998
21
24734.970000000001
31
0.0
0
LINE
5
509
100
AcDbEntity
8
1-0
6
CONTINUOUS
62
4
100
AcDbLine
10
32882.470000000001
20
31752.090000000000
30
0.0
11
33132.470000000001
21
31754.270000000000
31
0.0
0
LINE
5
50a
100
AcDbEntity
8
1-0
6
CONTINUOUS
62
4
100
AcDbLine
10
33007.470000000001
20
31753.189999999999
30
0.0
11
32998.330000000002
21
32800.400000000001
31
0.0
0
LINE
5
50b
100
AcDbEntity
8
1-0
6
CONTINUOUS
62
4
100
AcDbLine
10
65359.080000000002
20
24748.660000000000
30
0.0
11
64626.209999999999
21
24589.290000000001
31
0.0
0
LINE
5
50c
100
AcDbEntity
8
1-0
6
CONTINUOUS
62
4
100
AcDbLine
10
65053.199999999997
20
24390.480000000000
30
0.0
11
65411.660000000003
21
22742.150000000001
31
0.0
0
LINE
5
50d
100
AcDbEntity
8
1-0
6
CONTINUOUS
62
4
100
AcDbLine
10
61223.639999999999
20
23793.700000000001
30
0.0
11
60507.180000000000
21
23571.930000000000
31
0.0
0
LINE
5
50e
100
AcDbEntity
8
1-0
6
CONTINUOUS
62
4
100
AcDbLine
10
74828.289999999994
20
26862.560000000001
30
0.0
11
72873.789999999994
21
26438.410000000000
31
0.0
0
LINE
5
50f
100
AcDbEntity
8
1-0
6
CONTINUOUS
62
4
100
AcDbLine
10
74277.940000000002
20
26451.500000000000
30
0.0
11
73545.009999999995
21
26292.439999999999
31
0.0
0
LINE
5
510
100
AcDbEntity
8
1-0
6
CONTINUOUS
62
4
100
AcDbLine
10
61069.099999999999
20
23447.520000000000
30
0.0
11
60830.269999999997
21
23373.599999999999
31
0.0
0
LINE
5
511
100
AcDbEntity
8
1-0
6
CONTINUOUS
62
4
100
AcDbLine
10
60949.690000000002
20
23410.570000000000
30
0.0
11
61351.980000000003
21
22110.889999999999
31
0.0
0
LINE
5
512
100
AcDbEntity
8
1-0
6
CONTINUOUS
62
4
100
AcDbLine
10
61736.410000000003
20
24250.779999999999
30
0.0
11
59825.860000000001
21
23659.380000000001
31
0.0
0
LINE
5
513
100
AcDbEntity
8
1-0
6
CONTINUOUS
62
4
100
AcDbLine
10
78850.100000000006
20
27735.369999999999
30
0.0
11
76895.610000000001
21
27311.209999999999
31
0.0
0
LINE
5
514
100
AcDbEntity
8
1-0
6
CONTINUOUS
62
3
100
AcDbLine
10
33009.529999999999
20
13451.540000000001
30
0.0
11
56998.930000000000
21
9096.540000000001
31
0.0
0
LINE
5
515
100
AcDbEntity
8
1-0
6
CONTINUOUS
62
3
100
AcDbLine
10
33098.839999999997
20
13943.500000000000
30
0.0
11
57080.940000000002
21
9589.810000000000
31
0.0
0
LINE
5
516
100
AcDbEntity
8
1-0
6
CONTINUOUS
62
3
100
AcDbLine
10
15274.580000000000
20
20370.790000000001
30
0.0
11
33098.839999999997
21
13943.500000000000
31
0.0
0
LINE
5
517
100
AcDbEntity
8
1-0
6
CONTINUOUS
62
3
100
AcDbLine
10
32473.669999999998
20
10499.780000000001
30
0.0
11
56472.129999999997
21
6143.130000000000
31
0.0
0
LINE
5
518
100
AcDbEntity
8
1-0
6
CONTINUOUS
62
3
100
AcDbLine
10
14781.240000000000
20
15117.520000000000
30
0.0
11
32473.669999999998
21
10499.780000000001
31
0.0
0
LINE
5
519
100
AcDbEntity
8
1-0
6
CONTINUOUS
62
3
100
AcDbLine
10
343.000000000000
20
25225.450000000001
30
0.0
11
4330.500000000000
21
24121.520000000000
31
0.0
0
LINE
5
51a
100
AcDbEntity
8
1-0
6
CONTINUOUS
62
3
100
AcDbLine
10
15704.770000000000
20
18683.490000000002
30
0.0
11
33009.529999999999
21
13451.540000000001
31
0.0
0
LINE
5
51b
100
AcDbEntity
8
1-0
6
CONTINUOUS
62
4
100
AcDbLine
10
50392.160000000003
20
5269.910000000000
30
0.0
11
52340.019999999997
21
4816.190000000000
31
0.0
0
LINE
5
51c
100
AcDbEntity
8
1-0
6
CONTINUOUS
62
4
100
AcDbLine
10
51065.510000000002
20
5405.690000000000
30
0.0
11
51795.970000000001
21
5235.550000000000
31
0.0
0
LINE
5
51d
100
AcDbEntity
8
1-0
6
CONTINUOUS
62
4
100
AcDbLine
10
36356.379999999997
20
15034.240000000000
30
0.0
11
36109.889999999999
21
15075.930000000000
31
0.0
0
LINE
5
51e
100
AcDbEntity
8
1-0
6
CONTINUOUS
62
4
100
AcDbLine
10
33111.500000000000
20
15445.830000000000
30
0.0
11
32968.930000000000
21
14107.799999999999
31
0.0
0
LINE
5
51f
100
AcDbEntity
8
1-0
6
CONTINUOUS
62
4
100
AcDbLine
10
34166.269999999997
20
15906.680000000000
30
0.0
11
32177.529999999999
21
16118.580000000000
31
0.0
0
LINE
5
520
100
AcDbEntity
8
1-0
6
CONTINUOUS
62
4
100
AcDbLine
10
33514.599999999999
20
15689.500000000000
30
0.0
11
32768.809999999998
21
15768.959999999999
31
0.0
0
LINE
5
521
100
AcDbEntity
8
1-0
6
CONTINUOUS
62
4
100
AcDbLine
10
36233.129999999997
20
15055.080000000000
30
0.0
11
35983.730000000003
21
13580.379999999999
31
0.0
0
LINE
5
522
100
AcDbEntity
8
1-0
6
CONTINUOUS
62
4
100
AcDbLine
10
51495.379999999997
20
5598.190000000000
30
0.0
11
51689.349999999999
21
6430.890000000000
31
0.0
0
LINE
5
523
100
AcDbEntity
8
1-0
6
CONTINUOUS
62
4
100
AcDbLine
10
45921.699999999997
20
6311.200000000000
30
0.0
11
47869.559999999998
21
5857.480000000000
31
0.0
0
LINE
5
524
100
AcDbEntity
8
1-0
6
CONTINUOUS
62
4
100
AcDbLine
10
51373.650000000001
20
5626.540000000000
30
0.0
11
51617.139999999999
21
5569.830000000000
31
0.0
0
LINE
5
525
100
AcDbEntity
8
1-0
6
CONTINUOUS
62
4
100
AcDbLine
10
46595.050000000003
20
6446.980000000000
30
0.0
11
47325.510000000002
21
6276.840000000000
31
0.0
0
LINE
5
526
100
AcDbEntity
8
1-0
6
CONTINUOUS
62
4
100
AcDbLine
10
46903.190000000002
20
6667.840000000000
30
0.0
11
47146.669999999998
21
6611.130000000000
31
0.0
0
LINE
5
527
100
AcDbEntity
8
1-0
6
CONTINUOUS
62
3
100
AcDbLine
10
13611.170000000000
20
13947.450000000001
30
0.0
11
32384.360000000001
21
10007.820000000000
31
0.0
0
LINE
5
528
100
AcDbEntity
8
1-0
6
CONTINUOUS
62
3
100
AcDbLine
10
13611.170000000000
20
13947.450000000001
30
0.0
11
30269.360000000001
21
9664.440000000001
31
0.0
0
LINE
5
529
100
AcDbEntity
8
1-0
6
CONTINUOUS
62
3
100
AcDbLine
10
28810.369999999999
20
16763.959999999999
30
0.0
11
35420.739999999998
21
16059.620000000001
31
0.0
0
LINE
5
52a
100
AcDbEntity
8
1-0
6
CONTINUOUS
62
4
100
AcDbLine
10
57376.169999999998
20
12057.370000000001
30
0.0
11
55404.169999999998
21
12390.879999999999
31
0.0
0
LINE
5
52b
100
AcDbEntity
8
1-0
6
CONTINUOUS
62
3
100
AcDbLine
10
30269.360000000001
20
9664.440000000001
30
0.0
11
55965.529999999999
21
3679.080000000000
31
0.0
0
LINE
5
52c
100
AcDbEntity
8
1-0
6
CONTINUOUS
62
3
100
AcDbLine
10
15274.580000000000
20
20370.790000000001
30
0.0
11
28810.369999999999
21
16763.959999999999
31
0.0
0
LINE
5
52d
100
AcDbEntity
8
1-0
6
CONTINUOUS
62
3
100
AcDbLine
10
43578.900000000001
20
10008.270000000000
30
0.0
11
42841.650000000001
21
10451.830000000000
31
0.0
0
LINE
5
52e
100
AcDbEntity
8
1-0
6
CONTINUOUS
62
3
100
AcDbLine
10
35420.739999999998
20
16059.620000000001
30
0.0
11
41757.199999999997
21
17638.990000000002
31
0.0
0
LINE
5
52f
100
AcDbEntity
8
1-0
6
CONTINUOUS
62
3
100
AcDbLine
10
35420.739999999998
20
16059.620000000001
30
0.0
11
57574.610000000001
21
12312.850000000000
31
0.0
0
LINE
5
530
100
AcDbEntity
8
1-0
6
CONTINUOUS
62
3
100
AcDbLine
10
40880.269999999997
20
10498.170000000000
30
0.0
11
43578.900000000001
21
10008.270000000000
31
0.0
0
LINE
5
531
100
AcDbEntity
8
1-0
6
CONTINUOUS
62
3
100
AcDbLine
10
32384.360000000001
20
10007.820000000000
30
0.0
11
56380.250000000000
21
5651.640000000000
31
0.0
0
LINE
5
532
100
AcDbEntity
8
1-0
6
CONTINUOUS
62
4
100
AcDbLine
10
54189.599999999999
20
4385.380000000000
30
0.0
11
56137.449999999997
21
3931.660000000000
31
0.0
0
LINE
5
533
100
AcDbEntity
8
1-0
6
CONTINUOUS
62
4
100
AcDbLine
10
54862.959999999999
20
4521.160000000000
30
0.0
11
55593.410000000003
21
4351.010000000000
31
0.0
0
LINE
5
534
100
AcDbEntity
8
1-0
6
CONTINUOUS
62
4
100
AcDbLine
10
56712.400000000001
20
11880.580000000000
30
0.0
11
55972.889999999999
21
12005.650000000000
31
0.0
0
LINE
5
535
100
AcDbEntity
8
1-0
6
CONTINUOUS
62
4
100
AcDbLine
10
56418.360000000001
20
11641.270000000000
30
0.0
11
56171.870000000003
21
11682.950000000001
31
0.0
0
LINE
5
536
100
AcDbEntity
8
1-0
6
CONTINUOUS
62
4
100
AcDbLine
10
55292.830000000002
20
4713.650000000000
30
0.0
11
55519.040000000001
21
5684.770000000000
31
0.0
0
LINE
5
537
100
AcDbEntity
8
1-0
6
CONTINUOUS
62
3
100
AcDbLine
10
41757.199999999997
20
17638.990000000002
30
0.0
11
47199.169999999998
21
19845.560000000001
31
0.0
0
LINE
5
538
100
AcDbEntity
8
1-0
6
CONTINUOUS
62
3
100
AcDbLine
10
35420.739999999998
20
16059.620000000001
30
0.0
11
54624.290000000001
21
27657.650000000001
31
0.0
0
LINE
5
539
100
AcDbEntity
8
1-0
6
CONTINUOUS
62
4
100
AcDbLine
10
55171.089999999997
20
4742.010000000000
30
0.0
11
55414.580000000002
21
4685.300000000000
31
0.0
0
LINE
5
53a
100
AcDbEntity
8
1-0
6
CONTINUOUS
62
4
100
AcDbLine
10
22668.759999999998
20
32910.779999999999
30
0.0
11
23405.889999999999
21
32772.449999999997
31
0.0
0
LINE
5
53b
100
AcDbEntity
8
1-0
6
CONTINUOUS
62
4
100
AcDbLine
10
22967.029999999999
20
33144.779999999999
30
0.0
11
23212.750000000000
21
33098.660000000003
31
0.0
0
LINE
5
53c
100
AcDbEntity
8
1-0
6
CONTINUOUS
62
4
100
AcDbLine
10
19604.070000000000
20
33775.919999999998
30
0.0
11
19761.790000000001
21
34616.250000000000
31
0.0
0
LINE
5
53d
100
AcDbEntity
8
1-0
6
CONTINUOUS
62
4
100
AcDbLine
10
26505.180000000000
20
32484.240000000002
30
0.0
11
26660.320000000000
21
33325.040000000001
31
0.0
0
LINE
5
53e
100
AcDbEntity
8
1-0
6
CONTINUOUS
62
4
100
AcDbLine
10
25418.360000000001
20
32105.150000000001
30
0.0
11
27385.160000000000
21
31742.250000000000
31
0.0
0
LINE
5
53f
100
AcDbEntity
8
1-0
6
CONTINUOUS
62
4
100
AcDbLine
10
26084.689999999999
20
32272.020000000000
30
0.0
11
26822.240000000002
21
32135.919999999998
31
0.0
0
LINE
5
540
100
AcDbEntity
8
1-0
6
CONTINUOUS
62
4
100
AcDbLine
10
22001.919999999998
20
32745.959999999999
30
0.0
11
23967.599999999999
21
32377.049999999999
31
0.0
0
LINE
5
541
100
AcDbEntity
8
1-0
6
CONTINUOUS
62
4
100
AcDbLine
10
23089.880000000001
20
33121.720000000001
30
0.0
11
23247.599999999999
21
33962.050000000003
31
0.0
0
LINE
5
542
100
AcDbEntity
8
1-0
6
CONTINUOUS
62
4
100
AcDbLine
10
26382.259999999998
20
32506.919999999998
30
0.0
11
26628.110000000001
21
32461.560000000001
31
0.0
0
LINE
5
543
100
AcDbEntity
8
1-0
6
CONTINUOUS
62
3
100
AcDbLine
10
34021.129999999997
20
30907.000000000000
30
0.0
11
37579.220000000001
21
30684.029999999999
31
0.0
0
LINE
5
544
100
AcDbEntity
8
1-0
6
CONTINUOUS
62
3
100
AcDbLine
10
41242.129999999997
20
33002.080000000002
30
0.0
11
52663.930000000000
21
33990.779999999999
31
0.0
0
LINE
5
545
100
AcDbEntity
8
1-0
6
CONTINUOUS
62
3
100
AcDbLine
10
60337.820000000000
20
34939.190000000002
30
0.0
11
71752.240000000005
21
36828.779999999999
31
0.0
0
LINE
5
546
100
AcDbEntity
8
1-0
6
CONTINUOUS
62
3
100
AcDbLine
10
79118.270000000004
20
38733.790000000001
30
0.0
11
83667.509999999995
21
40716.790000000001
31
0.0
0
LINE
5
547
100
AcDbEntity
8
1-0
6
CONTINUOUS
62
3
100
AcDbLine
10
71752.240000000005
20
36828.779999999999
30
0.0
11
79118.270000000004
21
38733.790000000001
31
0.0
0
LINE
5
548
100
AcDbEntity
8
1-0
6
CONTINUOUS
62
3
100
AcDbLine
10
52663.930000000000
20
33990.779999999999
30
0.0
11
60337.820000000000
21
34939.190000000002
31
0.0
0
LINE
5
549
100
AcDbEntity
8
1-0
6
CONTINUOUS
62
3
100
AcDbLine
10
37579.220000000001
20
30684.029999999999
30
0.0
11
40120.220000000001
21
30579.189999999999
31
0.0
0
LINE
5
54a
100
AcDbEntity
8
1-0
6
CONTINUOUS
62
3
100
AcDbLine
10
73657.250000000000
20
34542.769999999997
30
0.0
11
78737.250000000000
21
35939.779999999999
31
0.0
0
LINE
5
54b
100
AcDbEntity
8
1-0
6
CONTINUOUS
62
3
100
AcDbLine
10
40120.220000000001
20
30579.189999999999
30
0.0
11
42911.900000000001
21
30857.580000000002
31
0.0
0
LINE
5
54c
100
AcDbEntity
8
1-0
6
CONTINUOUS
62
3
100
AcDbLine
10
78737.250000000000
20
35939.779999999999
30
0.0
11
83780.369999999995
21
38158.760000000002
31
0.0
0
LINE
5
54d
100
AcDbEntity
8
1-0
6
CONTINUOUS
62
3
100
AcDbLine
10
55852.120000000003
20
32494.560000000001
30
0.0
11
73657.250000000000
21
34542.769999999997
31
0.0
0
LINE
5
54e
100
AcDbEntity
8
1-0
6
CONTINUOUS
62
3
100
AcDbLine
10
42911.900000000001
20
30857.580000000002
30
0.0
11
55852.120000000003
21
32494.560000000001
31
0.0
0
LINE
5
54f
100
AcDbEntity
8
1-0
6
CONTINUOUS
62
4
100
AcDbLine
10
82678.119999999995
20
28274.470000000001
30
0.0
11
81945.179999999993
21
28115.419999999998
31
0.0
0
LINE
5
550
100
AcDbEntity
8
1-0
6
CONTINUOUS
62
4
100
AcDbLine
10
9351.180000000000
20
30962.270000000000
30
0.0
11
9141.490000000000
21
31098.400000000001
31
0.0
0
LINE
5
551
100
AcDbEntity
8
1-0
6
CONTINUOUS
62
4
100
AcDbLine
10
26370.380000000001
20
23134.720000000001
30
0.0
11
24385.400000000001
21
23379.290000000001
31
0.0
0
LINE
5
552
100
AcDbEntity
8
1-0
6
CONTINUOUS
62
4
100
AcDbLine
10
25308.189999999999
20
22691.279999999999
30
0.0
11
25065.529999999999
21
20721.790000000001
31
0.0
0
LINE
5
553
100
AcDbEntity
8
1-0
6
CONTINUOUS
62
4
100
AcDbLine
10
29635.150000000001
20
22732.470000000001
30
0.0
11
27650.169999999998
21
22977.049999999999
31
0.0
0
LINE
5
554
100
AcDbEntity
8
1-0
6
CONTINUOUS
62
4
100
AcDbLine
10
9246.330000000000
20
31030.340000000000
30
0.0
11
8843.270000000000
21
30409.560000000001
31
0.0
0
LINE
5
555
100
AcDbEntity
8
1-0
6
CONTINUOUS
62
4
100
AcDbLine
10
10395.459999999999
20
30963.840000000000
30
0.0
11
8718.030000000001
21
32052.980000000000
31
0.0
0
LINE
5
556
100
AcDbEntity
8
1-0
6
CONTINUOUS
62
4
100
AcDbLine
10
9716.060000000000
20
31065.150000000001
30
0.0
11
9087.020000000000
21
31473.590000000000
31
0.0
0
LINE
5
557
100
AcDbEntity
8
1-0
6
CONTINUOUS
62
4
100
AcDbLine
10
48029.059999999998
20
26558.700000000001
30
0.0
11
47371.830000000002
21
26197.389999999999
31
0.0
0
LINE
5
558
100
AcDbEntity
8
1-0
6
CONTINUOUS
62
4
100
AcDbLine
10
47878.639999999999
20
26313.389999999999
30
0.0
11
47659.570000000000
21
26192.950000000001
31
0.0
0
LINE
5
559
100
AcDbEntity
8
1-0
6
CONTINUOUS
62
4
100
AcDbLine
10
47769.099999999999
20
26253.169999999998
30
0.0
11
48043.709999999999
21
25753.680000000000
31
0.0
0
LINE
5
55a
100
AcDbEntity
8
1-0
6
CONTINUOUS
62
4
100
AcDbLine
10
46373.589999999997
20
25485.959999999999
30
0.0
11
46648.199999999997
21
24986.470000000001
31
0.0
0
LINE
5
55b
100
AcDbEntity
8
1-0
6
CONTINUOUS
62
4
100
AcDbLine
10
78299.770000000004
20
27324.299999999999
30
0.0
11
77566.830000000002
21
27165.250000000000
31
0.0
0
LINE
5
55c
100
AcDbEntity
8
1-0
6
CONTINUOUS
62
4
100
AcDbLine
10
83228.460000000006
20
28685.549999999999
30
0.0
11
81273.970000000001
21
28261.380000000001
31
0.0
0
LINE
5
55d
100
AcDbEntity
8
1-0
6
CONTINUOUS
62
4
100
AcDbLine
10
82372.110000000001
20
27916.430000000000
30
0.0
11
82823.100000000006
21
25838.230000000000
31
0.0
0
LINE
5
55e
100
AcDbEntity
8
1-0
6
CONTINUOUS
62
4
100
AcDbLine
10
82494.250000000000
20
27942.950000000001
30
0.0
11
82249.940000000002
21
27889.919999999998
31
0.0
0
LINE
5
55f
100
AcDbEntity
8
1-0
6
CONTINUOUS
62
4
100
AcDbLine
10
39849.389999999999
20
22065.540000000001
30
0.0
11
40098.459999999999
21
21247.619999999999
31
0.0
0
LINE
5
560
100
AcDbEntity
8
1-0
6
CONTINUOUS
62
4
100
AcDbLine
10
42230.129999999997
20
22790.480000000000
30
0.0
11
41990.970000000001
21
22717.669999999998
31
0.0
0
LINE
5
561
100
AcDbEntity
8
1-0
6
CONTINUOUS
62
4
100
AcDbLine
10
42110.550000000003
20
22754.070000000000
30
0.0
11
42208.779999999999
21
22431.459999999999
31
0.0
0
LINE
5
562
100
AcDbEntity
8
1-0
6
CONTINUOUS
62
4
100
AcDbLine
10
39968.970000000001
20
22101.950000000001
30
0.0
11
39729.820000000000
21
22029.130000000001
31
0.0
0
LINE
5
563
100
AcDbEntity
8
1-0
6
CONTINUOUS
62
4
100
AcDbLine
10
36906.550000000003
20
21643.900000000001
30
0.0
11
36930.830000000002
21
20035.860000000001
31
0.0
0
LINE
5
564
100
AcDbEntity
8
1-0
6
CONTINUOUS
62
4
100
AcDbLine
10
40639.989999999998
20
22902.119999999999
30
0.0
11
38726.720000000001
21
22319.520000000000
31
0.0
0
LINE
5
565
100
AcDbEntity
8
1-0
6
CONTINUOUS
62
4
100
AcDbLine
10
42901.150000000001
20
23590.650000000001
30
0.0
11
40987.879999999997
21
23008.060000000001
31
0.0
0
LINE
5
566
100
AcDbEntity
8
1-0
6
CONTINUOUS
62
4
100
AcDbLine
10
28697.009999999998
20
22273.759999999998
30
0.0
11
28448.889999999999
21
22304.320000000000
31
0.0
0
LINE
5
567
100
AcDbEntity
8
1-0
6
CONTINUOUS
62
4
100
AcDbLine
10
28572.959999999999
20
22289.040000000001
30
0.0
11
28362.369999999999
21
20579.880000000001
31
0.0
0
LINE
5
568
100
AcDbEntity
8
1-0
6
CONTINUOUS
62
4
100
AcDbLine
10
33428.610000000001
20
21591.400000000001
30
0.0
11
33178.639999999999
21
21587.630000000001
31
0.0
0
LINE
5
569
100
AcDbEntity
8
1-0
6
CONTINUOUS
62
4
100
AcDbLine
10
42386.269999999997
20
23135.950000000001
30
0.0
11
41668.790000000001
21
22917.480000000000
31
0.0
0
LINE
5
56a
100
AcDbEntity
8
1-0
6
CONTINUOUS
62
4
100
AcDbLine
10
34294.900000000001
20
22174.540000000001
30
0.0
11
32295.130000000001
21
22144.349999999999
31
0.0
0
LINE
5
56b
100
AcDbEntity
8
1-0
6
CONTINUOUS
62
4
100
AcDbLine
10
33674.279999999999
20
21880.139999999999
30
0.0
11
32924.370000000003
21
21868.820000000000
31
0.0
0
LINE
5
56c
100
AcDbEntity
8
1-0
6
CONTINUOUS
62
4
100
AcDbLine
10
15327.230000000000
20
27082.080000000002
30
0.0
11
15117.549999999999
21
27218.220000000001
31
0.0
0
LINE
5
56d
100
AcDbEntity
8
1-0
6
CONTINUOUS
62
4
100
AcDbLine
10
19070.500000000000
20
25110.220000000001
30
0.0
11
18449.959999999999
21
23793.939999999999
31
0.0
0
LINE
5
56e
100
AcDbEntity
8
1-0
6
CONTINUOUS
62
4
100
AcDbLine
10
16371.510000000000
20
27083.650000000001
30
0.0
11
14694.090000000000
21
28172.779999999999
31
0.0
0
LINE
5
56f
100
AcDbEntity
8
1-0
6
CONTINUOUS
62
4
100
AcDbLine
10
25715.230000000000
20
22928.290000000001
30
0.0
11
24970.849999999999
21
23020.000000000000
31
0.0
0
LINE
5
570
100
AcDbEntity
8
1-0
6
CONTINUOUS
62
4
100
AcDbLine
10
25432.240000000002
20
22676.000000000000
30
0.0
11
25184.119999999999
21
22706.570000000000
31
0.0
0
LINE
5
571
100
AcDbEntity
8
1-0
6
CONTINUOUS
62
4
100
AcDbLine
10
15692.120000000001
20
27184.970000000001
30
0.0
11
15063.070000000000
21
27593.400000000001
31
0.0
0
LINE
5
572
100
AcDbEntity
8
1-0
6
CONTINUOUS
62
4
100
AcDbLine
10
15222.389999999999
20
27150.150000000001
30
0.0
11
14549.430000000000
21
26113.689999999999
31
0.0
0
LINE
5
573
100
AcDbEntity
8
1-0
6
CONTINUOUS
62
4
100
AcDbLine
10
12592.309999999999
20
29197.650000000001
30
0.0
11
11963.270000000000
21
29606.070000000000
31
0.0
0
LINE
5
574
100
AcDbEntity
8
1-0
6
CONTINUOUS
62
4
100
AcDbLine
10
28980.000000000000
20
22526.049999999999
30
0.0
11
28235.619999999999
21
22617.759999999998
31
0.0
0
LINE
5
575
100
AcDbEntity
8
1-0
6
CONTINUOUS
62
4
100
AcDbLine
10
40125.120000000003
20
22447.419999999998
30
0.0
11
39407.629999999997
21
22228.939999999999
31
0.0
0
LINE
5
576
100
AcDbEntity
8
1-0
6
CONTINUOUS
62
4
100
AcDbLine
10
12227.430000000000
20
29094.759999999998
30
0.0
11
12017.740000000000
21
29230.900000000001
31
0.0
0
LINE
5
577
100
AcDbEntity
8
1-0
6
CONTINUOUS
62
4
100
AcDbLine
10
12122.580000000000
20
29162.830000000002
30
0.0
11
11622.740000000000
21
28392.970000000001
31
0.0
0
LINE
5
578
100
AcDbEntity
8
1-0
6
CONTINUOUS
62
4
100
AcDbLine
10
13271.709999999999
20
29096.320000000000
30
0.0
11
11594.280000000001
21
30185.450000000001
31
0.0
0
LINE
5
579
100
AcDbEntity
8
1-0
6
CONTINUOUS
62
4
100
AcDbLine
10
38955.040000000001
20
7933.930000000000
30
0.0
11
39198.519999999997
21
7877.210000000000
31
0.0
0
LINE
5
57a
100
AcDbEntity
8
1-0
6
CONTINUOUS
62
4
100
AcDbLine
10
39076.779999999999
20
7905.570000000000
30
0.0
11
39249.779999999999
21
8648.320000000000
31
0.0
0
LINE
5
57b
100
AcDbEntity
8
1-0
6
CONTINUOUS
62
4
100
AcDbLine
10
24721.580000000002
20
11385.100000000000
30
0.0
11
24777.889999999999
21
11604.059999999999
31
0.0
0
LINE
5
57c
100
AcDbEntity
8
1-0
6
CONTINUOUS
62
4
100
AcDbLine
10
38679.220000000001
20
7851.860000000000
30
0.0
11
39409.680000000000
21
7681.720000000000
31
0.0
0
LINE
5
57d
100
AcDbEntity
8
1-0
6
CONTINUOUS
62
4
100
AcDbLine
10
36006.050000000003
20
8474.520000000000
30
0.0
11
36736.510000000002
21
8304.370000000001
31
0.0
0
LINE
5
57e
100
AcDbEntity
8
1-0
6
CONTINUOUS
62
4
100
AcDbLine
10
36281.870000000003
20
8556.580000000000
30
0.0
11
36525.349999999999
21
8499.870000000001
31
0.0
0
LINE
5
57f
100
AcDbEntity
8
1-0
6
CONTINUOUS
62
4
100
AcDbLine
10
21170.189999999999
20
18504.869999999999
30
0.0
11
21106.990000000002
21
18267.689999999999
31
0.0
0
LINE
5
580
100
AcDbEntity
8
1-0
6
CONTINUOUS
62
4
100
AcDbLine
10
19394.480000000000
20
18978.029999999999
30
0.0
11
19152.900000000001
21
19042.400000000001
31
0.0
0
LINE
5
581
100
AcDbEntity
8
1-0
6
CONTINUOUS
62
4
100
AcDbLine
10
21982.950000000001
20
12089.230000000000
30
0.0
11
22225.080000000002
21
12026.980000000000
31
0.0
0
LINE
5
582
100
AcDbEntity
8
1-0
6
CONTINUOUS
62
4
100
AcDbLine
10
22104.009999999998
20
12058.100000000000
30
0.0
11
22130.139999999999
21
12159.709999999999
31
0.0
0
LINE
5
583
100
AcDbEntity
8
1-0
6
CONTINUOUS
62
4
100
AcDbLine
10
19672.740000000002
20
19051.360000000001
30
0.0
11
18948.020000000000
21
19244.470000000001
31
0.0
0
LINE
5
584
100
AcDbEntity
8
1-0
6
CONTINUOUS
62
4
100
AcDbLine
10
21569.240000000002
20
18546.000000000000
30
0.0
11
20844.520000000000
21
18739.110000000001
31
0.0
0
LINE
5
585
100
AcDbEntity
8
1-0
6
CONTINUOUS
62
4
100
AcDbLine
10
21290.980000000000
20
18472.680000000000
30
0.0
11
21049.400000000001
21
18537.049999999999
31
0.0
0
LINE
5
586
100
AcDbEntity
8
1-0
6
CONTINUOUS
62
4
100
AcDbLine
10
32146.290000000001
20
9373.570000000000
30
0.0
11
32876.750000000000
21
9203.410000000000
31
0.0
0
LINE
5
587
100
AcDbEntity
8
1-0
6
CONTINUOUS
62
4
100
AcDbLine
10
27943.080000000002
20
10409.680000000000
30
0.0
11
28669.439999999999
21
10222.930000000000
31
0.0
0
LINE
5
588
100
AcDbEntity
8
1-0
6
CONTINUOUS
62
4
100
AcDbLine
10
24322.910000000000
20
11340.469999999999
30
0.0
11
25049.279999999999
21
11153.709999999999
31
0.0
0
LINE
5
589
100
AcDbEntity
8
1-0
6
CONTINUOUS
62
4
100
AcDbLine
10
32422.110000000001
20
9455.629999999999
30
0.0
11
32665.599999999999
21
9398.920000000000
31
0.0
0
LINE
5
58a
100
AcDbEntity
8
1-0
6
CONTINUOUS
62
4
100
AcDbLine
10
32543.849999999999
20
9427.280000000001
30
0.0
11
32667.110000000001
21
9956.469999999999
31
0.0
0
LINE
5
58b
100
AcDbEntity
8
1-0
6
CONTINUOUS
62
4
100
AcDbLine
10
36403.599999999999
20
8528.230000000000
30
0.0
11
36552.550000000003
21
9167.680000000000
31
0.0
0
LINE
5
58c
100
AcDbEntity
8
1-0
6
CONTINUOUS
62
4
100
AcDbLine
10
24600.520000000000
20
11416.230000000000
30
0.0
11
24842.650000000001
21
11353.969999999999
31
0.0
0
LINE
5
58d
100
AcDbEntity
8
1-0
6
CONTINUOUS
62
4
100
AcDbLine
10
29730.080000000002
20
15806.120000000001
30
0.0
11
29663.599999999999
21
15182.230000000000
31
0.0
0
LINE
5
58e
100
AcDbEntity
8
1-0
6
CONTINUOUS
62
4
100
AcDbLine
10
30784.849999999999
20
16266.969999999999
30
0.0
11
28796.110000000001
21
16478.869999999999
31
0.0
0
LINE
5
58f
100
AcDbEntity
8
1-0
6
CONTINUOUS
62
4
100
AcDbLine
10
30133.169999999998
20
16049.790000000001
30
0.0
11
29387.380000000001
21
16129.260000000000
31
0.0
0
LINE
5
590
100
AcDbEntity
8
1-0
6
CONTINUOUS
62
4
100
AcDbLine
10
28220.680000000000
20
10485.440000000001
30
0.0
11
28462.810000000001
21
10423.190000000001
31
0.0
0
LINE
5
591
100
AcDbEntity
8
1-0
6
CONTINUOUS
62
4
100
AcDbLine
10
28341.750000000000
20
10454.309999999999
30
0.0
11
28439.779999999999
21
10835.629999999999
31
0.0
0
LINE
5
592
100
AcDbEntity
8
1-0
6
CONTINUOUS
62
4
100
AcDbLine
10
29854.380000000001
20
15792.879999999999
30
0.0
11
29605.779999999999
21
15819.370000000001
31
0.0
0
LINE
5
593
100
AcDbEntity
8
1-0
6
CONTINUOUS
62
4
100
AcDbLine
10
51215.930000000000
20
28148.150000000001
30
0.0
11
50996.870000000003
21
28027.700000000001
31
0.0
0
LINE
5
594
100
AcDbEntity
8
1-0
6
CONTINUOUS
62
3
100
AcDbLine
10
62927.739999999998
20
22141.910000000000
30
0.0
11
83587.389999999999
21
25721.669999999998
31
0.0
0
LINE
5
595
100
AcDbEntity
8
1-0
6
CONTINUOUS
62
4
100
AcDbLine
10
51366.360000000001
20
28393.459999999999
30
0.0
11
50709.129999999997
21
28032.130000000001
31
0.0
0
LINE
5
596
100
AcDbEntity
8
1-0
6
CONTINUOUS
62
4
100
AcDbLine
10
49868.739999999998
20
27570.110000000001
30
0.0
11
49211.510000000002
21
27208.779999999999
31
0.0
0
LINE
5
597
100
AcDbEntity
8
1-0
6
CONTINUOUS
62
4
100
AcDbLine
10
49718.320000000000
20
27324.799999999999
30
0.0
11
49499.239999999998
21
27204.349999999999
31
0.0
0
LINE
5
598
100
AcDbEntity
8
1-0
6
CONTINUOUS
62
4
100
AcDbLine
10
51106.389999999999
20
28087.919999999998
30
0.0
11
51326.830000000002
21
27686.970000000001
31
0.0
0
LINE
5
599
100
AcDbEntity
8
1-0
6
CONTINUOUS
62
4
100
AcDbLine
10
44770.379999999997
20
24767.169999999998
30
0.0
11
44113.150000000001
21
24405.849999999999
31
0.0
0
LINE
5
59a
100
AcDbEntity
8
1-0
6
CONTINUOUS
62
4
100
AcDbLine
10
44619.959999999999
20
24521.860000000001
30
0.0
11
44400.889999999999
21
24401.419999999998
31
0.0
0
LINE
5
59b
100
AcDbEntity
8
1-0
6
CONTINUOUS
62
4
100
AcDbLine
10
46483.129999999997
20
25546.169999999998
30
0.0
11
46264.059999999998
21
25425.740000000002
31
0.0
0
LINE
5
59c
100
AcDbEntity
8
1-0
6
CONTINUOUS
62
3
100
AcDbLine
10
47199.169999999998
20
19845.560000000001
30
0.0
11
62927.739999999998
21
22141.910000000000
31
0.0
0
LINE
5
59d
100
AcDbEntity
8
1-0
6
CONTINUOUS
62
4
100
AcDbLine
10
44510.410000000003
20
24461.639999999999
30
0.0
11
44785.029999999999
21
23962.150000000001
31
0.0
0
LINE
5
59e
100
AcDbEntity
8
1-0
6
CONTINUOUS
62
4
100
AcDbLine
10
46633.550000000003
20
25791.490000000002
30
0.0
11
45976.330000000002
21
25430.169999999998
31
0.0
0
LINE
5
59f
100
AcDbEntity
8
1-0
6
CONTINUOUS
62
4
100
AcDbLine
10
25697.299999999999
20
17446.009999999998
30
0.0
11
24972.590000000000
21
17639.130000000001
31
0.0
0
LINE
5
5a0
100
AcDbEntity
8
1-0
6
CONTINUOUS
62
4
100
AcDbLine
10
27893.990000000002
20
16860.669999999998
30
0.0
11
27169.270000000000
21
17053.790000000001
31
0.0
0
LINE
5
5a1
100
AcDbEntity
8
1-0
6
CONTINUOUS
62
4
100
AcDbLine
10
27615.730000000000
20
16787.349999999999
30
0.0
11
27374.150000000001
21
16851.709999999999
31
0.0
0
LINE
5
5a2
100
AcDbEntity
8
1-0
6
CONTINUOUS
62
4
100
AcDbLine
10
19273.689999999999
20
19010.220000000001
30
0.0
11
19249.200000000001
21
18918.290000000001
31
0.0
0
LINE
5
5a3
100
AcDbEntity
8
1-0
6
CONTINUOUS
62
4
100
AcDbLine
10
21705.349999999999
20
12013.469999999999
30
0.0
11
22431.709999999999
21
11826.719999999999
31
0.0
0
LINE
5
5a4
100
AcDbEntity
8
1-0
6
CONTINUOUS
62
4
100
AcDbLine
10
27494.939999999999
20
16819.529999999999
30
0.0
11
27307.000000000000
21
16114.260000000000
31
0.0
0
LINE
5
5a5
100
AcDbEntity
8
1-0
6
CONTINUOUS
62
4
100
AcDbLine
10
25419.040000000001
20
17372.700000000001
30
0.0
11
25177.470000000001
21
17437.060000000001
31
0.0
0
LINE
5
5a6
100
AcDbEntity
8
1-0
6
CONTINUOUS
62
4
100
AcDbLine
10
23527.990000000002
20
18024.060000000001
30
0.0
11
22803.279999999999
21
18217.169999999998
31
0.0
0
LINE
5
5a7
100
AcDbEntity
8
1-0
6
CONTINUOUS
62
4
100
AcDbLine
10
19183.570000000000
20
25056.910000000000
30
0.0
11
18957.439999999999
21
25163.529999999999
31
0.0
0
LINE
5
5a8
100
AcDbEntity
8
1-0
6
CONTINUOUS
62
4
100
AcDbLine
10
49608.769999999997
20
27264.570000000000
30
0.0
11
49845.860000000001
21
26833.340000000000
31
0.0
0
LINE
5
5a9
100
AcDbEntity
8
1-0
6
CONTINUOUS
62
4
100
AcDbLine
10
23249.730000000000
20
17950.740000000002
30
0.0
11
23008.160000000000
21
18015.110000000001
31
0.0
0
LINE
5
5aa
100
AcDbEntity
8
1-0
6
CONTINUOUS
62
4
100
AcDbLine
10
23128.950000000001
20
17982.930000000000
30
0.0
11
23020.910000000000
21
17577.549999999999
31
0.0
0
LINE
5
5ab
100
AcDbEntity
8
1-0
6
CONTINUOUS
62
4
100
AcDbLine
10
25298.259999999998
20
17404.880000000001
30
0.0
11
25151.480000000000
21
16854.099999999999
31
0.0
0
LINE
5
5ac
100
AcDbEntity
8
1-0
6
CONTINUOUS
62
4
100
AcDbLine
10
8403.540000000001
20
21563.930000000000
30
0.0
11
8162.260000000000
21
20593.470000000001
31
0.0
0
LINE
5
5ad
100
AcDbEntity
8
1-0
6
CONTINUOUS
62
4
100
AcDbLine
10
6184.400000000000
20
22373.290000000001
30
0.0
11
4728.720000000000
21
22735.230000000000
31
0.0
0
LINE
5
5ae
100
AcDbEntity
8
1-0
6
CONTINUOUS
62
4
100
AcDbLine
10
9191.690000000001
20
21625.580000000002
30
0.0
11
7736.020000000000
21
21987.509999999998
31
0.0
0
LINE
5
5af
100
AcDbEntity
8
1-0
6
CONTINUOUS
62
4
100
AcDbLine
10
1847.480000000000
20
23193.990000000002
30
0.0
11
1620.910000000000
21
22282.709999999999
31
0.0
0
LINE
5
5b0
100
AcDbEntity
8
1-0
6
CONTINUOUS
62
4
100
AcDbLine
10
5396.250000000000
20
22311.650000000001
30
0.0
11
5166.010000000000
21
21385.650000000001
31
0.0
0
LINE
5
5b1
100
AcDbEntity
8
1-0
6
CONTINUOUS
62
4
100
AcDbLine
10
2635.630000000000
20
23255.639999999999
30
0.0
11
1179.960000000000
21
23617.570000000000
31
0.0
0
LINE
5
5b2
100
AcDbEntity
8
1-0
6
CONTINUOUS
62
4
100
AcDbLine
10
8646.139999999999
20
21503.619999999999
30
0.0
11
8160.930000000000
21
21624.250000000000
31
0.0
0
LINE
5
5b3
100
AcDbEntity
8
1-0
6
CONTINUOUS
62
4
100
AcDbLine
10
5638.850000000000
20
22251.330000000002
30
0.0
11
5153.640000000000
21
22371.970000000001
31
0.0
0
LINE
5
5b4
100
AcDbEntity
8
1-0
6
CONTINUOUS
62
4
100
AcDbLine
10
2090.080000000000
20
23133.669999999998
30
0.0
11
1604.870000000000
21
23254.320000000000
31
0.0
0
LINE
5
5b5
100
AcDbEntity
8
1-0
6
CONTINUOUS
62
4
100
AcDbLine
10
11389.799999999999
20
20821.459999999999
30
0.0
11
11148.510000000000
21
19851.000000000000
31
0.0
0
LINE
5
5b6
100
AcDbEntity
8
1-0
6
CONTINUOUS
62
4
100
AcDbLine
10
46949.080000000002
20
13242.750000000000
30
0.0
11
46670.970000000001
21
11598.389999999999
31
0.0
0
LINE
5
5b7
100
AcDbEntity
8
1-0
6
CONTINUOUS
62
4
100
AcDbLine
10
48030.129999999997
20
13638.020000000000
30
0.0
11
46058.129999999997
21
13971.530000000001
31
0.0
0
LINE
5
5b8
100
AcDbEntity
8
1-0
6
CONTINUOUS
62
4
100
AcDbLine
10
47366.349999999999
20
13461.230000000000
30
0.0
11
46626.849999999999
21
13586.299999999999
31
0.0
0
LINE
5
5b9
100
AcDbEntity
8
1-0
6
CONTINUOUS
62
4
100
AcDbLine
10
52426.250000000000
20
12894.520000000000
30
0.0
11
50454.239999999998
21
13228.030000000001
31
0.0
0
LINE
5
5ba
100
AcDbEntity
8
1-0
6
CONTINUOUS
62
4
100
AcDbLine
10
51345.199999999997
20
12499.250000000000
30
0.0
11
51057.550000000003
21
10798.459999999999
31
0.0
0
LINE
5
5bb
100
AcDbEntity
8
1-0
6
CONTINUOUS
62
4
100
AcDbLine
10
47072.320000000000
20
13221.910000000000
30
0.0
11
46825.830000000002
21
13263.600000000000
31
0.0
0
LINE
5
5bc
100
AcDbEntity
8
1-0
6
CONTINUOUS
62
4
100
AcDbLine
10
36650.419999999998
20
15273.559999999999
30
0.0
11
35910.910000000003
21
15398.629999999999
31
0.0
0
LINE
5
5bd
100
AcDbEntity
8
1-0
6
CONTINUOUS
62
4
100
AcDbLine
10
40777.930000000000
20
7509.320000000000
30
0.0
11
42725.790000000001
21
7055.620000000000
31
0.0
0
LINE
5
5be
100
AcDbEntity
8
1-0
6
CONTINUOUS
62
4
100
AcDbLine
10
41881.160000000003
20
7837.620000000000
30
0.0
11
41980.870000000003
21
8265.670000000000
31
0.0
0
LINE
5
5bf
100
AcDbEntity
8
1-0
6
CONTINUOUS
62
4
100
AcDbLine
10
33235.800000000003
20
15432.590000000000
30
0.0
11
32987.209999999999
21
15459.080000000000
31
0.0
0
LINE
5
5c0
100
AcDbEntity
8
1-0
6
CONTINUOUS
62
4
100
AcDbLine
10
41451.290000000001
20
7645.110000000000
30
0.0
11
42181.739999999998
21
7474.980000000000
31
0.0
0
LINE
5
5c1
100
AcDbEntity
8
1-0
6
CONTINUOUS
62
4
100
AcDbLine
10
41759.419999999998
20
7865.970000000000
30
0.0
11
42002.910000000003
21
7809.250000000000
31
0.0
0
LINE
5
5c2
100
AcDbEntity
8
1-0
6
CONTINUOUS
62
4
100
AcDbLine
10
47024.930000000000
20
6639.480000000000
30
0.0
11
47183.720000000001
21
7321.180000000000
31
0.0
0
LINE
5
5c3
100
AcDbEntity
8
1-0
6
CONTINUOUS
62
4
100
AcDbLine
10
44355.360000000001
20
14259.510000000000
30
0.0
11
42383.360000000001
21
14593.020000000000
31
0.0
0
LINE
5
5c4
100
AcDbEntity
8
1-0
6
CONTINUOUS
62
4
100
AcDbLine
10
43691.580000000002
20
14082.730000000000
30
0.0
11
42952.080000000002
21
14207.790000000001
31
0.0
0
LINE
5
5c5
100
AcDbEntity
8
1-0
6
CONTINUOUS
62
4
100
AcDbLine
10
40801.639999999999
20
14860.530000000001
30
0.0
11
38829.639999999999
21
15194.049999999999
31
0.0
0
LINE
5
5c6
100
AcDbEntity
8
1-0
6
CONTINUOUS
62
4
100
AcDbLine
10
43397.550000000003
20
13843.410000000000
30
0.0
11
43151.050000000003
21
13885.090000000000
31
0.0
0
LINE
5
5c7
100
AcDbEntity
8
1-0
6
CONTINUOUS
62
4
100
AcDbLine
10
43274.300000000003
20
13864.250000000000
30
0.0
11
43004.570000000000
21
12269.420000000000
31
0.0
0
LINE
5
5c8
100
AcDbEntity
8
1-0
6
CONTINUOUS
62
4
100
AcDbLine
10
39720.589999999997
20
14465.270000000000
30
0.0
11
39453.120000000003
21
12883.760000000000
31
0.0
0
LINE
5
5c9
100
AcDbEntity
8
1-0
6
CONTINUOUS
62
4
100
AcDbLine
10
51762.480000000003
20
12717.730000000000
30
0.0
11
51022.970000000001
21
12842.799999999999
31
0.0
0
LINE
5
5ca
100
AcDbEntity
8
1-0
6
CONTINUOUS
62
4
100
AcDbLine
10
51468.440000000002
20
12478.410000000000
30
0.0
11
51221.949999999997
21
12520.100000000000
31
0.0
0
LINE
5
5cb
100
AcDbEntity
8
1-0
6
CONTINUOUS
62
4
100
AcDbLine
10
56295.110000000001
20
11662.110000000001
30
0.0
11
55997.360000000001
21
9901.500000000000
31
0.0
0
LINE
5
5cc
100
AcDbEntity
8
1-0
6
CONTINUOUS
62
4
100
AcDbLine
10
37314.190000000002
20
15450.350000000000
30
0.0
11
35342.190000000002
21
15783.860000000001
31
0.0
0
LINE
5
5cd
100
AcDbEntity
8
1-0
6
CONTINUOUS
62
4
100
AcDbLine
10
40137.870000000003
20
14683.750000000000
30
0.0
11
39398.370000000003
21
14808.809999999999
31
0.0
0
LINE
5
5ce
100
AcDbEntity
8
1-0
6
CONTINUOUS
62
4
100
AcDbLine
10
39843.839999999997
20
14444.430000000000
30
0.0
11
39597.339999999997
21
14486.110000000001
31
0.0
0
LINE
5
5cf
100
AcDbEntity
8
1-0
6
CONTINUOUS
62
4
100
AcDbLine
10
37897.820000000000
20
22228.939999999999
30
0.0
11
35898.050000000003
21
22198.750000000000
31
0.0
0
LINE
5
5d0
100
AcDbEntity
8
1-0
6
CONTINUOUS
62
4
100
AcDbLine
10
37277.199999999997
20
21934.540000000001
30
0.0
11
36527.290000000001
21
21923.220000000001
31
0.0
0
LINE
5
5d1
100
AcDbEntity
8
1-0
6
CONTINUOUS
62
4
100
AcDbLine
10
37031.529999999999
20
21645.799999999999
30
0.0
11
36781.559999999998
21
21642.020000000000
31
0.0
0
LINE
5
5d2
100
AcDbEntity
8
1-0
6
CONTINUOUS
62
4
100
AcDbLine
10
33303.629999999997
20
21589.509999999998
30
0.0
11
33326.290000000001
21
20088.810000000001
31
0.0
0
LINE
5
5d3
100
AcDbEntity
8
1-0
6
CONTINUOUS
62
4
100
AcDbLine
10
14752.340000000000
20
20243.020000000000
30
0.0
11
13296.670000000000
21
20604.950000000001
31
0.0
0
LINE
5
5d4
100
AcDbEntity
8
1-0
6
CONTINUOUS
62
4
100
AcDbLine
10
13964.200000000001
20
20181.369999999999
30
0.0
11
13722.910000000000
21
19210.919999999998
31
0.0
0
LINE
5
5d5
100
AcDbEntity
8
1-0
6
CONTINUOUS
62
4
100
AcDbLine
10
12177.940000000001
20
20883.099999999999
30
0.0
11
10722.270000000000
21
21245.029999999999
31
0.0
0
LINE
5
5d6
100
AcDbEntity
8
1-0
6
CONTINUOUS
62
4
100
AcDbLine
10
11632.400000000000
20
20761.139999999999
30
0.0
11
11147.180000000000
21
20881.770000000000
31
0.0
0
LINE
5
5d7
100
AcDbEntity
8
1-0
6
CONTINUOUS
62
4
100
AcDbLine
10
14206.799999999999
20
20121.049999999999
30
0.0
11
13721.580000000000
21
20241.700000000001
31
0.0
0
LINE
5
5d8
100
AcDbEntity
8
1-0
6
CONTINUOUS
62
4
100
AcDbLine
10
35352.430000000000
20
31174.250000000000
30
0.0
11
38146.940000000002
21
30999.139999999999
31
0.0
0
LINE
5
5d9
100
AcDbEntity
8
1-0
6
CONTINUOUS
62
3
100
AcDbLine
10
52077.199999999997
20
28397.459999999999
30
0.0
11
51061.739999999998
21
28388.599999999999
31
0.0
0
LINE
5
5da
100
AcDbEntity
8
1-0
6
CONTINUOUS
62
3
100
AcDbLine
10
34500.739999999998
20
19607.740000000002
30
0.0
11
37800.410000000003
21
19890.540000000001
31
0.0
0
LINE
5
5db
100
AcDbEntity
8
1-0
6
CONTINUOUS
62
3
100
AcDbLine
10
37800.410000000003
20
19890.540000000001
30
0.0
11
51448.279999999999
21
27756.959999999999
31
0.0
0
LINE
5
5dc
100
AcDbEntity
8
1-0
6
CONTINUOUS
62
4
100
AcDbLine
10
65832.460000000006
20
34548.580000000002
30
0.0
11
66180.169999999998
21
34588.589999999997
31
0.0
0
LINE
5
5dd
100
AcDbEntity
8
1-0
6
CONTINUOUS
62
3
100
AcDbLine
10
52077.199999999997
20
28397.459999999999
30
0.0
11
51448.279999999999
21
27756.959999999999
31
0.0
0
LINE
5
5de
100
AcDbEntity
8
1-0
6
CONTINUOUS
62
3
100
AcDbLine
10
51061.739999999998
20
28388.599999999999
30
0.0
11
42845.870000000003
21
23871.740000000002
31
0.0
0
LINE
5
5df
100
AcDbEntity
8
1-0
6
CONTINUOUS
62
3
100
AcDbLine
10
38412.440000000002
20
22521.740000000002
30
0.0
11
32190.160000000000
21
22427.799999999999
31
0.0
0
LINE
5
5e0
100
AcDbEntity
8
1-0
6
CONTINUOUS
62
3
100
AcDbLine
10
30063.680000000000
20
18679.980000000000
30
0.0
11
33746.540000000001
21
18712.110000000001
31
0.0
0
LINE
5
5e1
100
AcDbEntity
8
1-0
6
CONTINUOUS
62
3
100
AcDbLine
10
33746.540000000001
20
18712.110000000001
30
0.0
11
36585.930000000000
21
19786.450000000001
31
0.0
0
LINE
5
5e2
100
AcDbEntity
8
1-0
6
CONTINUOUS
62
3
100
AcDbLine
10
32190.160000000000
20
22427.799999999999
30
0.0
11
30789.070000000000
21
22877.459999999999
31
0.0
0
LINE
5
5e3
100
AcDbEntity
8
1-0
6
CONTINUOUS
62
3
100
AcDbLine
10
30789.070000000000
20
22877.459999999999
30
0.0
11
24050.610000000001
21
23707.700000000001
31
0.0
0
LINE
5
5e4
100
AcDbEntity
8
1-0
6
CONTINUOUS
62
3
100
AcDbLine
10
42845.870000000003
20
23871.740000000002
30
0.0
11
38412.440000000002
21
22521.740000000002
31
0.0
0
LINE
5
5e5
100
AcDbEntity
8
1-0
6
CONTINUOUS
62
4
100
AcDbLine
10
76224.970000000001
20
36182.309999999998
30
0.0
11
76562.440000000002
21
36275.110000000001
31
0.0
0
LINE
5
5e6
100
AcDbEntity
8
1-0
6
CONTINUOUS
62
4
100
AcDbLine
10
76393.699999999997
20
36228.709999999999
30
0.0
11
75985.919999999998
21
37711.620000000003
31
0.0
0
LINE
5
5e7
100
AcDbEntity
8
1-0
6
CONTINUOUS
62
4
100
AcDbLine
10
60240.889999999999
20
33905.360000000001
30
0.0
11
60588.580000000002
21
33945.360000000001
31
0.0
0
LINE
5
5e8
100
AcDbEntity
8
1-0
6
CONTINUOUS
62
4
100
AcDbLine
10
75967.050000000003
20
35800.250000000000
30
0.0
11
76979.449999999997
21
36078.660000000003
31
0.0
0
LINE
5
5e9
100
AcDbEntity
8
1-0
6
CONTINUOUS
62
4
100
AcDbLine
10
80159.919999999998
20
36893.519999999997
30
0.0
11
82722.800000000003
21
38021.190000000002
31
0.0
0
LINE
5
5ea
100
AcDbEntity
8
1-0
6
CONTINUOUS
62
4
100
AcDbLine
10
80840.009999999995
20
37520.510000000002
30
0.0
11
81801.080000000002
21
37943.389999999999
31
0.0
0
LINE
5
5eb
100
AcDbEntity
8
1-0
6
CONTINUOUS
62
4
100
AcDbLine
10
60414.730000000003
20
33925.349999999999
30
0.0
11
60311.879999999997
21
34819.459999999999
31
0.0
0
LINE
5
5ec
100
AcDbEntity
8
1-0
6
CONTINUOUS
62
4
100
AcDbLine
10
66006.309999999998
20
34568.589999999997
30
0.0
11
65871.750000000000
21
35738.519999999997
31
0.0
0
LINE
5
5ed
100
AcDbEntity
8
1-0
6
CONTINUOUS
62
4
100
AcDbLine
10
69817.940000000002
20
34403.099999999999
30
0.0
11
72599.589999999997
21
34723.080000000002
31
0.0
0
LINE
5
5ee
100
AcDbEntity
8
1-0
6
CONTINUOUS
62
4
100
AcDbLine
10
65519.040000000001
20
34210.559999999998
30
0.0
11
66562.160000000003
21
34330.550000000003
31
0.0
0
LINE
5
5ef
100
AcDbEntity
8
1-0
6
CONTINUOUS
62
4
100
AcDbLine
10
59092.480000000003
20
33169.300000000003
30
0.0
11
61874.129999999997
21
33489.290000000001
31
0.0
0
LINE
5
5f0
100
AcDbEntity
8
1-0
6
CONTINUOUS
62
4
100
AcDbLine
10
59927.449999999997
20
33567.330000000002
30
0.0
11
60970.570000000000
21
33687.320000000000
31
0.0
0
LINE
5
5f1
100
AcDbEntity
8
1-0
6
CONTINUOUS
62
4
100
AcDbLine
10
64684.059999999998
20
33812.519999999997
30
0.0
11
67465.699999999997
21
34132.510000000002
31
0.0
0
LINE
5
5f2
100
AcDbEntity
8
1-0
6
CONTINUOUS
62
4
100
AcDbLine
10
22294.520000000000
20
23590.320000000000
30
0.0
11
21632.349999999999
21
22185.730000000000
31
0.0
0
LINE
5
5f3
100
AcDbEntity
8
1-0
6
CONTINUOUS
62
3
100
AcDbLine
10
41757.199999999997
20
17638.990000000002
30
0.0
11
46171.000000000000
21
21233.630000000001
31
0.0
0
LINE
5
5f4
100
AcDbEntity
8
1-0
6
CONTINUOUS
62
3
100
AcDbLine
10
46171.000000000000
20
21233.630000000001
30
0.0
11
52249.050000000003
21
23318.759999999998
31
0.0
0
LINE
5
5f5
100
AcDbEntity
8
1-0
6
CONTINUOUS
62
4
100
AcDbLine
10
20218.090000000000
20
25199.380000000001
30
0.0
11
18409.040000000001
21
26052.220000000001
31
0.0
0
LINE
5
5f6
100
AcDbEntity
8
1-0
6
CONTINUOUS
62
4
100
AcDbLine
10
19531.230000000000
20
25208.099999999999
30
0.0
11
18852.840000000000
21
25527.919999999998
31
0.0
0
LINE
5
5f7
100
AcDbEntity
8
1-0
6
CONTINUOUS
62
4
100
AcDbLine
10
22407.590000000000
20
23537.020000000000
30
0.0
11
22181.450000000001
21
23643.630000000001
31
0.0
0
LINE
5
5f8
100
AcDbEntity
8
1-0
6
CONTINUOUS
62
3
100
AcDbLine
10
16908.939999999999
20
27074.500000000000
30
0.0
11
8223.400000000000
21
32713.930000000000
31
0.0
0
LINE
5
5f9
100
AcDbEntity
8
1-0
6
CONTINUOUS
62
3
100
AcDbLine
10
64172.180000000000
20
25073.880000000001
30
0.0
11
67214.520000000004
21
25735.459999999999
31
0.0
0
LINE
5
5fa
100
AcDbEntity
8
1-0
6
CONTINUOUS
62
3
100
AcDbLine
10
56309.580000000002
20
23735.209999999999
30
0.0
11
59610.349999999999
21
23891.009999999998
31
0.0
0
LINE
5
5fb
100
AcDbEntity
8
1-0
6
CONTINUOUS
62
3
100
AcDbLine
10
59610.349999999999
20
23891.009999999998
30
0.0
11
62143.580000000002
21
24675.150000000001
31
0.0
0
LINE
5
5fc
100
AcDbEntity
8
1-0
6
CONTINUOUS
62
3
100
AcDbLine
10
6657.130000000000
20
32525.509999999998
30
0.0
11
8223.400000000000
21
32713.930000000000
31
0.0
0
LINE
5
5fd
100
AcDbEntity
8
1-0
6
CONTINUOUS
62
3
100
AcDbLine
10
52249.050000000003
20
23318.759999999998
30
0.0
11
56309.580000000002
21
23735.209999999999
31
0.0
0
LINE
5
5fe
100
AcDbEntity
8
1-0
6
CONTINUOUS
62
3
100
AcDbLine
10
62143.580000000002
20
24675.150000000001
30
0.0
11
64172.180000000000
21
25073.880000000001
31
0.0
0
LINE
5
5ff
100
AcDbEntity
8
1-0
6
CONTINUOUS
62
3
100
AcDbLine
10
24713.270000000000
20
20538.369999999999
30
0.0
11
31827.220000000001
21
20346.430000000000
31
0.0
0
LINE
5
600
100
AcDbEntity
8
1-0
6
CONTINUOUS
62
3
100
AcDbLine
10
31827.220000000001
20
20346.430000000000
30
0.0
11
34500.739999999998
21
19607.740000000002
31
0.0
0
LINE
5
601
100
AcDbEntity
8
1-0
6
CONTINUOUS
62
3
100
AcDbLine
10
9134.500000000000
20
30181.779999999999
30
0.0
11
16039.930000000000
21
24780.840000000000
31
0.0
0
LINE
5
602
100
AcDbEntity
8
1-0
6
CONTINUOUS
62
4
100
AcDbLine
10
19314.779999999999
20
12628.120000000001
30
0.0
11
20041.150000000001
21
12441.360000000001
31
0.0
0
LINE
5
603
100
AcDbEntity
8
1-0
6
CONTINUOUS
62
3
100
AcDbLine
10
4330.500000000000
20
24121.520000000000
30
0.0
11
30063.680000000000
21
18679.980000000000
31
0.0
0
LINE
5
604
100
AcDbEntity
8
1-0
6
CONTINUOUS
62
3
100
AcDbLine
10
6657.130000000000
20
32525.509999999998
30
0.0
11
9134.500000000000
21
30181.779999999999
31
0.0
0
LINE
5
605
100
AcDbEntity
8
1-0
6
CONTINUOUS
62
3
100
AcDbLine
10
16039.930000000000
20
24780.840000000000
30
0.0
11
24713.270000000000
21
20538.369999999999
31
0.0
0
LINE
5
606
100
AcDbEntity
8
1-0
6
CONTINUOUS
62
3
100
AcDbLine
10
67214.520000000004
20
25735.459999999999
30
0.0
11
72006.259999999995
21
26541.779999999999
31
0.0
0
LINE
5
607
100
AcDbEntity
8
1-0
6
CONTINUOUS
62
3
100
AcDbLine
10
72006.259999999995
20
26541.779999999999
30
0.0
11
83708.529999999999
21
29081.369999999999
31
0.0
0
LINE
5
608
100
AcDbEntity
8
1-0
6
CONTINUOUS
62
4
100
AcDbLine
10
22755.240000000002
20
23688.200000000001
30
0.0
11
22076.849999999999
21
24008.029999999999
31
0.0
0
LINE
5
609
100
AcDbEntity
8
1-0
6
CONTINUOUS
62
3
100
AcDbLine
10
24050.610000000001
20
23707.700000000001
30
0.0
11
16908.939999999999
21
27074.500000000000
31
0.0
0
LINE
5
60a
100
AcDbEntity
8
1-0
6
CONTINUOUS
62
4
100
AcDbLine
10
23442.099999999999
20
23679.480000000000
30
0.0
11
21633.049999999999
21
24532.330000000002
31
0.0
0
LINE
5
60b
100
AcDbEntity
8
1-0
6
CONTINUOUS
62
4
100
AcDbLine
10
81039.539999999994
20
37936.059999999998
30
0.0
11
81359.899999999994
21
38077.029999999999
31
0.0
0
LINE
5
60c
100
AcDbEntity
8
1-0
6
CONTINUOUS
62
4
100
AcDbLine
10
81199.710000000006
20
38006.550000000003
30
0.0
11
80645.000000000000
21
39267.300000000003
31
0.0
0
LINE
5
60d
100
AcDbEntity
8
1-0
6
CONTINUOUS
62
4
100
AcDbLine
10
41687.949999999997
20
31439.000000000000
30
0.0
11
42732.750000000000
21
31543.180000000000
31
0.0
0
LINE
5
60e
100
AcDbEntity
8
1-0
6
CONTINUOUS
62
4
100
AcDbLine
10
45607.750000000000
20
31551.400000000001
30
0.0
11
48385.610000000001
21
31902.810000000001
31
0.0
0
LINE
5
60f
100
AcDbEntity
8
1-0
6
CONTINUOUS
62
4
100
AcDbLine
10
46431.910000000003
20
32008.450000000001
30
0.0
11
47473.610000000001
21
32140.230000000000
31
0.0
0
LINE
5
610
100
AcDbEntity
8
1-0
6
CONTINUOUS
62
4
100
AcDbLine
10
40851.980000000003
20
31003.889999999999
30
0.0
11
43638.169999999998
21
31281.730000000000
31
0.0
0
LINE
5
611
100
AcDbEntity
8
1-0
6
CONTINUOUS
62
4
100
AcDbLine
10
36247.599999999999
20
31468.860000000001
30
0.0
11
37295.540000000001
21
31403.180000000000
31
0.0
0
LINE
5
612
100
AcDbEntity
8
1-0
6
CONTINUOUS
62
4
100
AcDbLine
10
36618.800000000003
20
31796.270000000000
30
0.0
11
36968.120000000003
21
31774.380000000001
31
0.0
0
LINE
5
613
100
AcDbEntity
8
1-0
6
CONTINUOUS
62
4
100
AcDbLine
10
42001.489999999998
20
31821.990000000002
30
0.0
11
42349.750000000000
21
31856.720000000001
31
0.0
0
LINE
5
614
100
AcDbEntity
8
1-0
6
CONTINUOUS
62
4
100
AcDbLine
10
75202.919999999998
20
35278.970000000001
30
0.0
11
77902.690000000002
21
36021.419999999998
31
0.0
0
LINE
5
615
100
AcDbEntity
8
1-0
6
CONTINUOUS
62
4
100
AcDbLine
10
70652.919999999998
20
34801.129999999997
30
0.0
11
71696.039999999994
21
34921.129999999997
31
0.0
0
LINE
5
616
100
AcDbEntity
8
1-0
6
CONTINUOUS
62
4
100
AcDbLine
10
70966.350000000006
20
35139.160000000003
30
0.0
11
71314.050000000003
21
35179.160000000003
31
0.0
0
LINE
5
617
100
AcDbEntity
8
1-0
6
CONTINUOUS
62
4
100
AcDbLine
10
42175.620000000003
20
31839.349999999999
30
0.0
11
42071.430000000000
21
32884.180000000000
31
0.0
0
LINE
5
618
100
AcDbEntity
8
1-0
6
CONTINUOUS
62
4
100
AcDbLine
10
54985.489999999998
20
33300.809999999998
30
0.0
11
54882.639999999999
21
34194.910000000003
31
0.0
0
LINE
5
619
100
AcDbEntity
8
1-0
6
CONTINUOUS
62
4
100
AcDbLine
10
71140.190000000002
20
35159.160000000003
30
0.0
11
70979.839999999997
21
36553.250000000000
31
0.0
0
LINE
5
61a
100
AcDbEntity
8
1-0
6
CONTINUOUS
62
4
100
AcDbLine
10
49976.510000000002
20
32104.070000000000
30
0.0
11
52754.370000000003
21
32455.470000000001
31
0.0
0
LINE
5
61b
100
AcDbEntity
8
1-0
6
CONTINUOUS
62
4
100
AcDbLine
10
50800.669999999998
20
32561.110000000001
30
0.0
11
51842.370000000003
21
32692.900000000001
31
0.0
0
LINE
5
61c
100
AcDbEntity
8
1-0
6
CONTINUOUS
62
4
100
AcDbLine
10
46735.209999999999
20
32399.599999999999
30
0.0
11
47082.449999999997
21
32443.529999999999
31
0.0
0
LINE
5
61d
100
AcDbEntity
8
1-0
6
CONTINUOUS
62
4
100
AcDbLine
10
46908.839999999997
20
32421.570000000000
30
0.0
11
46807.370000000003
21
33223.620000000003
31
0.0
0
LINE
5
61e
100
AcDbEntity
8
1-0
6
CONTINUOUS
62
4
100
AcDbLine
10
51277.599999999999
20
32974.239999999998
30
0.0
11
51192.209999999999
21
33649.180000000000
31
0.0
0
LINE
5
61f
100
AcDbEntity
8
1-0
6
CONTINUOUS
62
4
100
AcDbLine
10
53663.230000000003
20
32544.740000000002
30
0.0
11
56444.879999999997
21
32864.730000000003
31
0.0
0
LINE
5
620
100
AcDbEntity
8
1-0
6
CONTINUOUS
62
4
100
AcDbLine
10
36793.459999999999
20
31785.320000000000
30
0.0
11
36859.139999999999
21
32833.279999999999
31
0.0
0
LINE
5
621
100
AcDbEntity
8
1-0
6
CONTINUOUS
62
4
100
AcDbLine
10
51103.970000000001
20
32952.269999999997
30
0.0
11
51451.209999999999
21
32996.199999999997
31
0.0
0
LINE
5
622
100
AcDbEntity
8
1-0
6
CONTINUOUS
62
4
100
AcDbLine
10
54498.209999999999
20
32942.779999999999
30
0.0
11
55541.330000000002
21
33062.769999999997
31
0.0
0
LINE
5
623
100
AcDbEntity
8
1-0
6
CONTINUOUS
62
4
100
AcDbLine
10
54811.639999999999
20
33280.809999999998
30
0.0
11
55159.349999999999
21
33320.800000000003
31
0.0
0
LINE
5
624
100
AcDbEntity
8
1-0
6
CONTINUOUS
62
3
100
AcDbLine
10
106955.009999999990
20
69833.479999999996
30
0.0
11
106506.720000000000
21
69612.039999999994
31
0.0
0
LINE
5
625
100
AcDbEntity
8
1-0
6
CONTINUOUS
62
3
100
AcDbLine
10
106506.720000000000
20
69612.039999999994
30
0.0
11
106058.420000000000
21
69390.649999999994
31
0.0
0
LINE
5
626
100
AcDbEntity
8
1-0
6
CONTINUOUS
62
3
100
AcDbLine
10
106058.420000000000
20
69390.649999999994
30
0.0
11
105610.050000000000
21
69169.360000000001
31
0.0
0
LINE
5
627
100
AcDbEntity
8
1-0
6
CONTINUOUS
62
3
100
AcDbLine
10
105610.050000000000
20
69169.360000000001
30
0.0
11
105161.620000000000
21
68948.240000000005
31
0.0
0
LINE
5
628
100
AcDbEntity
8
1-0
6
CONTINUOUS
62
3
100
AcDbLine
10
105161.620000000000
20
68948.240000000005
30
0.0
11
104713.080000000000
21
68727.330000000002
31
0.0
0
LINE
5
629
100
AcDbEntity
8
1-0
6
CONTINUOUS
62
3
100
AcDbLine
10
104713.080000000000
20
68727.330000000002
30
0.0
11
104264.390000000000
21
68506.699999999997
31
0.0
0
LINE
5
62a
100
AcDbEntity
8
1-0
6
CONTINUOUS
62
3
100
AcDbLine
10
104264.390000000000
20
68506.699999999997
30
0.0
11
103815.550000000000
21
68286.389999999999
31
0.0
0
LINE
5
62b
100
AcDbEntity
8
1-0
6
CONTINUOUS
62
3
100
AcDbLine
10
103815.550000000000
20
68286.389999999999
30
0.0
11
103366.509999999990
21
68066.460000000006
31
0.0
0
LINE
5
62c
100
AcDbEntity
8
1-0
6
CONTINUOUS
62
3
100
AcDbLine
10
103366.509999999990
20
68066.460000000006
30
0.0
11
102917.280000000000
21
67846.949999999997
31
0.0
0
LINE
5
62d
100
AcDbEntity
8
1-0
6
CONTINUOUS
62
3
100
AcDbLine
10
102917.280000000000
20
67846.949999999997
30
0.0
11
102467.800000000000
21
67627.929999999993
31
0.0
0
LINE
5
62e
100
AcDbEntity
8
1-0
6
CONTINUOUS
62
3
100
AcDbLine
10
102467.800000000000
20
67627.929999999993
30
0.0
11
102018.039999999990
21
67409.449999999997
31
0.0
0
LINE
5
62f
100
AcDbEntity
8
1-0
6
CONTINUOUS
62
3
100
AcDbLine
10
102018.039999999990
20
67409.449999999997
30
0.0
11
101568.020000000000
21
67191.559999999998
31
0.0
0
LINE
5
630
100
AcDbEntity
8
1-0
6
CONTINUOUS
62
3
100
AcDbLine
10
101568.020000000000
20
67191.559999999998
30
0.0
11
101117.660000000000
21
66974.330000000002
31
0.0
0
LINE
5
631
100
AcDbEntity
8
1-0
6
CONTINUOUS
62
3
100
AcDbLine
10
101117.660000000000
20
66974.330000000002
30
0.0
11
100666.960000000010
21
66757.789999999994
31
0.0
0
LINE
5
632
100
AcDbEntity
8
1-0
6
CONTINUOUS
62
3
100
AcDbLine
10
100666.960000000010
20
66757.789999999994
30
0.0
11
100215.870000000000
21
66542.000000000000
31
0.0
0
LINE
5
633
100
AcDbEntity
8
1-0
6
CONTINUOUS
62
3
100
AcDbLine
10
100215.870000000000
20
66542.000000000000
30
0.0
11
99764.410000000003
21
66327.039999999994
31
0.0
0
LINE
5
634
100
AcDbEntity
8
1-0
6
CONTINUOUS
62
3
100
AcDbLine
10
99764.410000000003
20
66327.039999999994
30
0.0
11
99312.509999999995
21
66112.929999999993
31
0.0
0
LINE
5
635
100
AcDbEntity
8
1-0
6
CONTINUOUS
62
3
100
AcDbLine
10
99312.509999999995
20
66112.929999999993
30
0.0
11
98860.169999999998
21
65899.690000000002
31
0.0
0
LINE
5
636
100
AcDbEntity
8
1-0
6
CONTINUOUS
62
3
100
AcDbLine
10
98860.169999999998
20
65899.690000000002
30
0.0
11
98407.410000000003
21
65687.350000000006
31
0.0
0
LINE
5
637
100
AcDbEntity
8
1-0
6
CONTINUOUS
62
3
100
AcDbLine
10
98407.410000000003
20
65687.350000000006
30
0.0
11
97954.229999999996
21
65475.930000000000
31
0.0
0
LINE
5
638
100
AcDbEntity
8
1-0
6
CONTINUOUS
62
3
100
AcDbLine
10
97954.229999999996
20
65475.930000000000
30
0.0
11
97500.610000000001
21
65265.430000000000
31
0.0
0
LINE
5
639
100
AcDbEntity
8
1-0
6
CONTINUOUS
62
3
100
AcDbLine
10
97500.610000000001
20
65265.430000000000
30
0.0
11
97046.529999999999
21
65055.860000000001
31
0.0
0
LINE
5
63a
100
AcDbEntity
8
1-0
6
CONTINUOUS
62
3
100
AcDbLine
10
97046.529999999999
20
65055.860000000001
30
0.0
11
96592.029999999999
21
64847.250000000000
31
0.0
0
LINE
5
63b
100
AcDbEntity
8
1-0
6
CONTINUOUS
62
3
100
AcDbLine
10
96592.029999999999
20
64847.250000000000
30
0.0
11
96137.080000000002
21
64639.599999999999
31
0.0
0
LINE
5
63c
100
AcDbEntity
8
1-0
6
CONTINUOUS
62
3
100
AcDbLine
10
96137.080000000002
20
64639.599999999999
30
0.0
11
95681.690000000002
21
64432.940000000002
31
0.0
0
LINE
5
63d
100
AcDbEntity
8
1-0
6
CONTINUOUS
62
3
100
AcDbLine
10
95681.690000000002
20
64432.940000000002
30
0.0
11
95225.869999999995
21
64227.260000000002
31
0.0
0
LINE
5
63e
100
AcDbEntity
8
1-0
6
CONTINUOUS
62
3
100
AcDbLine
10
95225.869999999995
20
64227.260000000002
30
0.0
11
94769.580000000002
21
64022.580000000002
31
0.0
0
LINE
5
63f
100
AcDbEntity
8
1-0
6
CONTINUOUS
62
3
100
AcDbLine
10
94769.580000000002
20
64022.580000000002
30
0.0
11
94312.860000000001
21
63818.930000000000
31
0.0
0
LINE
5
640
100
AcDbEntity
8
1-0
6
CONTINUOUS
62
3
100
AcDbLine
10
94312.860000000001
20
63818.930000000000
30
0.0
11
93855.690000000002
21
63616.309999999998
31
0.0
0
LINE
5
641
100
AcDbEntity
8
1-0
6
CONTINUOUS
62
3
100
AcDbLine
10
93855.690000000002
20
63616.309999999998
30
0.0
11
93398.070000000007
21
63414.730000000003
31
0.0
0
LINE
5
642
100
AcDbEntity
8
1-0
6
CONTINUOUS
62
3
100
AcDbLine
10
93398.070000000007
20
63414.730000000003
30
0.0
11
92939.990000000005
21
63214.220000000001
31
0.0
0
LINE
5
643
100
AcDbEntity
8
1-0
6
CONTINUOUS
62
3
100
AcDbLine
10
92939.990000000005
20
63214.220000000001
30
0.0
11
92481.470000000001
21
63014.779999999999
31
0.0
0
LINE
5
644
100
AcDbEntity
8
1-0
6
CONTINUOUS
62
3
100
AcDbLine
10
92481.470000000001
20
63014.779999999999
30
0.0
11
92022.500000000000
21
62816.419999999998
31
0.0
0
LINE
5
645
100
AcDbEntity
8
1-0
6
CONTINUOUS
62
3
100
AcDbLine
10
92022.500000000000
20
62816.419999999998
30
0.0
11
91563.059999999998
21
62619.169999999998
31
0.0
0
LINE
5
646
100
AcDbEntity
8
1-0
6
CONTINUOUS
62
3
100
AcDbLine
10
91563.059999999998
20
62619.169999999998
30
0.0
11
91103.169999999998
21
62423.029999999999
31
0.0
0
LINE
5
647
100
AcDbEntity
8
1-0
6
CONTINUOUS
62
3
100
AcDbLine
10
91103.169999999998
20
62423.029999999999
30
0.0
11
90642.809999999998
21
62228.010000000002
31
0.0
0
LINE
5
648
100
AcDbEntity
8
1-0
6
CONTINUOUS
62
3
100
AcDbLine
10
90642.809999999998
20
62228.010000000002
30
0.0
11
90182.000000000000
21
62034.150000000001
31
0.0
0
LINE
5
649
100
AcDbEntity
8
1-0
6
CONTINUOUS
62
3
100
AcDbLine
10
90182.000000000000
20
62034.150000000001
30
0.0
11
89720.729999999996
21
61841.440000000002
31
0.0
0
LINE
5
64a
100
AcDbEntity
8
1-0
6
CONTINUOUS
62
3
100
AcDbLine
10
89720.729999999996
20
61841.440000000002
30
0.0
11
89259.020000000004
21
61649.849999999999
31
0.0
0
LINE
5
64b
100
AcDbEntity
8
1-0
6
CONTINUOUS
62
3
100
AcDbLine
10
89259.020000000004
20
61649.849999999999
30
0.0
11
88796.850000000006
21
61459.320000000000
31
0.0
0
LINE
5
64c
100
AcDbEntity
8
1-0
6
CONTINUOUS
62
3
100
AcDbLine
10
88796.850000000006
20
61459.320000000000
30
0.0
11
88334.259999999995
21
61269.820000000000
31
0.0
0
LINE
5
64d
100
AcDbEntity
8
1-0
6
CONTINUOUS
62
3
100
AcDbLine
10
88334.259999999995
20
61269.820000000000
30
0.0
11
87871.300000000003
21
61081.309999999998
31
0.0
0
LINE
5
64e
100
AcDbEntity
8
1-0
6
CONTINUOUS
62
3
100
AcDbLine
10
87871.300000000003
20
61081.309999999998
30
0.0
11
87407.940000000002
21
60893.709999999999
31
0.0
0
LINE
5
64f
100
AcDbEntity
8
1-0
6
CONTINUOUS
62
3
100
AcDbLine
10
87407.940000000002
20
60893.709999999999
30
0.0
11
86944.210000000006
21
60706.980000000003
31
0.0
0
LINE
5
650
100
AcDbEntity
8
1-0
6
CONTINUOUS
62
3
100
AcDbLine
10
86944.210000000006
20
60706.980000000003
30
0.0
11
86480.110000000001
21
60521.070000000000
31
0.0
0
LINE
5
651
100
AcDbEntity
8
1-0
6
CONTINUOUS
62
3
100
AcDbLine
10
86480.110000000001
20
60521.070000000000
30
0.0
11
86015.690000000002
21
60335.919999999998
31
0.0
0
LINE
5
652
100
AcDbEntity
8
1-0
6
CONTINUOUS
62
3
100
AcDbLine
10
86015.690000000002
20
60335.919999999998
30
0.0
11
85550.960000000006
21
60151.500000000000
31
0.0
0
LINE
5
653
100
AcDbEntity
8
1-0
6
CONTINUOUS
62
3
100
AcDbLine
10
85550.960000000006
20
60151.500000000000
30
0.0
11
85085.919999999998
21
59967.750000000000
31
0.0
0
LINE
5
654
100
AcDbEntity
8
1-0
6
CONTINUOUS
62
3
100
AcDbLine
10
85085.919999999998
20
59967.750000000000
30
0.0
11
84620.600000000006
21
59784.620000000003
31
0.0
0
LINE
5
655
100
AcDbEntity
8
1-0
6
CONTINUOUS
62
3
100
AcDbLine
10
84620.600000000006
20
59784.620000000003
30
0.0
11
84155.009999999995
21
59602.050000000003
31
0.0
0
LINE
5
656
100
AcDbEntity
8
1-0
6
CONTINUOUS
62
3
100
AcDbLine
10
84155.009999999995
20
59602.050000000003
30
0.0
11
83689.160000000003
21
59420.000000000000
31
0.0
0
LINE
5
657
100
AcDbEntity
8
1-0
6
CONTINUOUS
62
3
100
AcDbLine
10
83689.160000000003
20
59420.000000000000
30
0.0
11
83223.080000000002
21
59238.419999999998
31
0.0
0
LINE
5
658
100
AcDbEntity
8
1-0
6
CONTINUOUS
62
3
100
AcDbLine
10
83223.080000000002
20
59238.419999999998
30
0.0
11
82756.770000000004
21
59057.239999999998
31
0.0
0
LINE
5
659
100
AcDbEntity
8
1-0
6
CONTINUOUS
62
3
100
AcDbLine
10
82756.770000000004
20
59057.239999999998
30
0.0
11
82290.259999999995
21
58876.430000000000
31
0.0
0
LINE
5
65a
100
AcDbEntity
8
1-0
6
CONTINUOUS
62
3
100
AcDbLine
10
82290.259999999995
20
58876.430000000000
30
0.0
11
81823.529999999999
21
58696.089999999997
31
0.0
0
LINE
5
65b
100
AcDbEntity
8
1-0
6
CONTINUOUS
62
3
100
AcDbLine
10
81823.529999999999
20
58696.089999999997
30
0.0
11
81356.449999999997
21
58516.589999999997
31
0.0
0
LINE
5
65c
100
AcDbEntity
8
1-0
6
CONTINUOUS
62
3
100
AcDbLine
10
81356.449999999997
20
58516.589999999997
30
0.0
11
80888.899999999994
21
58338.300000000003
31
0.0
0
LINE
5
65d
100
AcDbEntity
8
1-0
6
CONTINUOUS
62
3
100
AcDbLine
10
80888.899999999994
20
58338.300000000003
30
0.0
11
80420.759999999995
21
58161.629999999997
31
0.0
0
LINE
5
65e
100
AcDbEntity
8
1-0
6
CONTINUOUS
62
3
100
AcDbLine
10
80420.759999999995
20
58161.629999999997
30
0.0
11
79951.899999999994
21
57986.989999999998
31
0.0
0
LINE
5
65f
100
AcDbEntity
8
1-0
6
CONTINUOUS
62
3
100
AcDbLine
10
79951.899999999994
20
57986.989999999998
30
0.0
11
79482.199999999997
21
57814.730000000003
31
0.0
0
LINE
5
660
100
AcDbEntity
8
1-0
6
CONTINUOUS
62
3
100
AcDbLine
10
79482.199999999997
20
57814.730000000003
30
0.0
11
79011.559999999998
21
57645.290000000001
31
0.0
0
LINE
5
661
100
AcDbEntity
8
1-0
6
CONTINUOUS
62
3
100
AcDbLine
10
79011.559999999998
20
57645.290000000001
30
0.0
11
78539.839999999997
21
57479.029999999999
31
0.0
0
LINE
5
662
100
AcDbEntity
8
1-0
6
CONTINUOUS
62
3
100
AcDbLine
10
78539.839999999997
20
57479.029999999999
30
0.0
11
78066.919999999998
21
57316.360000000001
31
0.0
0
LINE
5
663
100
AcDbEntity
8
1-0
6
CONTINUOUS
62
3
100
AcDbLine
10
78066.919999999998
20
57316.360000000001
30
0.0
11
77592.660000000003
21
57157.660000000003
31
0.0
0
LINE
5
664
100
AcDbEntity
8
1-0
6
CONTINUOUS
62
3
100
AcDbLine
10
77592.660000000003
20
57157.660000000003
30
0.0
11
77116.990000000005
21
57003.349999999999
31
0.0
0
LINE
5
665
100
AcDbEntity
8
1-0
6
CONTINUOUS
62
3
100
AcDbLine
10
77116.990000000005
20
57003.349999999999
30
0.0
11
76639.720000000001
21
56853.790000000001
31
0.0
0
LINE
5
666
100
AcDbEntity
8
1-0
6
CONTINUOUS
62
3
100
AcDbLine
10
76639.720000000001
20
56853.790000000001
30
0.0
11
76160.770000000004
21
56709.400000000001
31
0.0
0
LINE
5
667
100
AcDbEntity
8
1-0
6
CONTINUOUS
62
3
100
AcDbLine
10
76160.770000000004
20
56709.400000000001
30
0.0
11
75680.029999999999
21
56570.550000000003
31
0.0
0
LINE
5
668
100
AcDbEntity
8
1-0
6
CONTINUOUS
62
3
100
AcDbLine
10
75680.029999999999
20
56570.550000000003
30
0.0
11
75197.350000000006
21
56437.660000000003
31
0.0
0
LINE
5
669
100
AcDbEntity
8
1-0
6
CONTINUOUS
62
3
100
AcDbLine
10
75197.350000000006
20
56437.660000000003
30
0.0
11
74712.610000000001
21
56311.110000000001
31
0.0
0
LINE
5
66a
100
AcDbEntity
8
1-0
6
CONTINUOUS
62
3
100
AcDbLine
10
74712.610000000001
20
56311.110000000001
30
0.0
11
74225.699999999997
21
56191.300000000003
31
0.0
0
LINE
5
66b
100
AcDbEntity
8
1-0
6
CONTINUOUS
62
3
100
AcDbLine
10
74225.699999999997
20
56191.300000000003
30
0.0
11
73736.490000000005
21
56078.599999999999
31
0.0
0
LINE
5
66c
100
AcDbEntity
8
1-0
6
CONTINUOUS
62
3
100
AcDbLine
10
73736.490000000005
20
56078.599999999999
30
0.0
11
73244.869999999995
21
55973.430000000000
31
0.0
0
LINE
5
66d
100
AcDbEntity
8
1-0
6
CONTINUOUS
62
3
100
AcDbLine
10
73244.869999999995
20
55973.430000000000
30
0.0
11
72750.710000000006
21
55876.180000000000
31
0.0
0
LINE
5
66e
100
AcDbEntity
8
1-0
6
CONTINUOUS
62
3
100
AcDbLine
10
72750.710000000006
20
55876.180000000000
30
0.0
11
72254.029999999999
21
55787.730000000003
31
0.0
0
LINE
5
66f
100
AcDbEntity
8
1-0
6
CONTINUOUS
62
3
100
AcDbLine
10
72254.029999999999
20
55787.730000000003
30
0.0
11
71755.440000000002
21
55710.480000000003
31
0.0
0
LINE
5
670
100
AcDbEntity
8
1-0
6
CONTINUOUS
62
3
100
AcDbLine
10
71755.440000000002
20
55710.480000000003
30
0.0
11
71255.539999999994
21
55647.139999999999
31
0.0
0
LINE
5
671
100
AcDbEntity
8
1-0
6
CONTINUOUS
62
3
100
AcDbLine
10
71255.539999999994
20
55647.139999999999
30
0.0
11
70754.979999999996
21
55600.389999999999
31
0.0
0
LINE
5
672
100
AcDbEntity
8
1-0
6
CONTINUOUS
62
3
100
AcDbLine
10
70754.979999999996
20
55600.389999999999
30
0.0
11
70254.460000000006
21
55572.949999999997
31
0.0
0
LINE
5
673
100
AcDbEntity
8
1-0
6
CONTINUOUS
62
3
100
AcDbLine
10
70254.460000000006
20
55572.949999999997
30
0.0
11
69754.580000000002
21
55567.489999999998
31
0.0
0
LINE
5
674
100
AcDbEntity
8
1-0
6
CONTINUOUS
62
3
100
AcDbLine
10
69754.580000000002
20
55567.489999999998
30
0.0
11
69256.020000000004
21
55586.720000000001
31
0.0
0
LINE
5
675
100
AcDbEntity
8
1-0
6
CONTINUOUS
62
3
100
AcDbLine
10
69256.020000000004
20
55586.720000000001
30
0.0
11
68759.440000000002
21
55633.330000000002
31
0.0
0
LINE
5
676
100
AcDbEntity
8
1-0
6
CONTINUOUS
62
3
100
AcDbLine
10
68759.440000000002
20
55633.330000000002
30
0.0
11
68265.550000000003
21
55708.930000000000
31
0.0
0
LINE
5
677
100
AcDbEntity
8
1-0
6
CONTINUOUS
62
3
100
AcDbLine
10
68265.550000000003
20
55708.930000000000
30
0.0
11
67775.399999999994
21
55812.330000000002
31
0.0
0
LINE
5
678
100
AcDbEntity
8
1-0
6
CONTINUOUS
62
3
100
AcDbLine
10
67775.399999999994
20
55812.330000000002
30
0.0
11
67290.020000000004
21
55941.800000000003
31
0.0
0
LINE
5
679
100
AcDbEntity
8
1-0
6
CONTINUOUS
62
3
100
AcDbLine
10
67290.020000000004
20
55941.800000000003
30
0.0
11
66810.470000000001
21
56095.720000000001
31
0.0
0
LINE
5
67a
100
AcDbEntity
8
1-0
6
CONTINUOUS
62
3
100
AcDbLine
10
66810.470000000001
20
56095.720000000001
30
0.0
11
66337.770000000004
21
56272.370000000003
31
0.0
0
LINE
5
67b
100
AcDbEntity
8
1-0
6
CONTINUOUS
62
3
100
AcDbLine
10
66337.770000000004
20
56272.370000000003
30
0.0
11
65873.039999999994
21
56470.099999999999
31
0.0
0
LINE
5
67c
100
AcDbEntity
8
1-0
6
CONTINUOUS
62
3
100
AcDbLine
10
65873.039999999994
20
56470.099999999999
30
0.0
11
65417.279999999999
21
56687.230000000003
31
0.0
0
LINE
5
67d
100
AcDbEntity
8
1-0
6
CONTINUOUS
62
3
100
AcDbLine
10
65417.279999999999
20
56687.230000000003
30
0.0
11
64971.540000000001
21
56922.089999999997
31
0.0
0
LINE
5
67e
100
AcDbEntity
8
1-0
6
CONTINUOUS
62
3
100
AcDbLine
10
64971.540000000001
20
56922.089999999997
30
0.0
11
64536.870000000003
21
57173.629999999997
31
0.0
0
LINE
5
67f
100
AcDbEntity
8
1-0
6
CONTINUOUS
62
3
100
AcDbLine
10
64536.870000000003
20
57173.629999999997
30
0.0
11
64114.309999999998
21
57442.580000000002
31
0.0
0
LINE
5
680
100
AcDbEntity
8
1-0
6
CONTINUOUS
62
3
100
AcDbLine
10
64114.309999999998
20
57442.580000000002
30
0.0
11
63704.830000000002
21
57730.010000000002
31
0.0
0
LINE
5
681
100
AcDbEntity
8
1-0
6
CONTINUOUS
62
3
100
AcDbLine
10
63704.830000000002
20
57730.010000000002
30
0.0
11
63309.449999999997
21
58036.970000000001
31
0.0
0
LINE
5
682
100
AcDbEntity
8
1-0
6
CONTINUOUS
62
3
100
AcDbLine
10
63309.449999999997
20
58036.970000000001
30
0.0
11
62929.199999999997
21
58364.510000000002
31
0.0
0
LINE
5
683
100
AcDbEntity
8
1-0
6
CONTINUOUS
62
3
100
AcDbLine
10
62929.199999999997
20
58364.510000000002
30
0.0
11
62565.110000000001
21
58713.669999999998
31
0.0
0
LINE
5
684
100
AcDbEntity
8
1-0
6
CONTINUOUS
62
3
100
AcDbLine
10
62565.110000000001
20
58713.669999999998
30
0.0
11
62218.489999999998
21
59084.160000000003
31
0.0
0
LINE
5
685
100
AcDbEntity
8
1-0
6
CONTINUOUS
62
3
100
AcDbLine
10
62218.489999999998
20
59084.160000000003
30
0.0
11
61891.080000000002
21
59474.389999999999
31
0.0
0
LINE
5
686
100
AcDbEntity
8
1-0
6
CONTINUOUS
62
3
100
AcDbLine
10
61891.080000000002
20
59474.389999999999
30
0.0
11
61584.639999999999
21
59882.660000000003
31
0.0
0
LINE
5
687
100
AcDbEntity
8
1-0
6
CONTINUOUS
62
3
100
AcDbLine
10
61584.639999999999
20
59882.660000000003
30
0.0
11
61300.900000000001
21
60307.330000000002
31
0.0
0
LINE
5
688
100
AcDbEntity
8
1-0
6
CONTINUOUS
62
3
100
AcDbLine
10
61300.900000000001
20
60307.330000000002
30
0.0
11
61041.570000000000
21
60746.690000000002
31
0.0
0
LINE
5
689
100
AcDbEntity
8
1-0
6
CONTINUOUS
62
3
100
AcDbLine
10
61041.570000000000
20
60746.690000000002
30
0.0
11
60808.430000000000
21
61199.080000000002
31
0.0
0
LINE
5
68a
100
AcDbEntity
8
1-0
6
CONTINUOUS
62
3
100
AcDbLine
10
60808.430000000000
20
61199.080000000002
30
0.0
11
60603.190000000002
21
61662.820000000000
31
0.0
0
LINE
5
68b
100
AcDbEntity
8
1-0
6
CONTINUOUS
62
3
100
AcDbLine
10
60603.190000000002
20
61662.820000000000
30
0.0
11
60427.610000000001
21
62136.230000000003
31
0.0
0
LINE
5
68c
100
AcDbEntity
8
1-0
6
CONTINUOUS
62
3
100
AcDbLine
10
60427.610000000001
20
62136.230000000003
30
0.0
11
60283.389999999999
21
62617.629999999997
31
0.0
0
LINE
5
68d
100
AcDbEntity
8
1-0
6
CONTINUOUS
62
3
100
AcDbLine
10
60283.389999999999
20
62617.629999999997
30
0.0
11
60172.300000000003
21
63105.360000000001
31
0.0
0
LINE
5
68e
100
AcDbEntity
8
1-0
6
CONTINUOUS
62
3
100
AcDbLine
10
60172.300000000003
20
63105.360000000001
30
0.0
11
60094.870000000003
21
63597.949999999997
31
0.0
0
LINE
5
68f
100
AcDbEntity
8
1-0
6
CONTINUOUS
62
3
100
AcDbLine
10
60094.870000000003
20
63597.949999999997
30
0.0
11
60049.239999999998
21
64094.430000000000
31
0.0
0
LINE
5
690
100
AcDbEntity
8
1-0
6
CONTINUOUS
62
3
100
AcDbLine
10
60049.239999999998
20
64094.430000000000
30
0.0
11
60033.230000000003
21
64593.879999999997
31
0.0
0
LINE
5
691
100
AcDbEntity
8
1-0
6
CONTINUOUS
62
3
100
AcDbLine
10
60033.230000000003
20
64593.879999999997
30
0.0
11
60044.680000000000
21
65095.389999999999
31
0.0
0
LINE
5
692
100
AcDbEntity
8
1-0
6
CONTINUOUS
62
3
100
AcDbLine
10
60044.680000000000
20
65095.389999999999
30
0.0
11
60081.459999999999
21
65598.009999999995
31
0.0
0
LINE
5
693
100
AcDbEntity
8
1-0
6
CONTINUOUS
62
3
100
AcDbLine
10
60081.459999999999
20
65598.009999999995
30
0.0
11
60141.379999999997
21
66100.820000000007
31
0.0
0
LINE
5
694
100
AcDbEntity
8
1-0
6
CONTINUOUS
62
3
100
AcDbLine
10
60141.379999999997
20
66100.820000000007
30
0.0
11
60222.279999999999
21
66602.889999999999
31
0.0
0
LINE
5
695
100
AcDbEntity
8
1-0
6
CONTINUOUS
62
3
100
AcDbLine
10
60222.279999999999
20
66602.889999999999
30
0.0
11
60322.029999999999
21
67103.320000000007
31
0.0
0
LINE
5
696
100
AcDbEntity
8
1-0
6
CONTINUOUS
62
3
100
AcDbLine
10
60322.029999999999
20
67103.320000000007
30
0.0
11
60438.440000000002
21
67601.179999999993
31
0.0
0
LINE
5
697
100
AcDbEntity
8
1-0
6
CONTINUOUS
62
3
100
AcDbLine
10
60438.440000000002
20
67601.179999999993
30
0.0
11
60569.360000000001
21
68095.529999999999
31
0.0
0
LINE
5
698
100
AcDbEntity
8
1-0
6
CONTINUOUS
62
3
100
AcDbLine
10
60569.360000000001
20
68095.529999999999
30
0.0
11
60712.639999999999
21
68585.449999999997
31
0.0
0
LINE
5
699
100
AcDbEntity
8
1-0
6
CONTINUOUS
62
3
100
AcDbLine
10
60712.639999999999
20
68585.449999999997
30
0.0
11
60866.110000000001
21
69070.020000000004
31
0.0
0
LINE
5
69a
100
AcDbEntity
8
1-0
6
CONTINUOUS
62
3
100
AcDbLine
10
60866.110000000001
20
69070.020000000004
30
0.0
11
61028.669999999998
21
69548.470000000001
31
0.0
0
LINE
5
69b
100
AcDbEntity
8
1-0
6
CONTINUOUS
62
3
100
AcDbLine
10
61028.669999999998
20
69548.470000000001
30
0.0
11
61201.330000000002
21
70020.309999999998
31
0.0
0
LINE
5
69c
100
AcDbEntity
8
1-0
6
CONTINUOUS
62
3
100
AcDbLine
10
61201.330000000002
20
70020.309999999998
30
0.0
11
61385.379999999997
21
70485.130000000005
31
0.0
0
LINE
5
69d
100
AcDbEntity
8
1-0
6
CONTINUOUS
62
3
100
AcDbLine
10
61385.379999999997
20
70485.130000000005
30
0.0
11
61582.129999999997
21
70942.470000000001
31
0.0
0
LINE
5
69e
100
AcDbEntity
8
1-0
6
CONTINUOUS
62
3
100
AcDbLine
10
61582.129999999997
20
70942.470000000001
30
0.0
11
61792.849999999999
21
71391.919999999998
31
0.0
0
LINE
5
69f
100
AcDbEntity
8
1-0
6
CONTINUOUS
62
3
100
AcDbLine
10
61792.849999999999
20
71391.919999999998
30
0.0
11
62018.660000000003
21
71833.089999999997
31
0.0
0
LINE
5
6a0
100
AcDbEntity
8
1-0
6
CONTINUOUS
62
3
100
AcDbLine
10
62018.660000000003
20
71833.089999999997
30
0.0
11
62259.059999999998
21
72266.350000000006
31
0.0
0
LINE
5
6a1
100
AcDbEntity
8
1-0
6
CONTINUOUS
62
3
100
AcDbLine
10
62259.059999999998
20
72266.350000000006
30
0.0
11
62512.779999999999
21
72692.399999999994
31
0.0
0
LINE
5
6a2
100
AcDbEntity
8
1-0
6
CONTINUOUS
62
3
100
AcDbLine
10
62512.779999999999
20
72692.399999999994
30
0.0
11
62778.570000000000
21
73111.940000000002
31
0.0
0
LINE
5
6a3
100
AcDbEntity
8
1-0
6
CONTINUOUS
62
3
100
AcDbLine
10
62778.570000000000
20
73111.940000000002
30
0.0
11
63055.139999999999
21
73525.660000000003
31
0.0
0
LINE
5
6a4
100
AcDbEntity
8
1-0
6
CONTINUOUS
62
3
100
AcDbLine
10
63055.139999999999
20
73525.660000000003
30
0.0
11
63341.209999999999
21
73934.289999999994
31
0.0
0
LINE
5
6a5
100
AcDbEntity
8
1-0
6
CONTINUOUS
62
3
100
AcDbLine
10
63341.209999999999
20
73934.289999999994
30
0.0
11
63635.500000000000
21
74338.509999999995
31
0.0
0
LINE
5
6a6
100
AcDbEntity
8
1-0
6
CONTINUOUS
62
3
100
AcDbLine
10
63635.500000000000
20
74338.509999999995
30
0.0
11
63936.760000000002
21
74739.020000000004
31
0.0
0
LINE
5
6a7
100
AcDbEntity
8
1-0
6
CONTINUOUS
62
3
100
AcDbLine
10
63936.760000000002
20
74739.020000000004
30
0.0
11
64243.699999999997
21
75136.529999999999
31
0.0
0
LINE
5
6a8
100
AcDbEntity
8
1-0
6
CONTINUOUS
62
3
100
AcDbLine
10
64243.699999999997
20
75136.529999999999
30
0.0
11
64555.010000000002
21
75531.750000000000
31
0.0
0
LINE
5
6a9
100
AcDbEntity
8
1-0
6
CONTINUOUS
62
3
100
AcDbLine
10
64555.010000000002
20
75531.750000000000
30
0.0
11
64869.449999999997
21
75925.360000000001
31
0.0
0
LINE
5
6aa
100
AcDbEntity
8
1-0
6
CONTINUOUS
62
3
100
AcDbLine
10
64869.449999999997
20
75925.360000000001
30
0.0
11
65185.739999999998
21
76318.100000000006
31
0.0
0
LINE
5
6ab
100
AcDbEntity
8
1-0
6
CONTINUOUS
62
3
100
AcDbLine
10
65185.739999999998
20
76318.100000000006
30
0.0
11
65502.589999999997
21
76710.639999999999
31
0.0
0
LINE
5
6ac
100
AcDbEntity
8
1-0
6
CONTINUOUS
62
3
100
AcDbLine
10
65502.589999999997
20
76710.639999999999
30
0.0
11
65818.729999999996
21
77103.690000000002
31
0.0
0
LINE
5
6ad
100
AcDbEntity
8
1-0
6
CONTINUOUS
62
3
100
AcDbLine
10
65818.729999999996
20
77103.690000000002
30
0.0
11
66132.899999999994
21
77497.949999999997
31
0.0
0
LINE
5
6ae
100
AcDbEntity
8
1-0
6
CONTINUOUS
62
3
100
AcDbLine
10
66132.899999999994
20
77497.949999999997
30
0.0
11
66443.789999999994
21
77894.130000000005
31
0.0
0
LINE
5
6af
100
AcDbEntity
8
1-0
6
CONTINUOUS
62
3
100
AcDbLine
10
66443.789999999994
20
77894.130000000005
30
0.0
11
66750.160000000003
21
78292.919999999998
31
0.0
0
LINE
5
6b0
100
AcDbEntity
8
1-0
6
CONTINUOUS
62
3
100
AcDbLine
10
66750.160000000003
20
78292.919999999998
30
0.0
11
67050.880000000005
21
78694.940000000002
31
0.0
0
LINE
5
6b1
100
AcDbEntity
8
1-0
6
CONTINUOUS
62
3
100
AcDbLine
10
67050.880000000005
20
78694.940000000002
30
0.0
11
67345.990000000005
21
79100.190000000002
31
0.0
0
LINE
5
6b2
100
AcDbEntity
8
1-0
6
CONTINUOUS
62
3
100
AcDbLine
10
67345.990000000005
20
79100.190000000002
30
0.0
11
67635.979999999996
21
79508.399999999994
31
0.0
0
LINE
5
6b3
100
AcDbEntity
8
1-0
6
CONTINUOUS
62
3
100
AcDbLine
10
67635.979999999996
20
79508.399999999994
30
0.0
11
67921.320000000007
21
79919.300000000003
31
0.0
0
LINE
5
6b4
100
AcDbEntity
8
1-0
6
CONTINUOUS
62
3
100
AcDbLine
10
67921.320000000007
20
79919.300000000003
30
0.0
11
68202.520000000004
21
80332.649999999994
31
0.0
0
LINE
5
6b5
100
AcDbEntity
8
1-0
6
CONTINUOUS
62
3
100
AcDbLine
10
68202.520000000004
20
80332.649999999994
30
0.0
11
68480.050000000003
21
80748.220000000001
31
0.0
0
LINE
5
6b6
100
AcDbEntity
8
1-0
6
CONTINUOUS
62
3
100
AcDbLine
10
68480.050000000003
20
80748.220000000001
30
0.0
11
68754.419999999998
21
81165.699999999997
31
0.0
0
LINE
5
6b7
100
AcDbEntity
8
1-0
6
CONTINUOUS
62
3
100
AcDbLine
10
68754.419999999998
20
81165.699999999997
30
0.0
11
69026.080000000002
21
81584.880000000005
31
0.0
0
LINE
5
6b8
100
AcDbEntity
8
1-0
6
CONTINUOUS
62
3
100
AcDbLine
10
69026.080000000002
20
81584.880000000005
30
0.0
11
69295.570000000007
21
82005.470000000001
31
0.0
0
LINE
5
6b9
100
AcDbEntity
8
1-0
6
CONTINUOUS
62
3
100
AcDbLine
10
69295.570000000007
20
82005.470000000001
30
0.0
11
69563.339999999997
21
82427.220000000001
31
0.0
0
LINE
5
6ba
100
AcDbEntity
8
1-0
6
CONTINUOUS
62
3
100
AcDbLine
10
69563.339999999997
20
82427.220000000001
30
0.0
11
69829.869999999995
21
82849.889999999999
31
0.0
0
LINE
5
6bb
100
AcDbEntity
8
1-0
6
CONTINUOUS
62
3
100
AcDbLine
10
69829.869999999995
20
82849.889999999999
30
0.0
11
70095.399999999994
21
83273.350000000006
31
0.0
0
LINE
5
6bc
100
AcDbEntity
8
1-0
6
CONTINUOUS
62
3
100
AcDbLine
10
70095.399999999994
20
83273.350000000006
30
0.0
11
70359.889999999999
21
83697.610000000001
31
0.0
0
LINE
5
6bd
100
AcDbEntity
8
1-0
6
CONTINUOUS
62
3
100
AcDbLine
10
70359.889999999999
20
83697.610000000001
30
0.0
11
70623.190000000002
21
84122.720000000001
31
0.0
0
LINE
5
6be
100
AcDbEntity
8
1-0
6
CONTINUOUS
62
3
100
AcDbLine
10
70623.190000000002
20
84122.720000000001
30
0.0
11
70885.250000000000
21
84548.690000000002
31
0.0
0
LINE
5
6bf
100
AcDbEntity
8
1-0
6
CONTINUOUS
62
3
100
AcDbLine
10
70885.250000000000
20
84548.690000000002
30
0.0
11
71145.960000000006
21
84975.570000000007
31
0.0
0
LINE
5
6c0
100
AcDbEntity
8
1-0
6
CONTINUOUS
62
3
100
AcDbLine
10
71145.960000000006
20
84975.570000000007
30
0.0
11
71405.240000000005
21
85403.389999999999
31
0.0
0
LINE
5
6c1
100
AcDbEntity
8
1-0
6
CONTINUOUS
62
3
100
AcDbLine
10
71405.240000000005
20
85403.389999999999
30
0.0
11
71662.970000000001
21
85832.190000000002
31
0.0
0
LINE
5
6c2
100
AcDbEntity
8
1-0
6
CONTINUOUS
62
3
100
AcDbLine
10
71662.970000000001
20
85832.190000000002
30
0.0
11
71919.089999999997
21
86261.990000000005
31
0.0
0
LINE
5
6c3
100
AcDbEntity
8
1-0
6
CONTINUOUS
62
3
100
AcDbLine
10
71919.089999999997
20
86261.990000000005
30
0.0
11
72173.490000000005
21
86692.820000000007
31
0.0
0
LINE
5
6c4
100
AcDbEntity
8
1-0
6
CONTINUOUS
62
3
100
AcDbLine
10
72173.490000000005
20
86692.820000000007
30
0.0
11
72426.080000000002
21
87124.729999999996
31
0.0
0
LINE
5
6c5
100
AcDbEntity
8
1-0
6
CONTINUOUS
62
3
100
AcDbLine
10
72426.080000000002
20
87124.729999999996
30
0.0
11
72676.759999999995
21
87557.750000000000
31
0.0
0
LINE
5
6c6
100
AcDbEntity
8
1-0
6
CONTINUOUS
62
3
100
AcDbLine
10
72676.759999999995
20
87557.750000000000
30
0.0
11
72925.460000000006
21
87991.919999999998
31
0.0
0
LINE
5
6c7
100
AcDbEntity
8
1-0
6
CONTINUOUS
62
3
100
AcDbLine
10
72925.460000000006
20
87991.919999999998
30
0.0
11
73172.050000000003
21
88427.240000000005
31
0.0
0
LINE
5
6c8
100
AcDbEntity
8
1-0
6
CONTINUOUS
62
3
100
AcDbLine
10
73172.050000000003
20
88427.240000000005
30
0.0
11
73416.470000000001
21
88863.789999999994
31
0.0
0
LINE
5
6c9
100
AcDbEntity
8
1-0
6
CONTINUOUS
62
3
100
AcDbLine
10
73416.470000000001
20
88863.789999999994
30
0.0
11
73658.610000000001
21
89301.559999999998
31
0.0
0
LINE
5
6ca
100
AcDbEntity
8
1-0
6
CONTINUOUS
62
3
100
AcDbLine
10
73658.610000000001
20
89301.559999999998
30
0.0
11
73898.399999999994
21
89740.619999999995
31
0.0
0
LINE
5
6cb
100
AcDbEntity
8
1-0
6
CONTINUOUS
62
3
100
AcDbLine
10
73898.399999999994
20
89740.619999999995
30
0.0
11
74135.710000000006
21
90180.979999999996
31
0.0
0
LINE
5
6cc
100
AcDbEntity
8
1-0
6
CONTINUOUS
62
3
100
AcDbLine
10
74135.710000000006
20
90180.979999999996
30
0.0
11
74370.479999999996
21
90622.690000000002
31
0.0
0
LINE
5
6cd
100
AcDbEntity
8
1-0
6
CONTINUOUS
62
3
100
AcDbLine
10
74370.479999999996
20
90622.690000000002
30
0.0
11
74602.589999999997
21
91065.750000000000
31
0.0
0
LINE
5
6ce
100
AcDbEntity
8
1-0
6
CONTINUOUS
62
3
100
AcDbLine
10
74602.589999999997
20
91065.750000000000
30
0.0
11
74831.970000000001
21
91510.240000000005
31
0.0
0
LINE
5
6cf
100
AcDbEntity
8
1-0
6
CONTINUOUS
62
3
100
AcDbLine
10
74831.970000000001
20
91510.240000000005
30
0.0
11
75058.529999999999
21
91956.160000000003
31
0.0
0
LINE
5
6d0
100
AcDbEntity
8
1-0
6
CONTINUOUS
62
3
100
AcDbLine
10
75058.529999999999
20
91956.160000000003
30
0.0
11
75282.160000000003
21
92403.550000000003
31
0.0
0
LINE
5
6d1
100
AcDbEntity
8
1-0
6
CONTINUOUS
62
3
100
AcDbLine
10
75282.160000000003
20
92403.550000000003
30
0.0
11
75503.089999999997
21
92852.300000000003
31
0.0
0
LINE
5
6d2
100
AcDbEntity
8
1-0
6
CONTINUOUS
62
3
100
AcDbLine
10
75503.089999999997
20
92852.300000000003
30
0.0
11
75721.899999999994
21
93302.080000000002
31
0.0
0
LINE
5
6d3
100
AcDbEntity
8
1-0
6
CONTINUOUS
62
3
100
AcDbLine
10
75721.899999999994
20
93302.080000000002
30
0.0
11
75939.149999999994
21
93752.630000000005
31
0.0
0
LINE
5
6d4
100
AcDbEntity
8
1-0
6
CONTINUOUS
62
3
100
AcDbLine
10
75939.149999999994
20
93752.630000000005
30
0.0
11
76155.440000000002
21
94203.639999999999
31
0.0
0
LINE
5
6d5
100
AcDbEntity
8
1-0
6
CONTINUOUS
62
3
100
AcDbLine
10
76155.440000000002
20
94203.639999999999
30
0.0
11
76371.320000000007
21
94654.789999999994
31
0.0
0
LINE
5
6d6
100
AcDbEntity
8
1-0
6
CONTINUOUS
62
3
100
AcDbLine
10
76371.320000000007
20
94654.789999999994
30
0.0
11
76587.380000000005
21
95105.800000000003
31
0.0
0
LINE
5
6d7
100
AcDbEntity
8
1-0
6
CONTINUOUS
62
3
100
AcDbLine
10
76587.380000000005
20
95105.800000000003
30
0.0
11
76804.210000000006
21
95556.360000000001
31
0.0
0
LINE
5
6d8
100
AcDbEntity
8
1-0
6
CONTINUOUS
62
3
100
AcDbLine
10
76804.210000000006
20
95556.360000000001
30
0.0
11
77022.380000000005
21
96006.169999999998
31
0.0
0
LINE
5
6d9
100
AcDbEntity
8
1-0
6
CONTINUOUS
62
3
100
AcDbLine
10
77022.380000000005
20
96006.169999999998
30
0.0
11
77242.470000000001
21
96454.940000000002
31
0.0
0
LINE
5
6da
100
AcDbEntity
8
1-0
6
CONTINUOUS
62
3
100
AcDbLine
10
77242.470000000001
20
96454.940000000002
30
0.0
11
77465.050000000003
21
96902.360000000001
31
0.0
0
LINE
5
6db
100
AcDbEntity
8
1-0
6
CONTINUOUS
62
3
100
AcDbLine
10
77465.050000000003
20
96902.360000000001
30
0.0
11
77690.729999999996
21
97348.119999999995
31
0.0
0
LINE
5
6dc
100
AcDbEntity
8
1-0
6
CONTINUOUS
62
3
100
AcDbLine
10
77690.729999999996
20
97348.119999999995
30
0.0
11
77919.949999999997
21
97791.990000000005
31
0.0
0
LINE
5
6dd
100
AcDbEntity
8
1-0
6
CONTINUOUS
62
3
100
AcDbLine
10
77919.949999999997
20
97791.990000000005
30
0.0
11
78152.630000000005
21
98234.050000000003
31
0.0
0
LINE
5
6de
100
AcDbEntity
8
1-0
6
CONTINUOUS
62
3
100
AcDbLine
10
78152.630000000005
20
98234.050000000003
30
0.0
11
78388.419999999998
21
98674.440000000002
31
0.0
0
LINE
5
6df
100
AcDbEntity
8
1-0
6
CONTINUOUS
62
3
100
AcDbLine
10
78388.419999999998
20
98674.440000000002
30
0.0
11
78627.009999999995
21
99113.389999999999
31
0.0
0
LINE
5
6e0
100
AcDbEntity
8
1-0
6
CONTINUOUS
62
3
100
AcDbLine
10
78627.009999999995
20
99113.389999999999
30
0.0
11
78868.039999999994
21
99551.070000000007
31
0.0
0
LINE
5
6e1
100
AcDbEntity
8
1-0
6
CONTINUOUS
62
3
100
AcDbLine
10
78868.039999999994
20
99551.070000000007
30
0.0
11
79111.199999999997
21
99987.679999999993
31
0.0
0
LINE
5
6e2
100
AcDbEntity
8
1-0
6
CONTINUOUS
62
3
100
AcDbLine
10
79111.199999999997
20
99987.679999999993
30
0.0
11
79356.160000000003
21
100423.420000000000
31
0.0
0
LINE
5
6e3
100
AcDbEntity
8
1-0
6
CONTINUOUS
62
3
100
AcDbLine
10
79356.160000000003
20
100423.420000000000
30
0.0
11
79602.589999999997
21
100858.410000000000
31
0.0
0
LINE
5
6e4
100
AcDbEntity
8
1-0
6
CONTINUOUS
62
3
100
AcDbLine
10
79602.589999999997
20
100858.410000000000
30
0.0
11
79850.149999999994
21
101292.910000000000
31
0.0
0
LINE
5
6e5
100
AcDbEntity
8
1-0
6
CONTINUOUS
62
3
100
AcDbLine
10
79850.149999999994
20
101292.910000000000
30
0.0
11
80098.500000000000
21
101727.090000000000
31
0.0
0
LINE
5
6e6
100
AcDbEntity
8
1-0
6
CONTINUOUS
62
3
100
AcDbLine
10
80098.500000000000
20
101727.090000000000
30
0.0
11
80347.339999999997
21
102161.140000000000
31
0.0
0
LINE
5
6e7
100
AcDbEntity
8
1-0
6
CONTINUOUS
62
3
100
AcDbLine
10
80347.339999999997
20
102161.140000000000
30
0.0
11
80596.309999999998
21
102595.220000000000
31
0.0
0
LINE
5
6e8
100
AcDbEntity
8
1-0
6
CONTINUOUS
62
3
100
AcDbLine
10
80596.309999999998
20
102595.220000000000
30
0.0
11
80845.089999999997
21
103029.550000000000
31
0.0
0
LINE
5
6e9
100
AcDbEntity
8
1-0
6
CONTINUOUS
62
3
100
AcDbLine
10
80845.089999999997
20
103029.550000000000
30
0.0
11
81093.369999999995
21
103464.300000000000
31
0.0
0
LINE
5
6ea
100
AcDbEntity
8
1-0
6
CONTINUOUS
62
3
100
AcDbLine
10
81093.369999999995
20
103464.300000000000
30
0.0
11
81340.759999999995
21
103899.649999999990
31
0.0
0
LINE
5
6eb
100
AcDbEntity
8
1-0
6
CONTINUOUS
62
3
100
AcDbLine
10
81340.759999999995
20
103899.649999999990
30
0.0
11
81587.160000000003
21
104335.710000000010
31
0.0
0
LINE
5
6ec
100
AcDbEntity
8
1-0
6
CONTINUOUS
62
3
100
AcDbLine
10
81587.160000000003
20
104335.710000000010
30
0.0
11
81834.009999999995
21
104771.470000000000
31
0.0
0
LINE
5
6ed
100
AcDbEntity
8
1-0
6
CONTINUOUS
62
3
100
AcDbLine
10
81834.009999999995
20
104771.470000000000
30
0.0
11
82083.550000000003
21
105205.450000000000
31
0.0
0
LINE
5
6ee
100
AcDbEntity
8
1-0
6
CONTINUOUS
62
3
100
AcDbLine
10
82083.550000000003
20
105205.450000000000
30
0.0
11
82338.070000000007
21
105636.160000000000
31
0.0
0
LINE
5
6ef
100
AcDbEntity
8
1-0
6
CONTINUOUS
62
3
100
AcDbLine
10
82338.070000000007
20
105636.160000000000
30
0.0
11
82599.830000000002
21
106062.080000000000
31
0.0
0
LINE
5
6f0
100
AcDbEntity
8
1-0
6
CONTINUOUS
62
3
100
AcDbLine
10
82599.830000000002
20
106062.080000000000
30
0.0
11
82871.139999999999
21
106481.700000000000
31
0.0
0
LINE
5
6f1
100
AcDbEntity
8
1-0
6
CONTINUOUS
62
3
100
AcDbLine
10
82871.139999999999
20
106481.700000000000
30
0.0
11
83154.240000000005
21
106893.539999999990
31
0.0
0
LINE
5
6f2
100
AcDbEntity
8
1-0
6
CONTINUOUS
62
3
100
AcDbLine
10
83154.240000000005
20
106893.539999999990
30
0.0
11
83451.070000000007
21
107296.200000000000
31
0.0
0
LINE
5
6f3
100
AcDbEntity
8
1-0
6
CONTINUOUS
62
3
100
AcDbLine
10
83451.070000000007
20
107296.200000000000
30
0.0
11
83761.600000000006
21
107689.250000000000
31
0.0
0
LINE
5
6f4
100
AcDbEntity
8
1-0
6
CONTINUOUS
62
3
100
AcDbLine
10
83761.600000000006
20
107689.250000000000
30
0.0
11
84085.179999999993
21
108072.429999999990
31
0.0
0
LINE
5
6f5
100
AcDbEntity
8
1-0
6
CONTINUOUS
62
3
100
AcDbLine
10
84085.179999999993
20
108072.429999999990
30
0.0
11
84421.100000000006
21
108445.570000000010
31
0.0
0
LINE
5
6f6
100
AcDbEntity
8
1-0
6
CONTINUOUS
62
3
100
AcDbLine
10
84421.100000000006
20
108445.570000000010
30
0.0
11
84768.729999999996
21
108808.460000000010
31
0.0
0
LINE
5
6f7
100
AcDbEntity
8
1-0
6
CONTINUOUS
62
3
100
AcDbLine
10
84768.729999999996
20
108808.460000000010
30
0.0
11
85127.369999999995
21
109160.890000000000
31
0.0
0
LINE
5
6f8
100
AcDbEntity
8
1-0
6
CONTINUOUS
62
3
100
AcDbLine
10
85127.369999999995
20
109160.890000000000
30
0.0
11
85496.380000000005
21
109502.630000000000
31
0.0
0
LINE
5
6f9
100
AcDbEntity
8
1-0
6
CONTINUOUS
62
3
100
AcDbLine
10
85496.380000000005
20
109502.630000000000
30
0.0
11
85875.059999999998
21
109833.509999999990
31
0.0
0
LINE
5
6fa
100
AcDbEntity
8
1-0
6
CONTINUOUS
62
3
100
AcDbLine
10
85875.059999999998
20
109833.509999999990
30
0.0
11
86262.759999999995
21
110153.300000000000
31
0.0
0
LINE
5
6fb
100
AcDbEntity
8
1-0
6
CONTINUOUS
62
3
100
AcDbLine
10
86262.759999999995
20
110153.300000000000
30
0.0
11
86658.820000000007
21
110461.830000000000
31
0.0
0
LINE
5
6fc
100
AcDbEntity
8
1-0
6
CONTINUOUS
62
3
100
AcDbLine
10
86658.820000000007
20
110461.830000000000
30
0.0
11
87062.550000000003
21
110758.860000000000
31
0.0
0
LINE
5
6fd
100
AcDbEntity
8
1-0
6
CONTINUOUS
62
3
100
AcDbLine
10
87062.550000000003
20
110758.860000000000
30
0.0
11
87473.149999999994
21
111045.090000000000
31
0.0
0
LINE
5
6fe
100
AcDbEntity
8
1-0
6
CONTINUOUS
62
3
100
AcDbLine
10
87473.149999999994
20
111045.090000000000
30
0.0
11
87889.639999999999
21
111321.970000000000
31
0.0
0
LINE
5
6ff
100
AcDbEntity
8
1-0
6
CONTINUOUS
62
3
100
AcDbLine
10
87889.639999999999
20
111321.970000000000
30
0.0
11
88311.100000000006
21
111591.009999999990
31
0.0
0
LINE
5
700
100
AcDbEntity
8
1-0
6
CONTINUOUS
62
3
100
AcDbLine
10
88311.100000000006
20
111591.009999999990
30
0.0
11
88736.559999999998
21
111853.740000000010
31
0.0
0
LINE
5
701
100
AcDbEntity
8
1-0
6
CONTINUOUS
62
3
100
AcDbLine
10
88736.559999999998
20
111853.740000000010
30
0.0
11
89165.020000000004
21
112111.679999999990
31
0.0
0
LINE
5
702
100
AcDbEntity
8
1-0
6
CONTINUOUS
62
3
100
AcDbLine
10
89165.020000000004
20
112111.679999999990
30
0.0
11
89595.570000000007
21
112366.310000000000
31
0.0
0
LINE
5
703
100
AcDbEntity
8
1-0
6
CONTINUOUS
62
3
100
AcDbLine
10
89595.570000000007
20
112366.310000000000
30
0.0
11
90027.220000000001
21
112619.170000000000
31
0.0
0
LINE
5
704
100
AcDbEntity
8
1-0
6
CONTINUOUS
62
3
100
AcDbLine
10
90027.220000000001
20
112619.170000000000
30
0.0
11
90459.029999999999
21
112871.770000000000
31
0.0
0
LINE
5
705
100
AcDbEntity
8
1-0
6
CONTINUOUS
62
3
100
AcDbLine
10
90459.029999999999
20
112871.770000000000
30
0.0
11
90890.080000000002
21
113125.600000000010
31
0.0
0
LINE
5
706
100
AcDbEntity
8
1-0
6
CONTINUOUS
62
3
100
AcDbLine
10
90890.080000000002
20
113125.600000000010
30
0.0
11
91319.929999999993
21
113381.300000000000
31
0.0
0
LINE
5
707
100
AcDbEntity
8
1-0
6
CONTINUOUS
62
3
100
AcDbLine
10
91319.929999999993
20
113381.300000000000
30
0.0
11
91748.580000000002
21
113638.870000000000
31
0.0
0
LINE
5
708
100
AcDbEntity
8
1-0
6
CONTINUOUS
62
3
100
AcDbLine
10
91748.580000000002
20
113638.870000000000
30
0.0
11
92176.070000000007
21
113898.259999999990
31
0.0
0
LINE
5
709
100
AcDbEntity
8
1-0
6
CONTINUOUS
62
3
100
AcDbLine
10
92176.070000000007
20
113898.259999999990
30
0.0
11
92602.410000000003
21
114159.470000000000
31
0.0
0
LINE
5
70a
100
AcDbEntity
8
1-0
6
CONTINUOUS
62
3
100
AcDbLine
10
92602.410000000003
20
114159.470000000000
30
0.0
11
93027.639999999999
21
114422.460000000010
31
0.0
0
LINE
5
70b
100
AcDbEntity
8
1-0
6
CONTINUOUS
62
3
100
AcDbLine
10
93027.639999999999
20
114422.460000000010
30
0.0
11
93451.779999999999
21
114687.170000000000
31
0.0
0
LINE
5
70c
100
AcDbEntity
8
1-0
6
CONTINUOUS
62
3
100
AcDbLine
10
93451.779999999999
20
114687.170000000000
30
0.0
11
93874.869999999995
21
114953.580000000000
31
0.0
0
LINE
5
70d
100
AcDbEntity
8
1-0
6
CONTINUOUS
62
3
100
AcDbLine
10
93874.869999999995
20
114953.580000000000
30
0.0
11
94296.910000000003
21
115221.679999999990
31
0.0
0
LINE
5
70e
100
AcDbEntity
8
1-0
6
CONTINUOUS
62
3
100
AcDbLine
10
94296.910000000003
20
115221.679999999990
30
0.0
11
94717.929999999993
21
115491.420000000000
31
0.0
0
LINE
5
70f
100
AcDbEntity
8
1-0
6
CONTINUOUS
62
3
100
AcDbLine
10
94717.929999999993
20
115491.420000000000
30
0.0
11
95137.940000000002
21
115762.759999999990
31
0.0
0
LINE
5
710
100
AcDbEntity
8
1-0
6
CONTINUOUS
62
3
100
AcDbLine
10
95137.940000000002
20
115762.759999999990
30
0.0
11
95557.009999999995
21
116035.710000000010
31
0.0
0
LINE
5
711
100
AcDbEntity
8
1-0
6
CONTINUOUS
62
3
100
AcDbLine
10
95557.009999999995
20
116035.710000000010
30
0.0
11
95975.119999999995
21
116310.170000000000
31
0.0
0
LINE
5
712
100
AcDbEntity
8
1-0
6
CONTINUOUS
62
3
100
AcDbLine
10
95975.119999999995
20
116310.170000000000
30
0.0
11
96392.309999999998
21
116586.149999999990
31
0.0
0
LINE
5
713
100
AcDbEntity
8
1-0
6
CONTINUOUS
62
3
100
AcDbLine
10
96392.309999999998
20
116586.149999999990
30
0.0
11
96808.550000000003
21
116863.679999999990
31
0.0
0
LINE
5
714
100
AcDbEntity
8
1-0
6
CONTINUOUS
62
3
100
AcDbLine
10
96808.550000000003
20
116863.679999999990
30
0.0
11
97223.679999999993
21
117142.950000000000
31
0.0
0
LINE
5
715
100
AcDbEntity
8
1-0
6
CONTINUOUS
62
3
100
AcDbLine
10
97223.679999999993
20
117142.950000000000
30
0.0
11
97637.389999999999
21
117424.310000000000
31
0.0
0
LINE
5
716
100
AcDbEntity
8
1-0
6
CONTINUOUS
62
3
100
AcDbLine
10
97637.389999999999
20
117424.310000000000
30
0.0
11
98049.509999999995
21
117707.980000000000
31
0.0
0
LINE
5
717
100
AcDbEntity
8
1-0
6
CONTINUOUS
62
3
100
AcDbLine
10
98049.509999999995
20
117707.980000000000
30
0.0
11
98459.750000000000
21
117994.270000000000
31
0.0
0
LINE
5
718
100
AcDbEntity
8
1-0
6
CONTINUOUS
62
3
100
AcDbLine
10
98459.750000000000
20
117994.270000000000
30
0.0
11
98867.910000000003
21
118283.480000000000
31
0.0
0
LINE
5
719
100
AcDbEntity
8
1-0
6
CONTINUOUS
62
3
100
AcDbLine
10
98867.910000000003
20
118283.480000000000
30
0.0
11
99273.720000000001
21
118575.870000000000
31
0.0
0
LINE
5
71a
100
AcDbEntity
8
1-0
6
CONTINUOUS
62
3
100
AcDbLine
10
99273.720000000001
20
118575.870000000000
30
0.0
11
99676.960000000006
21
118871.710000000010
31
0.0
0
LINE
5
71b
100
AcDbEntity
8
1-0
6
CONTINUOUS
62
3
100
AcDbLine
10
99676.960000000006
20
118871.710000000010
30
0.0
11
100077.370000000000
21
119171.340000000000
31
0.0
0
LINE
5
71c
100
AcDbEntity
8
1-0
6
CONTINUOUS
62
3
100
AcDbLine
10
100077.370000000000
20
119171.340000000000
30
0.0
11
100474.730000000000
21
119475.009999999990
31
0.0
0
LINE
5
71d
100
AcDbEntity
8
1-0
6
CONTINUOUS
62
3
100
AcDbLine
10
100474.730000000000
20
119475.009999999990
30
0.0
11
100868.759999999990
21
119783.000000000000
31
0.0
0
LINE
5
71e
100
AcDbEntity
8
1-0
6
CONTINUOUS
62
3
100
AcDbLine
10
100868.759999999990
20
119783.000000000000
30
0.0
11
101259.270000000000
21
120095.590000000000
31
0.0
0
LINE
5
71f
100
AcDbEntity
8
1-0
6
CONTINUOUS
62
3
100
AcDbLine
10
101259.270000000000
20
120095.590000000000
30
0.0
11
101646.009999999990
21
120413.070000000010
31
0.0
0
LINE
5
720
100
AcDbEntity
8
1-0
6
CONTINUOUS
62
3
100
AcDbLine
10
101646.009999999990
20
120413.070000000010
30
0.0
11
102029.149999999990
21
120735.179999999990
31
0.0
0
LINE
5
721
100
AcDbEntity
8
1-0
6
CONTINUOUS
62
3
100
AcDbLine
10
102029.149999999990
20
120735.179999999990
30
0.0
11
102409.310000000000
21
121061.149999999990
31
0.0
0
LINE
5
722
100
AcDbEntity
8
1-0
6
CONTINUOUS
62
3
100
AcDbLine
10
102409.310000000000
20
121061.149999999990
30
0.0
11
102787.110000000000
21
121390.120000000000
31
0.0
0
LINE
5
723
100
AcDbEntity
8
1-0
6
CONTINUOUS
62
3
100
AcDbLine
10
102787.110000000000
20
121390.120000000000
30
0.0
11
103163.210000000010
21
121721.259999999990
31
0.0
0
LINE
5
724
100
AcDbEntity
8
1-0
6
CONTINUOUS
62
3
100
AcDbLine
10
103163.210000000010
20
121721.259999999990
30
0.0
11
103538.210000000010
21
122053.770000000000
31
0.0
0
LINE
5
725
100
AcDbEntity
8
1-0
6
CONTINUOUS
62
3
100
AcDbLine
10
103538.210000000010
20
122053.770000000000
30
0.0
11
103912.759999999990
21
122386.770000000000
31
0.0
0
LINE
5
726
100
AcDbEntity
8
1-0
6
CONTINUOUS
62
3
100
AcDbLine
10
103912.759999999990
20
122386.770000000000
30
0.0
11
104287.530000000000
21
122719.490000000010
31
0.0
0
LINE
5
727
100
AcDbEntity
8
1-0
6
CONTINUOUS
62
3
100
AcDbLine
10
104287.530000000000
20
122719.490000000010
30
0.0
11
104663.110000000000
21
123051.060000000000
31
0.0
0
LINE
5
728
100
AcDbEntity
8
1-0
6
CONTINUOUS
62
3
100
AcDbLine
10
104663.110000000000
20
123051.060000000000
30
0.0
11
105040.160000000000
21
123380.660000000000
31
0.0
0
LINE
5
729
100
AcDbEntity
8
1-0
6
CONTINUOUS
62
3
100
AcDbLine
10
105040.160000000000
20
123380.660000000000
30
0.0
11
105419.310000000000
21
123707.450000000000
31
0.0
0
LINE
5
72a
100
AcDbEntity
8
1-0
6
CONTINUOUS
62
3
100
AcDbLine
10
105419.310000000000
20
123707.450000000000
30
0.0
11
105801.190000000000
21
124030.610000000000
31
0.0
0
LINE
5
72b
100
AcDbEntity
8
1-0
6
CONTINUOUS
62
3
100
AcDbLine
10
105801.190000000000
20
124030.610000000000
30
0.0
11
106186.450000000000
21
124349.310000000000
31
0.0
0
LINE
5
72c
100
AcDbEntity
8
1-0
6
CONTINUOUS
62
3
100
AcDbLine
10
106186.450000000000
20
124349.310000000000
30
0.0
11
106575.710000000010
21
124662.710000000010
31
0.0
0
LINE
5
72d
100
AcDbEntity
8
1-0
6
CONTINUOUS
62
3
100
AcDbLine
10
106575.710000000010
20
124662.710000000010
30
0.0
11
106969.620000000000
21
124969.980000000000
31
0.0
0
LINE
5
72e
100
AcDbEntity
8
1-0
6
CONTINUOUS
62
3
100
AcDbLine
10
106969.620000000000
20
124969.980000000000
30
0.0
11
107368.820000000010
21
125270.310000000000
31
0.0
0
LINE
5
72f
100
AcDbEntity
8
1-0
6
CONTINUOUS
62
3
100
AcDbLine
10
107368.820000000010
20
125270.310000000000
30
0.0
11
107773.920000000000
21
125562.850000000010
31
0.0
0
LINE
5
730
100
AcDbEntity
8
1-0
6
CONTINUOUS
62
3
100
AcDbLine
10
107773.920000000000
20
125562.850000000010
30
0.0
11
108185.580000000000
21
125846.770000000000
31
0.0
0
LINE
5
731
100
AcDbEntity
8
1-0
6
CONTINUOUS
62
3
100
AcDbLine
10
108185.580000000000
20
125846.770000000000
30
0.0
11
108604.429999999990
21
126121.250000000000
31
0.0
0
LINE
5
732
100
AcDbEntity
8
1-0
6
CONTINUOUS
62
3
100
AcDbLine
10
108604.429999999990
20
126121.250000000000
30
0.0
11
109031.039999999990
21
126385.350000000010
31
0.0
0
LINE
5
733
100
AcDbEntity
8
1-0
6
CONTINUOUS
62
3
100
AcDbLine
10
109031.039999999990
20
126385.350000000010
30
0.0
11
109465.500000000000
21
126637.420000000000
31
0.0
0
LINE
5
734
100
AcDbEntity
8
1-0
6
CONTINUOUS
62
3
100
AcDbLine
10
109465.500000000000
20
126637.420000000000
30
0.0
11
109907.789999999990
21
126875.590000000000
31
0.0
0
LINE
5
735
100
AcDbEntity
8
1-0
6
CONTINUOUS
62
3
100
AcDbLine
10
109907.789999999990
20
126875.590000000000
30
0.0
11
110357.850000000010
21
127097.960000000010
31
0.0
0
LINE
5
736
100
AcDbEntity
8
1-0
6
CONTINUOUS
62
3
100
AcDbLine
10
110357.850000000010
20
127097.960000000010
30
0.0
11
110815.640000000000
21
127302.649999999990
31
0.0
0
LINE
5
737
100
AcDbEntity
8
1-0
6
CONTINUOUS
62
3
100
AcDbLine
10
110815.640000000000
20
127302.649999999990
30
0.0
11
111281.080000000000
21
127487.740000000010
31
0.0
0
LINE
5
738
100
AcDbEntity
8
1-0
6
CONTINUOUS
62
3
100
AcDbLine
10
111281.080000000000
20
127487.740000000010
30
0.0
11
111754.149999999990
21
127651.380000000000
31
0.0
0
LINE
5
739
100
AcDbEntity
8
1-0
6
CONTINUOUS
62
3
100
AcDbLine
10
111754.149999999990
20
127651.380000000000
30
0.0
11
112234.730000000000
21
127791.740000000010
31
0.0
0
LINE
5
73a
100
AcDbEntity
8
1-0
6
CONTINUOUS
62
3
100
AcDbLine
10
112234.730000000000
20
127791.740000000010
30
0.0
11
112722.149999999990
21
127908.490000000010
31
0.0
0
LINE
5
73b
100
AcDbEntity
8
1-0
6
CONTINUOUS
62
3
100
AcDbLine
10
112722.149999999990
20
127908.490000000010
30
0.0
11
113215.210000000010
21
128002.390000000000
31
0.0
0
LINE
5
73c
100
AcDbEntity
8
1-0
6
CONTINUOUS
62
3
100
AcDbLine
10
113215.210000000010
20
128002.390000000000
30
0.0
11
113712.700000000000
21
128074.380000000000
31
0.0
0
LINE
5
73d
100
AcDbEntity
8
1-0
6
CONTINUOUS
62
3
100
AcDbLine
10
113712.700000000000
20
128074.380000000000
30
0.0
11
114213.450000000000
21
128125.230000000000
31
0.0
0
LINE
5
73e
100
AcDbEntity
8
1-0
6
CONTINUOUS
62
3
100
AcDbLine
10
114213.450000000000
20
128125.230000000000
30
0.0
11
114716.230000000000
21
128155.850000000010
31
0.0
0
LINE
5
73f
100
AcDbEntity
8
1-0
6
CONTINUOUS
62
3
100
AcDbLine
10
114716.230000000000
20
128155.850000000010
30
0.0
11
115219.860000000000
21
128167.100000000010
31
0.0
0
LINE
5
740
100
AcDbEntity
8
1-0
6
CONTINUOUS
62
3
100
AcDbLine
10
115219.860000000000
20
128167.100000000010
30
0.0
11
115723.100000000010
21
128159.789999999990
31
0.0
0
LINE
5
741
100
AcDbEntity
8
1-0
6
CONTINUOUS
62
3
100
AcDbLine
10
115723.100000000010
20
128159.789999999990
30
0.0
11
116224.810000000000
21
128134.800000000000
31
0.0
0
LINE
5
742
100
AcDbEntity
8
1-0
6
CONTINUOUS
62
3
100
AcDbLine
10
116224.810000000000
20
128134.800000000000
30
0.0
11
116723.929999999990
21
128093.120000000000
31
0.0
0
LINE
5
743
100
AcDbEntity
8
1-0
6
CONTINUOUS
62
3
100
AcDbLine
10
116723.929999999990
20
128093.120000000000
30
0.0
11
117220.520000000000
21
128036.390000000000
31
0.0
0
LINE
5
744
100
AcDbEntity
8
1-0
6
CONTINUOUS
62
3
100
AcDbLine
10
117220.520000000000
20
128036.390000000000
30
0.0
11
117714.960000000010
21
127966.590000000000
31
0.0
0
LINE
5
745
100
AcDbEntity
8
1-0
6
CONTINUOUS
62
3
100
AcDbLine
10
117714.960000000010
20
127966.590000000000
30
0.0
11
118207.570000000010
21
127885.610000000000
31
0.0
0
LINE
5
746
100
AcDbEntity
8
1-0
6
CONTINUOUS
62
3
100
AcDbLine
10
118207.570000000010
20
127885.610000000000
30
0.0
11
118698.789999999990
21
127795.360000000000
31
0.0
0
LINE
5
747
100
AcDbEntity
8
1-0
6
CONTINUOUS
62
3
100
AcDbLine
10
118698.789999999990
20
127795.360000000000
30
0.0
11
119188.899999999990
21
127697.750000000000
31
0.0
0
LINE
5
748
100
AcDbEntity
8
1-0
6
CONTINUOUS
62
3
100
AcDbLine
10
119188.899999999990
20
127697.750000000000
30
0.0
11
119678.340000000000
21
127594.700000000000
31
0.0
0
LINE
5
749
100
AcDbEntity
8
1-0
6
CONTINUOUS
62
3
100
AcDbLine
10
119678.340000000000
20
127594.700000000000
30
0.0
11
120167.440000000000
21
127488.110000000000
31
0.0
0
LINE
5
74a
100
AcDbEntity
8
1-0
6
CONTINUOUS
62
3
100
AcDbLine
10
120167.440000000000
20
127488.110000000000
30
0.0
11
120656.620000000000
21
127379.920000000000
31
0.0
0
LINE
5
74b
100
AcDbEntity
8
1-0
6
CONTINUOUS
62
3
100
AcDbLine
10
120656.620000000000
20
127379.920000000000
30
0.0
11
121146.179999999990
21
127272.009999999990
31
0.0
0
LINE
5
74c
100
AcDbEntity
8
1-0
6
CONTINUOUS
62
3
100
AcDbLine
10
121146.179999999990
20
127272.009999999990
30
0.0
11
121636.509999999990
21
127166.320000000010
31
0.0
0
LINE
5
74d
100
AcDbEntity
8
1-0
6
CONTINUOUS
62
3
100
AcDbLine
10
121636.509999999990
20
127166.320000000010
30
0.0
11
122127.990000000010
21
127064.750000000000
31
0.0
0
LINE
5
74e
100
AcDbEntity
8
1-0
6
CONTINUOUS
62
3
100
AcDbLine
10
122127.990000000010
20
127064.750000000000
30
0.0
11
122620.929999999990
21
126969.060000000000
31
0.0
0
LINE
5
74f
100
AcDbEntity
8
1-0
6
CONTINUOUS
62
3
100
AcDbLine
10
122620.929999999990
20
126969.060000000000
30
0.0
11
123115.350000000010
21
126879.520000000000
31
0.0
0
LINE
5
750
100
AcDbEntity
8
1-0
6
CONTINUOUS
62
3
100
AcDbLine
10
123115.350000000010
20
126879.520000000000
30
0.0
11
123611.020000000000
21
126795.649999999990
31
0.0
0
LINE
5
751
100
AcDbEntity
8
1-0
6
CONTINUOUS
62
3
100
AcDbLine
10
123611.020000000000
20
126795.649999999990
30
0.0
11
124107.720000000000
21
126717.020000000000
31
0.0
0
LINE
5
752
100
AcDbEntity
8
1-0
6
CONTINUOUS
62
3
100
AcDbLine
10
124107.720000000000
20
126717.020000000000
30
0.0
11
124605.300000000000
21
126643.160000000000
31
0.0
0
LINE
5
753
100
AcDbEntity
8
1-0
6
CONTINUOUS
62
3
100
AcDbLine
10
124605.300000000000
20
126643.160000000000
30
0.0
11
125103.550000000000
21
126573.590000000000
31
0.0
0
LINE
5
754
100
AcDbEntity
8
1-0
6
CONTINUOUS
62
3
100
AcDbLine
10
125103.550000000000
20
126573.590000000000
30
0.0
11
125602.210000000010
21
126507.870000000000
31
0.0
0
LINE
5
755
100
AcDbEntity
8
1-0
6
CONTINUOUS
62
3
100
AcDbLine
10
125602.210000000010
20
126507.870000000000
30
0.0
11
126101.149999999990
21
126445.509999999990
31
0.0
0
LINE
5
756
100
AcDbEntity
8
1-0
6
CONTINUOUS
62
3
100
AcDbLine
10
126101.149999999990
20
126445.509999999990
30
0.0
11
126600.160000000000
21
126386.060000000000
31
0.0
0
LINE
5
757
100
AcDbEntity
8
1-0
6
CONTINUOUS
62
3
100
AcDbLine
10
126600.160000000000
20
126386.060000000000
30
0.0
11
127099.030000000000
21
126329.050000000000
31
0.0
0
LINE
5
758
100
AcDbEntity
8
1-0
6
CONTINUOUS
62
3
100
AcDbLine
10
127099.030000000000
20
126329.050000000000
30
0.0
11
127597.570000000010
21
126274.030000000000
31
0.0
0
LINE
5
759
100
AcDbEntity
8
1-0
6
CONTINUOUS
62
3
100
AcDbLine
10
127597.570000000010
20
126274.030000000000
30
0.0
11
128095.550000000000
21
126220.509999999990
31
0.0
0
LINE
5
75a
100
AcDbEntity
8
1-0
6
CONTINUOUS
62
3
100
AcDbLine
10
128095.550000000000
20
126220.509999999990
30
0.0
11
128592.810000000000
21
126168.060000000000
31
0.0
0
LINE
5
75b
100
AcDbEntity
8
1-0
6
CONTINUOUS
62
3
100
AcDbLine
10
128592.810000000000
20
126168.060000000000
30
0.0
11
129089.149999999990
21
126116.200000000000
31
0.0
0
LINE
5
75c
100
AcDbEntity
8
1-0
6
CONTINUOUS
62
3
100
AcDbLine
10
129089.149999999990
20
126116.200000000000
30
0.0
11
129584.310000000000
21
126064.460000000010
31
0.0
0
LINE
5
75d
100
AcDbEntity
8
1-0
6
CONTINUOUS
62
3
100
AcDbLine
10
129584.310000000000
20
126064.460000000010
30
0.0
11
130078.179999999990
21
126012.390000000000
31
0.0
0
LINE
5
75e
100
AcDbEntity
8
1-0
6
CONTINUOUS
62
3
100
AcDbLine
10
130078.179999999990
20
126012.390000000000
30
0.0
11
130570.490000000010
21
125959.509999999990
31
0.0
0
LINE
5
75f
100
AcDbEntity
8
1-0
6
CONTINUOUS
62
3
100
AcDbLine
10
130570.490000000010
20
125959.509999999990
30
0.0
11
131061.090000000000
21
125905.360000000000
31
0.0
0
LINE
5
760
100
AcDbEntity
8
1-0
6
CONTINUOUS
62
3
100
AcDbLine
10
131061.090000000000
20
125905.360000000000
30
0.0
11
131549.769999999990
21
125849.490000000010
31
0.0
0
LINE
5
761
100
AcDbEntity
8
1-0
6
CONTINUOUS
62
3
100
AcDbLine
10
131549.769999999990
20
125849.490000000010
30
0.0
11
132036.459999999990
21
125791.670000000000
31
0.0
0
LINE
5
762
100
AcDbEntity
8
1-0
6
CONTINUOUS
62
3
100
AcDbLine
10
132036.459999999990
20
125791.670000000000
30
0.0
11
132521.609999999990
21
125732.530000000000
31
0.0
0
LINE
5
763
100
AcDbEntity
8
1-0
6
CONTINUOUS
62
3
100
AcDbLine
10
132521.609999999990
20
125732.530000000000
30
0.0
11
133005.739999999990
21
125672.920000000000
31
0.0
0
LINE
5
764
100
AcDbEntity
8
1-0
6
CONTINUOUS
62
3
100
AcDbLine
10
133005.739999999990
20
125672.920000000000
30
0.0
11
133489.440000000000
21
125613.649999999990
31
0.0
0
LINE
5
765
100
AcDbEntity
8
1-0
6
CONTINUOUS
62
3
100
AcDbLine
10
133489.440000000000
20
125613.649999999990
30
0.0
11
133973.230000000010
21
125555.570000000010
31
0.0
0
LINE
5
766
100
AcDbEntity
8
1-0
6
CONTINUOUS
62
3
100
AcDbLine
10
133973.230000000010
20
125555.570000000010
30
0.0
11
134457.670000000010
21
125499.500000000000
31
0.0
0
LINE
5
767
100
AcDbEntity
8
1-0
6
CONTINUOUS
62
3
100
AcDbLine
10
134457.670000000010
20
125499.500000000000
30
0.0
11
134943.320000000010
21
125446.230000000000
31
0.0
0
LINE
5
768
100
AcDbEntity
8
1-0
6
CONTINUOUS
62
3
100
AcDbLine
10
134943.320000000010
20
125446.230000000000
30
0.0
11
135430.720000000000
21
125396.670000000000
31
0.0
0
LINE
5
769
100
AcDbEntity
8
1-0
6
CONTINUOUS
62
3
100
AcDbLine
10
135430.720000000000
20
125396.670000000000
30
0.0
11
135920.399999999990
21
125351.570000000010
31
0.0
0
LINE
5
76a
100
AcDbEntity
8
1-0
6
CONTINUOUS
62
3
100
AcDbLine
10
135920.399999999990
20
125351.570000000010
30
0.0
11
136412.959999999990
21
125311.810000000000
31
0.0
0
LINE
5
76b
100
AcDbEntity
8
1-0
6
CONTINUOUS
62
3
100
AcDbLine
10
136412.959999999990
20
125311.810000000000
30
0.0
11
136908.890000000010
21
125278.200000000000
31
0.0
0
LINE
5
76c
100
AcDbEntity
8
1-0
6
CONTINUOUS
62
3
100
AcDbLine
10
136908.890000000010
20
125278.200000000000
30
0.0
11
137408.769999999990
21
125251.570000000010
31
0.0
0
LINE
5
76d
100
AcDbEntity
8
1-0
6
CONTINUOUS
62
3
100
AcDbLine
10
137408.769999999990
20
125251.570000000010
30
0.0
11
137913.170000000010
21
125232.740000000010
31
0.0
0
LINE
5
76e
100
AcDbEntity
8
1-0
6
CONTINUOUS
62
3
100
AcDbLine
10
137913.170000000010
20
125232.740000000010
30
0.0
11
138422.600000000010
21
125222.570000000010
31
0.0
0
LINE
5
76f
100
AcDbEntity
8
1-0
6
CONTINUOUS
62
3
100
AcDbLine
10
138422.600000000010
20
125222.570000000010
30
0.0
11
138937.660000000000
21
125221.850000000010
31
0.0
0
LINE
5
770
100
AcDbEntity
8
1-0
6
CONTINUOUS
62
3
100
AcDbLine
10
138937.660000000000
20
125221.850000000010
30
0.0
11
139458.820000000010
21
125231.429999999990
31
0.0
0
LINE
5
771
100
AcDbEntity
8
1-0
6
CONTINUOUS
62
3
100
AcDbLine
10
139458.820000000010
20
125231.429999999990
30
0.0
11
139986.700000000010
21
125252.130000000000
31
0.0
0
LINE
5
772
100
AcDbEntity
8
1-0
6
CONTINUOUS
62
3
100
AcDbLine
10
139986.700000000010
20
125252.130000000000
30
0.0
11
140521.810000000000
21
125284.789999999990
31
0.0
0
LINE
5
773
100
AcDbEntity
8
1-0
6
CONTINUOUS
62
3
100
AcDbLine
10
140521.810000000000
20
125284.789999999990
30
0.0
11
141064.450000000010
21
125329.720000000000
31
0.0
0
LINE
5
774
100
AcDbEntity
8
1-0
6
CONTINUOUS
62
3
100
AcDbLine
10
141064.450000000010
20
125329.720000000000
30
0.0
11
141612.239999999990
21
125382.140000000000
31
0.0
0
LINE
5
775
100
AcDbEntity
8
1-0
6
CONTINUOUS
62
3
100
AcDbLine
10
141612.239999999990
20
125382.140000000000
30
0.0
11
142161.170000000010
21
125434.310000000000
31
0.0
0
LINE
5
776
100
AcDbEntity
8
1-0
6
CONTINUOUS
62
3
100
AcDbLine
10
142161.170000000010
20
125434.310000000000
30
0.0
11
142707.340000000000
21
125478.450000000000
31
0.0
0
LINE
5
777
100
AcDbEntity
8
1-0
6
CONTINUOUS
62
3
100
AcDbLine
10
142707.340000000000
20
125478.450000000000
30
0.0
11
143246.739999999990
21
125506.810000000000
31
0.0
0
LINE
5
778
100
AcDbEntity
8
1-0
6
CONTINUOUS
62
3
100
AcDbLine
10
143246.739999999990
20
125506.810000000000
30
0.0
11
143775.450000000010
21
125511.600000000010
31
0.0
0
LINE
5
779
100
AcDbEntity
8
1-0
6
CONTINUOUS
62
3
100
AcDbLine
10
143775.450000000010
20
125511.600000000010
30
0.0
11
144289.470000000000
21
125485.060000000000
31
0.0
0
LINE
5
77a
100
AcDbEntity
8
1-0
6
CONTINUOUS
62
3
100
AcDbLine
10
144289.470000000000
20
125485.060000000000
30
0.0
11
144784.829999999990
21
125419.429999999990
31
0.0
0
LINE
5
77b
100
AcDbEntity
8
1-0
6
CONTINUOUS
62
3
100
AcDbLine
10
144784.829999999990
20
125419.429999999990
30
0.0
11
145257.600000000010
21
125306.950000000000
31
0.0
0
LINE
5
77c
100
AcDbEntity
8
1-0
6
CONTINUOUS
62
3
100
AcDbLine
10
145257.600000000010
20
125306.950000000000
30
0.0
11
145703.790000000010
21
125139.830000000000
31
0.0
0
LINE
5
77d
100
AcDbEntity
8
1-0
6
CONTINUOUS
62
3
100
AcDbLine
10
145703.790000000010
20
125139.830000000000
30
0.0
11
146119.440000000000
21
124910.320000000010
31
0.0
0
LINE
5
77e
100
AcDbEntity
8
1-0
6
CONTINUOUS
62
3
100
AcDbLine
10
146119.440000000000
20
124910.320000000010
30
0.0
11
146500.600000000010
21
124610.649999999990
31
0.0
0
LINE
5
77f
100
AcDbEntity
8
1-0
6
CONTINUOUS
62
3
100
AcDbLine
10
146500.600000000010
20
124610.649999999990
30
0.0
11
146861.970000000000
21
124265.920000000000
31
0.0
0
LINE
5
780
100
AcDbEntity
8
1-0
6
CONTINUOUS
62
3
100
AcDbLine
10
146861.970000000000
20
124265.920000000000
30
0.0
11
147243.489999999990
21
123946.890000000000
31
0.0
0
LINE
5
781
100
AcDbEntity
8
1-0
6
CONTINUOUS
62
3
100
AcDbLine
10
147243.489999999990
20
123946.890000000000
30
0.0
11
147642.570000000010
21
123650.220000000000
31
0.0
0
LINE
5
782
100
AcDbEntity
8
1-0
6
CONTINUOUS
62
3
100
AcDbLine
10
147642.570000000010
20
123650.220000000000
30
0.0
11
148054.040000000010
21
123368.270000000000
31
0.0
0
LINE
5
783
100
AcDbEntity
8
1-0
6
CONTINUOUS
62
3
100
AcDbLine
10
148054.040000000010
20
123368.270000000000
30
0.0
11
148472.739999999990
21
123093.380000000000
31
0.0
0
LINE
5
784
100
AcDbEntity
8
1-0
6
CONTINUOUS
62
3
100
AcDbLine
10
148472.739999999990
20
123093.380000000000
30
0.0
11
148893.590000000000
21
122817.920000000000
31
0.0
0
LINE
5
785
100
AcDbEntity
8
1-0
6
CONTINUOUS
62
3
100
AcDbLine
10
148893.590000000000
20
122817.920000000000
30
0.0
11
149311.340000000000
21
122534.190000000000
31
0.0
0
LINE
5
786
100
AcDbEntity
8
1-0
6
CONTINUOUS
62
3
100
AcDbLine
10
149311.340000000000
20
122534.190000000000
30
0.0
11
149720.899999999990
21
122234.750000000000
31
0.0
0
LINE
5
787
100
AcDbEntity
8
1-0
6
CONTINUOUS
62
3
100
AcDbLine
10
149720.899999999990
20
122234.750000000000
30
0.0
11
150116.250000000000
21
121915.410000000000
31
0.0
0
LINE
5
788
100
AcDbEntity
8
1-0
6
CONTINUOUS
62
3
100
AcDbLine
10
150116.250000000000
20
121915.410000000000
30
0.0
11
150490.679999999990
21
121574.860000000000
31
0.0
0
LINE
5
789
100
AcDbEntity
8
1-0
6
CONTINUOUS
62
3
100
AcDbLine
10
150490.679999999990
20
121574.860000000000
30
0.0
11
150837.480000000010
21
121211.830000000000
31
0.0
0
LINE
5
78a
100
AcDbEntity
8
1-0
6
CONTINUOUS
62
3
100
AcDbLine
10
150837.480000000010
20
121211.830000000000
30
0.0
11
151149.940000000000
21
120825.110000000000
31
0.0
0
LINE
5
78b
100
AcDbEntity
8
1-0
6
CONTINUOUS
62
3
100
AcDbLine
10
151149.940000000000
20
120825.110000000000
30
0.0
11
151421.470000000000
21
120413.520000000000
31
0.0
0
LINE
5
78c
100
AcDbEntity
8
1-0
6
CONTINUOUS
62
3
100
AcDbLine
10
151421.470000000000
20
120413.520000000000
30
0.0
11
151651.570000000010
21
119978.259999999990
31
0.0
0
LINE
5
78d
100
AcDbEntity
8
1-0
6
CONTINUOUS
62
3
100
AcDbLine
10
151651.570000000010
20
119978.259999999990
30
0.0
11
151847.829999999990
21
119523.530000000000
31
0.0
0
LINE
5
78e
100
AcDbEntity
8
1-0
6
CONTINUOUS
62
3
100
AcDbLine
10
151847.829999999990
20
119523.530000000000
30
0.0
11
152018.269999999990
21
119053.780000000000
31
0.0
0
LINE
5
78f
100
AcDbEntity
8
1-0
6
CONTINUOUS
62
3
100
AcDbLine
10
152018.269999999990
20
119053.780000000000
30
0.0
11
152170.980000000010
21
118573.470000000000
31
0.0
0
LINE
5
790
100
AcDbEntity
8
1-0
6
CONTINUOUS
62
3
100
AcDbLine
10
152170.980000000010
20
118573.470000000000
30
0.0
11
152314.000000000000
21
118087.030000000000
31
0.0
0
LINE
5
791
100
AcDbEntity
8
1-0
6
CONTINUOUS
62
3
100
AcDbLine
10
152314.000000000000
20
118087.030000000000
30
0.0
11
152455.450000000010
21
117598.890000000000
31
0.0
0
LINE
5
792
100
AcDbEntity
8
1-0
6
CONTINUOUS
62
3
100
AcDbLine
10
152455.450000000010
20
117598.890000000000
30
0.0
11
152603.329999999990
21
117113.520000000000
31
0.0
0
LINE
5
793
100
AcDbEntity
8
1-0
6
CONTINUOUS
62
3
100
AcDbLine
10
152603.329999999990
20
117113.520000000000
30
0.0
11
152764.959999999990
21
116634.960000000010
31
0.0
0
LINE
5
794
100
AcDbEntity
8
1-0
6
CONTINUOUS
62
3
100
AcDbLine
10
152764.959999999990
20
116634.960000000010
30
0.0
11
152938.679999999990
21
116162.970000000000
31
0.0
0
LINE
5
795
100
AcDbEntity
8
1-0
6
CONTINUOUS
62
3
100
AcDbLine
10
152938.679999999990
20
116162.970000000000
30
0.0
11
153117.709999999990
21
115694.810000000000
31
0.0
0
LINE
5
796
100
AcDbEntity
8
1-0
6
CONTINUOUS
62
3
100
AcDbLine
10
153117.709999999990
20
115694.810000000000
30
0.0
11
153295.079999999990
21
115227.640000000000
31
0.0
0
LINE
5
797
100
AcDbEntity
8
1-0
6
CONTINUOUS
62
3
100
AcDbLine
10
153295.079999999990
20
115227.640000000000
30
0.0
11
153463.799999999990
21
114758.620000000000
31
0.0
0
LINE
5
798
100
AcDbEntity
8
1-0
6
CONTINUOUS
62
3
100
AcDbLine
10
153463.799999999990
20
114758.620000000000
30
0.0
11
153617.000000000000
21
114284.990000000010
31
0.0
0
LINE
5
799
100
AcDbEntity
8
1-0
6
CONTINUOUS
62
3
100
AcDbLine
10
153617.000000000000
20
114284.990000000010
30
0.0
11
153747.720000000000
21
113803.910000000000
31
0.0
0
LINE
5
79a
100
AcDbEntity
8
1-0
6
CONTINUOUS
62
3
100
AcDbLine
10
153747.720000000000
20
113803.910000000000
30
0.0
11
153849.970000000000
21
113313.420000000000
31
0.0
0
LINE
5
79b
100
AcDbEntity
8
1-0
6
CONTINUOUS
62
3
100
AcDbLine
10
153849.970000000000
20
113313.420000000000
30
0.0
11
153921.950000000010
21
112815.380000000000
31
0.0
0
LINE
5
79c
100
AcDbEntity
8
1-0
6
CONTINUOUS
62
3
100
AcDbLine
10
153921.950000000010
20
112815.380000000000
30
0.0
11
153962.970000000000
21
112312.560000000000
31
0.0
0
LINE
5
79d
100
AcDbEntity
8
1-0
6
CONTINUOUS
62
3
100
AcDbLine
10
153962.970000000000
20
112312.560000000000
30
0.0
11
153972.320000000010
21
111807.780000000000
31
0.0
0
LINE
5
79e
100
AcDbEntity
8
1-0
6
CONTINUOUS
62
3
100
AcDbLine
10
153972.320000000010
20
111807.780000000000
30
0.0
11
153949.269999999990
21
111303.870000000000
31
0.0
0
LINE
5
79f
100
AcDbEntity
8
1-0
6
CONTINUOUS
62
3
100
AcDbLine
10
153949.269999999990
20
111303.870000000000
30
0.0
11
153893.149999999990
21
110803.630000000000
31
0.0
0
LINE
5
7a0
100
AcDbEntity
8
1-0
6
CONTINUOUS
62
3
100
AcDbLine
10
153893.149999999990
20
110803.630000000000
30
0.0
11
153803.630000000000
21
110309.720000000000
31
0.0
0
LINE
5
7a1
100
AcDbEntity
8
1-0
6
CONTINUOUS
62
3
100
AcDbLine
10
153803.630000000000
20
110309.720000000000
30
0.0
11
153690.000000000000
21
109821.690000000000
31
0.0
0
LINE
5
7a2
100
AcDbEntity
8
1-0
6
CONTINUOUS
62
3
100
AcDbLine
10
153690.000000000000
20
109821.690000000000
30
0.0
11
153571.450000000010
21
109335.740000000010
31
0.0
0
LINE
5
7a3
100
AcDbEntity
8
1-0
6
CONTINUOUS
62
3
100
AcDbLine
10
153571.450000000010
20
109335.740000000010
30
0.0
11
153467.459999999990
21
108848.009999999990
31
0.0
0
LINE
5
7a4
100
AcDbEntity
8
1-0
6
CONTINUOUS
62
3
100
AcDbLine
10
153467.459999999990
20
108848.009999999990
30
0.0
11
153394.850000000010
21
108355.050000000000
31
0.0
0
LINE
5
7a5
100
AcDbEntity
8
1-0
6
CONTINUOUS
62
3
100
AcDbLine
10
153394.850000000010
20
108355.050000000000
30
0.0
11
153346.560000000000
21
107857.580000000000
31
0.0
0
LINE
5
7a6
100
AcDbEntity
8
1-0
6
CONTINUOUS
62
3
100
AcDbLine
10
153346.560000000000
20
107857.580000000000
30
0.0
11
153303.399999999990
21
107358.270000000000
31
0.0
0
LINE
5
7a7
100
AcDbEntity
8
1-0
6
CONTINUOUS
62
3
100
AcDbLine
10
153303.399999999990
20
107358.270000000000
30
0.0
11
153247.030000000000
21
106859.830000000000
31
0.0
0
LINE
5
7a8
100
AcDbEntity
8
1-0
6
CONTINUOUS
62
3
100
AcDbLine
10
153247.030000000000
20
106859.830000000000
30
0.0
11
153169.980000000010
21
106364.090000000000
31
0.0
0
LINE
5
7a9
100
AcDbEntity
8
1-0
6
CONTINUOUS
62
3
100
AcDbLine
10
153169.980000000010
20
106364.090000000000
30
0.0
11
153072.019999999990
21
105872.300000000000
31
0.0
0
LINE
5
7aa
100
AcDbEntity
8
1-0
6
CONTINUOUS
62
3
100
AcDbLine
10
153072.019999999990
20
105872.300000000000
30
0.0
11
152952.970000000000
21
105385.720000000000
31
0.0
0
LINE
5
7ab
100
AcDbEntity
8
1-0
6
CONTINUOUS
62
3
100
AcDbLine
10
152952.970000000000
20
105385.720000000000
30
0.0
11
152812.739999999990
21
104905.610000000000
31
0.0
0
LINE
5
7ac
100
AcDbEntity
8
1-0
6
CONTINUOUS
62
3
100
AcDbLine
10
152812.739999999990
20
104905.610000000000
30
0.0
11
152651.269999999990
21
104433.170000000000
31
0.0
0
LINE
5
7ad
100
AcDbEntity
8
1-0
6
CONTINUOUS
62
3
100
AcDbLine
10
152651.269999999990
20
104433.170000000000
30
0.0
11
152470.000000000000
21
103968.390000000000
31
0.0
0
LINE
5
7ae
100
AcDbEntity
8
1-0
6
CONTINUOUS
62
3
100
AcDbLine
10
152470.000000000000
20
103968.390000000000
30
0.0
11
152271.840000000000
21
103510.179999999990
31
0.0
0
LINE
5
7af
100
AcDbEntity
8
1-0
6
CONTINUOUS
62
3
100
AcDbLine
10
152271.840000000000
20
103510.179999999990
30
0.0
11
152059.870000000000
21
103057.360000000000
31
0.0
0
LINE
5
7b0
100
AcDbEntity
8
1-0
6
CONTINUOUS
62
3
100
AcDbLine
10
152059.870000000000
20
103057.360000000000
30
0.0
11
151836.970000000000
21
102608.780000000000
31
0.0
0
LINE
5
7b1
100
AcDbEntity
8
1-0
6
CONTINUOUS
62
3
100
AcDbLine
10
151836.970000000000
20
102608.780000000000
30
0.0
11
151606.230000000010
21
102163.259999999990
31
0.0
0
LINE
5
7b2
100
AcDbEntity
8
1-0
6
CONTINUOUS
62
3
100
AcDbLine
10
151606.230000000010
20
102163.259999999990
30
0.0
11
151370.540000000010
21
101719.660000000000
31
0.0
0
LINE
5
7b3
100
AcDbEntity
8
1-0
6
CONTINUOUS
62
3
100
AcDbLine
10
151370.540000000010
20
101719.660000000000
30
0.0
11
151218.170000000010
21
101435.560000000000
31
0.0
0
LINE
5
7b4
100
AcDbEntity
8
1-0
6
CONTINUOUS
62
3
100
AcDbLine
10
44543.550000000003
20
47347.389999999999
30
0.0
11
45004.459999999999
21
47150.279999999999
31
0.0
0
LINE
5
7b5
100
AcDbEntity
8
1-0
6
CONTINUOUS
62
3
100
AcDbLine
10
45004.459999999999
20
47150.279999999999
30
0.0
11
45465.980000000003
21
46955.050000000003
31
0.0
0
LINE
5
7b6
100
AcDbEntity
8
1-0
6
CONTINUOUS
62
3
100
AcDbLine
10
45465.980000000003
20
46955.050000000003
30
0.0
11
45928.720000000001
21
46763.559999999998
31
0.0
0
LINE
5
7b7
100
AcDbEntity
8
1-0
6
CONTINUOUS
62
3
100
AcDbLine
10
45928.720000000001
20
46763.559999999998
30
0.0
11
46393.260000000002
21
46577.699999999997
31
0.0
0
LINE
5
7b8
100
AcDbEntity
8
1-0
6
CONTINUOUS
62
3
100
AcDbLine
10
46393.260000000002
20
46577.699999999997
30
0.0
11
46860.250000000000
21
46399.330000000002
31
0.0
0
LINE
5
7b9
100
AcDbEntity
8
1-0
6
CONTINUOUS
62
3
100
AcDbLine
10
46860.250000000000
20
46399.330000000002
30
0.0
11
47330.269999999997
21
46230.339999999997
31
0.0
0
LINE
5
7ba
100
AcDbEntity
8
1-0
6
CONTINUOUS
62
3
100
AcDbLine
10
47330.269999999997
20
46230.339999999997
30
0.0
11
47803.930000000000
21
46072.599999999999
31
0.0
0
LINE
5
7bb
100
AcDbEntity
8
1-0
6
CONTINUOUS
62
3
100
AcDbLine
10
47803.930000000000
20
46072.599999999999
30
0.0
11
48281.790000000001
21
45927.839999999997
31
0.0
0
LINE
5
7bc
100
AcDbEntity
8
1-0
6
CONTINUOUS
62
3
100
AcDbLine
10
48281.790000000001
20
45927.839999999997
30
0.0
11
48763.730000000003
21
45795.959999999999
31
0.0
0
LINE
5
7bd
100
AcDbEntity
8
1-0
6
CONTINUOUS
62
3
100
AcDbLine
10
48763.730000000003
20
45795.959999999999
30
0.0
11
49249.080000000002
21
45675.459999999999
31
0.0
0
LINE
5
7be
100
AcDbEntity
8
1-0
6
CONTINUOUS
62
3
100
AcDbLine
10
49249.080000000002
20
45675.459999999999
30
0.0
11
49737.220000000001
21
45564.830000000002
31
0.0
0
LINE
5
7bf
100
AcDbEntity
8
1-0
6
CONTINUOUS
62
3
100
AcDbLine
10
49737.220000000001
20
45564.830000000002
30
0.0
11
50227.449999999997
21
45462.540000000001
31
0.0
0
LINE
5
7c0
100
AcDbEntity
8
1-0
6
CONTINUOUS
62
3
100
AcDbLine
10
50227.449999999997
20
45462.540000000001
30
0.0
11
50719.169999999998
21
45367.129999999997
31
0.0
0
LINE
5
7c1
100
AcDbEntity
8
1-0
6
CONTINUOUS
62
3
100
AcDbLine
10
50719.169999999998
20
45367.129999999997
30
0.0
11
51212.080000000002
21
45279.690000000002
31
0.0
0
LINE
5
7c2
100
AcDbEntity
8
1-0
6
CONTINUOUS
62
3
100
AcDbLine
10
51212.080000000002
20
45279.690000000002
30
0.0
11
51706.379999999997
21
45204.820000000000
31
0.0
0
LINE
5
7c3
100
AcDbEntity
8
1-0
6
CONTINUOUS
62
3
100
AcDbLine
10
51706.379999999997
20
45204.820000000000
30
0.0
11
52202.339999999997
21
45147.309999999998
31
0.0
0
LINE
5
7c4
100
AcDbEntity
8
1-0
6
CONTINUOUS
62
3
100
AcDbLine
10
52202.339999999997
20
45147.309999999998
30
0.0
11
52699.980000000003
21
45108.849999999999
31
0.0
0
LINE
5
7c5
100
AcDbEntity
8
1-0
6
CONTINUOUS
62
3
100
AcDbLine
10
52699.980000000003
20
45108.849999999999
30
0.0
11
53199.019999999997
21
45085.580000000002
31
0.0
0
LINE
5
7c6
100
AcDbEntity
8
1-0
6
CONTINUOUS
62
3
100
AcDbLine
10
53199.019999999997
20
45085.580000000002
30
0.0
11
53699.080000000002
21
45073.150000000001
31
0.0
0
LINE
5
7c7
100
AcDbEntity
8
1-0
6
CONTINUOUS
62
3
100
AcDbLine
10
53699.080000000002
20
45073.150000000001
30
0.0
11
54199.839999999997
21
45067.190000000002
31
0.0
0
LINE
5
7c8
100
AcDbEntity
8
1-0
6
CONTINUOUS
62
3
100
AcDbLine
10
54199.839999999997
20
45067.190000000002
30
0.0
11
54700.940000000002
21
45063.300000000003
31
0.0
0
LINE
5
7c9
100
AcDbEntity
8
1-0
6
CONTINUOUS
62
3
100
AcDbLine
10
54700.940000000002
20
45063.300000000003
30
0.0
11
55202.040000000001
21
45057.209999999999
31
0.0
0
LINE
5
7ca
100
AcDbEntity
8
1-0
6
CONTINUOUS
62
3
100
AcDbLine
10
55202.040000000001
20
45057.209999999999
30
0.0
11
55702.930000000000
21
45047.089999999997
31
0.0
0
LINE
5
7cb
100
AcDbEntity
8
1-0
6
CONTINUOUS
62
3
100
AcDbLine
10
55702.930000000000
20
45047.089999999997
30
0.0
11
56203.650000000001
21
45033.959999999999
31
0.0
0
LINE
5
7cc
100
AcDbEntity
8
1-0
6
CONTINUOUS
62
3
100
AcDbLine
10
56203.650000000001
20
45033.959999999999
30
0.0
11
56704.169999999998
21
45019.000000000000
31
0.0
0
LINE
5
7cd
100
AcDbEntity
8
1-0
6
CONTINUOUS
62
3
100
AcDbLine
10
56704.169999999998
20
45019.000000000000
30
0.0
11
57204.510000000002
21
45003.379999999997
31
0.0
0
LINE
5
7ce
100
AcDbEntity
8
1-0
6
CONTINUOUS
62
3
100
AcDbLine
10
57204.510000000002
20
45003.379999999997
30
0.0
11
57704.639999999999
21
44988.330000000002
31
0.0
0
LINE
5
7cf
100
AcDbEntity
8
1-0
6
CONTINUOUS
62
3
100
AcDbLine
10
57704.639999999999
20
44988.330000000002
30
0.0
11
58204.599999999999
21
44975.000000000000
31
0.0
0
LINE
5
7d0
100
AcDbEntity
8
1-0
6
CONTINUOUS
62
3
100
AcDbLine
10
58204.599999999999
20
44975.000000000000
30
0.0
11
58704.370000000003
21
44964.570000000000
31
0.0
0
LINE
5
7d1
100
AcDbEntity
8
1-0
6
CONTINUOUS
62
3
100
AcDbLine
10
58704.370000000003
20
44964.570000000000
30
0.0
11
59203.940000000002
21
44958.260000000002
31
0.0
0
LINE
5
7d2
100
AcDbEntity
8
1-0
6
CONTINUOUS
62
3
100
AcDbLine
10
59203.940000000002
20
44958.260000000002
30
0.0
11
59703.349999999999
21
44957.230000000003
31
0.0
0
LINE
5
7d3
100
AcDbEntity
8
1-0
6
CONTINUOUS
62
3
100
AcDbLine
10
59703.349999999999
20
44957.230000000003
30
0.0
11
60202.580000000002
21
44962.669999999998
31
0.0
0
LINE
5
7d4
100
AcDbEntity
8
1-0
6
CONTINUOUS
62
3
100
AcDbLine
10
60202.580000000002
20
44962.669999999998
30
0.0
11
60701.639999999999
21
44975.760000000002
31
0.0
0
LINE
5
7d5
100
AcDbEntity
8
1-0
6
CONTINUOUS
62
3
100
AcDbLine
10
60701.639999999999
20
44975.760000000002
30
0.0
11
61200.510000000002
21
44997.669999999998
31
0.0
0
LINE
5
7d6
100
AcDbEntity
8
1-0
6
CONTINUOUS
62
3
100
AcDbLine
10
61200.510000000002
20
44997.669999999998
30
0.0
11
61699.150000000001
21
45028.639999999999
31
0.0
0
LINE
5
7d7
100
AcDbEntity
8
1-0
6
CONTINUOUS
62
3
100
AcDbLine
10
61699.150000000001
20
45028.639999999999
30
0.0
11
62197.500000000000
21
45068.080000000002
31
0.0
0
LINE
5
7d8
100
AcDbEntity
8
1-0
6
CONTINUOUS
62
3
100
AcDbLine
10
62197.500000000000
20
45068.080000000002
30
0.0
11
62695.440000000002
21
45115.360000000001
31
0.0
0
LINE
5
7d9
100
AcDbEntity
8
1-0
6
CONTINUOUS
62
3
100
AcDbLine
10
62695.440000000002
20
45115.360000000001
30
0.0
11
63192.879999999997
21
45169.820000000000
31
0.0
0
LINE
5
7da
100
AcDbEntity
8
1-0
6
CONTINUOUS
62
3
100
AcDbLine
10
63192.879999999997
20
45169.820000000000
30
0.0
11
63689.750000000000
21
45230.839999999997
31
0.0
0
LINE
5
7db
100
AcDbEntity
8
1-0
6
CONTINUOUS
62
3
100
AcDbLine
10
63689.750000000000
20
45230.839999999997
30
0.0
11
64185.919999999998
21
45297.769999999997
31
0.0
0
LINE
5
7dc
100
AcDbEntity
8
1-0
6
CONTINUOUS
62
3
100
AcDbLine
10
64185.919999999998
20
45297.769999999997
30
0.0
11
64681.339999999997
21
45369.959999999999
31
0.0
0
LINE
5
7dd
100
AcDbEntity
8
1-0
6
CONTINUOUS
62
3
100
AcDbLine
10
64681.339999999997
20
45369.959999999999
30
0.0
11
65175.910000000003
21
45446.779999999999
31
0.0
0
LINE
5
7de
100
AcDbEntity
8
1-0
6
CONTINUOUS
62
3
100
AcDbLine
10
65175.910000000003
20
45446.779999999999
30
0.0
11
65669.610000000001
21
45527.769999999997
31
0.0
0
LINE
5
7df
100
AcDbEntity
8
1-0
6
CONTINUOUS
62
3
100
AcDbLine
10
65669.610000000001
20
45527.769999999997
30
0.0
11
66162.539999999994
21
45612.570000000000
31
0.0
0
LINE
5
7e0
100
AcDbEntity
8
1-0
6
CONTINUOUS
62
3
100
AcDbLine
10
66162.539999999994
20
45612.570000000000
30
0.0
11
66654.770000000004
21
45700.830000000002
31
0.0
0
LINE
5
7e1
100
AcDbEntity
8
1-0
6
CONTINUOUS
62
3
100
AcDbLine
10
66654.770000000004
20
45700.830000000002
30
0.0
11
67146.350000000006
21
45792.199999999997
31
0.0
0
LINE
5
7e2
100
AcDbEntity
8
1-0
6
CONTINUOUS
62
3
100
AcDbLine
10
67146.350000000006
20
45792.199999999997
30
0.0
11
67637.389999999999
21
45886.330000000002
31
0.0
0
LINE
5
7e3
100
AcDbEntity
8
1-0
6
CONTINUOUS
62
3
100
AcDbLine
10
67637.389999999999
20
45886.330000000002
30
0.0
11
68127.949999999997
21
45982.870000000003
31
0.0
0
LINE
5
7e4
100
AcDbEntity
8
1-0
6
CONTINUOUS
62
3
100
AcDbLine
10
68127.949999999997
20
45982.870000000003
30
0.0
11
68618.100000000006
21
46081.480000000003
31
0.0
0
LINE
5
7e5
100
AcDbEntity
8
1-0
6
CONTINUOUS
62
3
100
AcDbLine
10
68618.100000000006
20
46081.480000000003
30
0.0
11
69107.889999999999
21
46181.800000000003
31
0.0
0
LINE
5
7e6
100
AcDbEntity
8
1-0
6
CONTINUOUS
62
3
100
AcDbLine
10
69107.889999999999
20
46181.800000000003
30
0.0
11
69597.429999999993
21
46283.489999999998
31
0.0
0
LINE
5
7e7
100
AcDbEntity
8
1-0
6
CONTINUOUS
62
3
100
AcDbLine
10
69597.429999999993
20
46283.489999999998
30
0.0
11
70086.800000000003
21
46386.190000000002
31
0.0
0
LINE
5
7e8
100
AcDbEntity
8
1-0
6
CONTINUOUS
62
3
100
AcDbLine
10
70086.800000000003
20
46386.190000000002
30
0.0
11
70576.039999999994
21
46489.559999999998
31
0.0
0
LINE
5
7e9
100
AcDbEntity
8
1-0
6
CONTINUOUS
62
3
100
AcDbLine
10
70576.039999999994
20
46489.559999999998
30
0.0
11
71065.169999999998
21
46593.570000000000
31
0.0
0
LINE
5
7ea
100
AcDbEntity
8
1-0
6
CONTINUOUS
62
3
100
AcDbLine
10
71065.169999999998
20
46593.570000000000
30
0.0
11
71554.009999999995
21
46698.830000000002
31
0.0
0
LINE
5
7eb
100
AcDbEntity
8
1-0
6
CONTINUOUS
62
3
100
AcDbLine
10
71554.009999999995
20
46698.830000000002
30
0.0
11
72042.399999999994
21
46806.010000000002
31
0.0
0
LINE
5
7ec
100
AcDbEntity
8
1-0
6
CONTINUOUS
62
3
100
AcDbLine
10
72042.399999999994
20
46806.010000000002
30
0.0
11
72530.160000000003
21
46915.809999999998
31
0.0
0
LINE
5
7ed
100
AcDbEntity
8
1-0
6
CONTINUOUS
62
3
100
AcDbLine
10
72530.160000000003
20
46915.809999999998
30
0.0
11
73017.110000000001
21
47028.930000000000
31
0.0
0
LINE
5
7ee
100
AcDbEntity
8
1-0
6
CONTINUOUS
62
3
100
AcDbLine
10
73017.110000000001
20
47028.930000000000
30
0.0
11
73503.160000000003
21
47145.629999999997
31
0.0
0
LINE
5
7ef
100
AcDbEntity
8
1-0
6
CONTINUOUS
62
3
100
AcDbLine
10
73503.160000000003
20
47145.629999999997
30
0.0
11
73988.449999999997
21
47265.599999999999
31
0.0
0
LINE
5
7f0
100
AcDbEntity
8
1-0
6
CONTINUOUS
62
3
100
AcDbLine
10
73988.449999999997
20
47265.599999999999
30
0.0
11
74473.050000000003
21
47388.419999999998
31
0.0
0
LINE
5
7f1
100
AcDbEntity
8
1-0
6
CONTINUOUS
62
3
100
AcDbLine
10
74473.050000000003
20
47388.419999999998
30
0.0
11
74957.100000000006
21
47513.690000000002
31
0.0
0
LINE
5
7f2
100
AcDbEntity
8
1-0
6
CONTINUOUS
62
3
100
AcDbLine
10
74957.100000000006
20
47513.690000000002
30
0.0
11
75440.699999999997
21
47641.010000000002
31
0.0
0
LINE
5
7f3
100
AcDbEntity
8
1-0
6
CONTINUOUS
62
3
100
AcDbLine
10
75440.699999999997
20
47641.010000000002
30
0.0
11
75923.990000000005
21
47769.959999999999
31
0.0
0
LINE
5
7f4
100
AcDbEntity
8
1-0
6
CONTINUOUS
62
3
100
AcDbLine
10
75923.990000000005
20
47769.959999999999
30
0.0
11
76407.050000000003
21
47900.160000000003
31
0.0
0
LINE
5
7f5
100
AcDbEntity
8
1-0
6
CONTINUOUS
62
3
100
AcDbLine
10
76407.050000000003
20
47900.160000000003
30
0.0
11
76889.979999999996
21
48031.320000000000
31
0.0
0
LINE
5
7f6
100
AcDbEntity
8
1-0
6
CONTINUOUS
62
3
100
AcDbLine
10
76889.979999999996
20
48031.320000000000
30
0.0
11
77372.740000000005
21
48163.510000000002
31
0.0
0
LINE
5
7f7
100
AcDbEntity
8
1-0
6
CONTINUOUS
62
3
100
AcDbLine
10
77372.740000000005
20
48163.510000000002
30
0.0
11
77855.279999999999
21
48296.820000000000
31
0.0
0
LINE
5
7f8
100
AcDbEntity
8
1-0
6
CONTINUOUS
62
3
100
AcDbLine
10
77855.279999999999
20
48296.820000000000
30
0.0
11
78337.529999999999
21
48431.339999999997
31
0.0
0
LINE
5
7f9
100
AcDbEntity
8
1-0
6
CONTINUOUS
62
3
100
AcDbLine
10
78337.529999999999
20
48431.339999999997
30
0.0
11
78819.479999999996
21
48567.199999999997
31
0.0
0
LINE
5
7fa
100
AcDbEntity
8
1-0
6
CONTINUOUS
62
3
100
AcDbLine
10
78819.479999999996
20
48567.199999999997
30
0.0
11
79301.070000000007
21
48704.480000000003
31
0.0
0
LINE
5
7fb
100
AcDbEntity
8
1-0
6
CONTINUOUS
62
3
100
AcDbLine
10
79301.070000000007
20
48704.480000000003
30
0.0
11
79782.220000000001
21
48843.290000000001
31
0.0
0
LINE
5
7fc
100
AcDbEntity
8
1-0
6
CONTINUOUS
62
3
100
AcDbLine
10
79782.220000000001
20
48843.290000000001
30
0.0
11
80262.919999999998
21
48983.730000000003
31
0.0
0
LINE
5
7fd
100
AcDbEntity
8
1-0
6
CONTINUOUS
62
3
100
AcDbLine
10
80262.919999999998
20
48983.730000000003
30
0.0
11
80743.110000000001
21
49125.910000000003
31
0.0
0
LINE
5
7fe
100
AcDbEntity
8
1-0
6
CONTINUOUS
62
3
100
AcDbLine
10
80743.110000000001
20
49125.910000000003
30
0.0
11
81222.720000000001
21
49269.919999999998
31
0.0
0
LINE
5
7ff
100
AcDbEntity
8
1-0
6
CONTINUOUS
62
3
100
AcDbLine
10
81222.720000000001
20
49269.919999999998
30
0.0
11
81701.729999999996
21
49415.870000000003
31
0.0
0
LINE
5
800
100
AcDbEntity
8
1-0
6
CONTINUOUS
62
3
100
AcDbLine
10
81701.729999999996
20
49415.870000000003
30
0.0
11
82180.080000000002
21
49563.870000000003
31
0.0
0
LINE
5
801
100
AcDbEntity
8
1-0
6
CONTINUOUS
62
3
100
AcDbLine
10
82180.080000000002
20
49563.870000000003
30
0.0
11
82657.720000000001
21
49713.989999999998
31
0.0
0
LINE
5
802
100
AcDbEntity
8
1-0
6
CONTINUOUS
62
3
100
AcDbLine
10
82657.720000000001
20
49713.989999999998
30
0.0
11
83134.610000000001
21
49866.360000000001
31
0.0
0
LINE
5
803
100
AcDbEntity
8
1-0
6
CONTINUOUS
62
3
100
AcDbLine
10
83134.610000000001
20
49866.360000000001
30
0.0
11
83610.679999999993
21
50021.089999999997
31
0.0
0
LINE
5
804
100
AcDbEntity
8
1-0
6
CONTINUOUS
62
3
100
AcDbLine
10
83610.679999999993
20
50021.089999999997
30
0.0
11
84085.919999999998
21
50178.250000000000
31
0.0
0
LINE
5
805
100
AcDbEntity
8
1-0
6
CONTINUOUS
62
3
100
AcDbLine
10
84085.919999999998
20
50178.250000000000
30
0.0
11
84560.229999999996
21
50337.970000000001
31
0.0
0
LINE
5
806
100
AcDbEntity
8
1-0
6
CONTINUOUS
62
3
100
AcDbLine
10
84560.229999999996
20
50337.970000000001
30
0.0
11
85033.589999999997
21
50500.330000000002
31
0.0
0
LINE
5
807
100
AcDbEntity
8
1-0
6
CONTINUOUS
62
3
100
AcDbLine
10
85033.589999999997
20
50500.330000000002
30
0.0
11
85505.960000000006
21
50665.449999999997
31
0.0
0
LINE
5
808
100
AcDbEntity
8
1-0
6
CONTINUOUS
62
3
100
AcDbLine
10
85505.960000000006
20
50665.449999999997
30
0.0
11
85977.270000000004
21
50833.419999999998
31
0.0
0
LINE
5
809
100
AcDbEntity
8
1-0
6
CONTINUOUS
62
3
100
AcDbLine
10
85977.270000000004
20
50833.419999999998
30
0.0
11
86447.500000000000
21
51004.349999999999
31
0.0
0
LINE
5
80a
100
AcDbEntity
8
1-0
6
CONTINUOUS
62
3
100
AcDbLine
10
86447.500000000000
20
51004.349999999999
30
0.0
11
86916.570000000007
21
51178.339999999997
31
0.0
0
LINE
5
80b
100
AcDbEntity
8
1-0
6
CONTINUOUS
62
3
100
AcDbLine
10
86916.570000000007
20
51178.339999999997
30
0.0
11
87384.440000000002
21
51355.489999999998
31
0.0
0
LINE
5
80c
100
AcDbEntity
8
1-0
6
CONTINUOUS
62
3
100
AcDbLine
10
87384.440000000002
20
51355.489999999998
30
0.0
11
87851.080000000002
21
51535.900000000001
31
0.0
0
LINE
5
80d
100
AcDbEntity
8
1-0
6
CONTINUOUS
62
3
100
AcDbLine
10
87851.080000000002
20
51535.900000000001
30
0.0
11
88316.410000000003
21
51719.680000000000
31
0.0
0
LINE
5
80e
100
AcDbEntity
8
1-0
6
CONTINUOUS
62
3
100
AcDbLine
10
88316.410000000003
20
51719.680000000000
30
0.0
11
88780.399999999994
21
51906.919999999998
31
0.0
0
LINE
5
80f
100
AcDbEntity
8
1-0
6
CONTINUOUS
62
3
100
AcDbLine
10
88780.399999999994
20
51906.919999999998
30
0.0
11
89243.020000000004
21
52097.730000000003
31
0.0
0
LINE
5
810
100
AcDbEntity
8
1-0
6
CONTINUOUS
62
3
100
AcDbLine
10
89243.020000000004
20
52097.730000000003
30
0.0
11
89704.190000000002
21
52292.209999999999
31
0.0
0
LINE
5
811
100
AcDbEntity
8
1-0
6
CONTINUOUS
62
3
100
AcDbLine
10
89704.190000000002
20
52292.209999999999
30
0.0
11
90163.860000000001
21
52490.470000000001
31
0.0
0
LINE
5
812
100
AcDbEntity
8
1-0
6
CONTINUOUS
62
3
100
AcDbLine
10
90163.860000000001
20
52490.470000000001
30
0.0
11
90622.000000000000
21
52692.589999999997
31
0.0
0
LINE
5
813
100
AcDbEntity
8
1-0
6
CONTINUOUS
62
3
100
AcDbLine
10
90622.000000000000
20
52692.589999999997
30
0.0
11
91078.559999999998
21
52898.690000000002
31
0.0
0
LINE
5
814
100
AcDbEntity
8
1-0
6
CONTINUOUS
62
3
100
AcDbLine
10
91078.559999999998
20
52898.690000000002
30
0.0
11
91533.660000000003
21
53108.440000000002
31
0.0
0
LINE
5
815
100
AcDbEntity
8
1-0
6
CONTINUOUS
62
3
100
AcDbLine
10
91533.660000000003
20
53108.440000000002
30
0.0
11
91987.649999999994
21
53320.839999999997
31
0.0
0
LINE
5
816
100
AcDbEntity
8
1-0
6
CONTINUOUS
62
3
100
AcDbLine
10
91987.649999999994
20
53320.839999999997
30
0.0
11
92440.940000000002
21
53534.849999999999
31
0.0
0
LINE
5
817
100
AcDbEntity
8
1-0
6
CONTINUOUS
62
3
100
AcDbLine
10
92440.940000000002
20
53534.849999999999
30
0.0
11
92893.919999999998
21
53749.440000000002
31
0.0
0
LINE
5
818
100
AcDbEntity
8
1-0
6
CONTINUOUS
62
3
100
AcDbLine
10
92893.919999999998
20
53749.440000000002
30
0.0
11
93346.979999999996
21
53963.559999999998
31
0.0
0
LINE
5
819
100
AcDbEntity
8
1-0
6
CONTINUOUS
62
3
100
AcDbLine
10
93346.979999999996
20
53963.559999999998
30
0.0
11
93800.509999999995
21
54176.160000000003
31
0.0
0
LINE
5
81a
100
AcDbEntity
8
1-0
6
CONTINUOUS
62
3
100
AcDbLine
10
93800.509999999995
20
54176.160000000003
30
0.0
11
94254.929999999993
21
54386.209999999999
31
0.0
0
LINE
5
81b
100
AcDbEntity
8
1-0
6
CONTINUOUS
62
3
100
AcDbLine
10
94254.929999999993
20
54386.209999999999
30
0.0
11
94710.570000000007
21
54592.639999999999
31
0.0
0
LINE
5
81c
100
AcDbEntity
8
1-0
6
CONTINUOUS
62
3
100
AcDbLine
10
94710.570000000007
20
54592.639999999999
30
0.0
11
95167.899999999994
21
54794.449999999997
31
0.0
0
LINE
5
81d
100
AcDbEntity
8
1-0
6
CONTINUOUS
62
3
100
AcDbLine
10
95167.899999999994
20
54794.449999999997
30
0.0
11
95627.259999999995
21
54990.550000000003
31
0.0
0
LINE
5
81e
100
AcDbEntity
8
1-0
6
CONTINUOUS
62
3
100
AcDbLine
10
95627.259999999995
20
54990.550000000003
30
0.0
11
96089.050000000003
21
55179.919999999998
31
0.0
0
LINE
5
81f
100
AcDbEntity
8
1-0
6
CONTINUOUS
62
3
100
AcDbLine
10
96089.050000000003
20
55179.919999999998
30
0.0
11
96553.710000000006
21
55361.510000000002
31
0.0
0
LINE
5
820
100
AcDbEntity
8
1-0
6
CONTINUOUS
62
3
100
AcDbLine
10
96553.710000000006
20
55361.510000000002
30
0.0
11
97021.550000000003
21
55534.279999999999
31
0.0
0
LINE
5
821
100
AcDbEntity
8
1-0
6
CONTINUOUS
62
3
100
AcDbLine
10
97021.550000000003
20
55534.279999999999
30
0.0
11
97493.020000000004
21
55697.220000000001
31
0.0
0
LINE
5
822
100
AcDbEntity
8
1-0
6
CONTINUOUS
62
3
100
AcDbLine
10
97493.020000000004
20
55697.220000000001
30
0.0
11
97968.130000000005
21
55850.080000000002
31
0.0
0
LINE
5
823
100
AcDbEntity
8
1-0
6
CONTINUOUS
62
3
100
AcDbLine
10
97968.130000000005
20
55850.080000000002
30
0.0
11
98446.570000000007
21
55993.589999999997
31
0.0
0
LINE
5
824
100
AcDbEntity
8
1-0
6
CONTINUOUS
62
3
100
AcDbLine
10
98446.570000000007
20
55993.589999999997
30
0.0
11
98927.970000000001
21
56128.430000000000
31
0.0
0
LINE
5
825
100
AcDbEntity
8
1-0
6
CONTINUOUS
62
3
100
AcDbLine
10
98927.970000000001
20
56128.430000000000
30
0.0
11
99412.009999999995
21
56255.330000000002
31
0.0
0
LINE
5
826
100
AcDbEntity
8
1-0
6
CONTINUOUS
62
3
100
AcDbLine
10
99412.009999999995
20
56255.330000000002
30
0.0
11
99898.320000000007
21
56375.050000000003
31
0.0
0
LINE
5
827
100
AcDbEntity
8
1-0
6
CONTINUOUS
62
3
100
AcDbLine
10
99898.320000000007
20
56375.050000000003
30
0.0
11
100386.539999999990
21
56488.269999999997
31
0.0
0
LINE
5
828
100
AcDbEntity
8
1-0
6
CONTINUOUS
62
3
100
AcDbLine
10
100386.539999999990
20
56488.269999999997
30
0.0
11
100876.340000000000
21
56595.750000000000
31
0.0
0
LINE
5
829
100
AcDbEntity
8
1-0
6
CONTINUOUS
62
3
100
AcDbLine
10
100876.340000000000
20
56595.750000000000
30
0.0
11
101367.330000000000
21
56698.320000000000
31
0.0
0
LINE
5
82a
100
AcDbEntity
8
1-0
6
CONTINUOUS
62
3
100
AcDbLine
10
101367.330000000000
20
56698.320000000000
30
0.0
11
101858.539999999990
21
56798.820000000000
31
0.0
0
LINE
5
82b
100
AcDbEntity
8
1-0
6
CONTINUOUS
62
3
100
AcDbLine
10
101858.539999999990
20
56798.820000000000
30
0.0
11
102348.520000000000
21
56901.800000000003
31
0.0
0
LINE
5
82c
100
AcDbEntity
8
1-0
6
CONTINUOUS
62
3
100
AcDbLine
10
102348.520000000000
20
56901.800000000003
30
0.0
11
102835.770000000000
21
57011.839999999997
31
0.0
0
LINE
5
82d
100
AcDbEntity
8
1-0
6
CONTINUOUS
62
3
100
AcDbLine
10
102835.770000000000
20
57011.839999999997
30
0.0
11
103318.899999999990
21
57133.519999999997
31
0.0
0
LINE
5
82e
100
AcDbEntity
8
1-0
6
CONTINUOUS
62
3
100
AcDbLine
10
103318.899999999990
20
57133.519999999997
30
0.0
11
103796.560000000000
21
57270.769999999997
31
0.0
0
LINE
5
82f
100
AcDbEntity
8
1-0
6
CONTINUOUS
62
3
100
AcDbLine
10
103796.560000000000
20
57270.769999999997
30
0.0
11
104268.759999999990
21
57423.739999999998
31
0.0
0
LINE
5
830
100
AcDbEntity
8
1-0
6
CONTINUOUS
62
3
100
AcDbLine
10
104268.759999999990
20
57423.739999999998
30
0.0
11
104735.950000000000
21
57591.220000000001
31
0.0
0
LINE
5
831
100
AcDbEntity
8
1-0
6
CONTINUOUS
62
3
100
AcDbLine
10
104735.950000000000
20
57591.220000000001
30
0.0
11
105198.539999999990
21
57772.029999999999
31
0.0
0
LINE
5
832
100
AcDbEntity
8
1-0
6
CONTINUOUS
62
3
100
AcDbLine
10
105198.539999999990
20
57772.029999999999
30
0.0
11
105656.920000000000
21
57964.989999999998
31
0.0
0
LINE
5
833
100
AcDbEntity
8
1-0
6
CONTINUOUS
62
3
100
AcDbLine
10
105656.920000000000
20
57964.989999999998
30
0.0
11
106111.539999999990
21
58168.879999999997
31
0.0
0
LINE
5
834
100
AcDbEntity
8
1-0
6
CONTINUOUS
62
3
100
AcDbLine
10
106111.539999999990
20
58168.879999999997
30
0.0
11
106562.800000000000
21
58382.519999999997
31
0.0
0
LINE
5
835
100
AcDbEntity
8
1-0
6
CONTINUOUS
62
3
100
AcDbLine
10
106562.800000000000
20
58382.519999999997
30
0.0
11
107011.130000000000
21
58604.720000000001
31
0.0
0
LINE
5
836
100
AcDbEntity
8
1-0
6
CONTINUOUS
62
3
100
AcDbLine
10
107011.130000000000
20
58604.720000000001
30
0.0
11
107456.950000000000
21
58834.279999999999
31
0.0
0
LINE
5
837
100
AcDbEntity
8
1-0
6
CONTINUOUS
62
3
100
AcDbLine
10
107456.950000000000
20
58834.279999999999
30
0.0
11
107900.679999999990
21
59070.010000000002
31
0.0
0
LINE
5
838
100
AcDbEntity
8
1-0
6
CONTINUOUS
62
3
100
AcDbLine
10
107900.679999999990
20
59070.010000000002
30
0.0
11
108342.730000000000
21
59310.699999999997
31
0.0
0
LINE
5
839
100
AcDbEntity
8
1-0
6
CONTINUOUS
62
3
100
AcDbLine
10
108342.730000000000
20
59310.699999999997
30
0.0
11
108783.530000000000
21
59555.190000000002
31
0.0
0
LINE
5
83a
100
AcDbEntity
8
1-0
6
CONTINUOUS
62
3
100
AcDbLine
10
108783.530000000000
20
59555.190000000002
30
0.0
11
109223.509999999990
21
59802.260000000002
31
0.0
0
LINE
5
83b
100
AcDbEntity
8
1-0
6
CONTINUOUS
62
3
100
AcDbLine
10
109223.509999999990
20
59802.260000000002
30
0.0
11
109663.080000000000
21
60050.720000000001
31
0.0
0
LINE
5
83c
100
AcDbEntity
8
1-0
6
CONTINUOUS
62
3
100
AcDbLine
10
109663.080000000000
20
60050.720000000001
30
0.0
11
110102.630000000000
21
60299.379999999997
31
0.0
0
LINE
5
83d
100
AcDbEntity
8
1-0
6
CONTINUOUS
62
3
100
AcDbLine
10
110102.630000000000
20
60299.379999999997
30
0.0
11
110542.610000000000
21
60547.040000000001
31
0.0
0
LINE
5
83e
100
AcDbEntity
8
1-0
6
CONTINUOUS
62
3
100
AcDbLine
10
110542.610000000000
20
60547.040000000001
30
0.0
11
110983.440000000000
21
60792.529999999999
31
0.0
0
LINE
5
83f
100
AcDbEntity
8
1-0
6
CONTINUOUS
62
3
100
AcDbLine
10
110983.440000000000
20
60792.529999999999
30
0.0
11
111425.539999999990
21
61034.639999999999
31
0.0
0
LINE
5
840
100
AcDbEntity
8
1-0
6
CONTINUOUS
62
3
100
AcDbLine
10
111425.539999999990
20
61034.639999999999
30
0.0
11
111869.310000000000
21
61272.169999999998
31
0.0
0
LINE
5
841
100
AcDbEntity
8
1-0
6
CONTINUOUS
62
3
100
AcDbLine
10
111869.310000000000
20
61272.169999999998
30
0.0
11
112314.920000000000
21
61504.589999999997
31
0.0
0
LINE
5
842
100
AcDbEntity
8
1-0
6
CONTINUOUS
62
3
100
AcDbLine
10
112314.920000000000
20
61504.589999999997
30
0.0
11
112762.120000000000
21
61732.559999999998
31
0.0
0
LINE
5
843
100
AcDbEntity
8
1-0
6
CONTINUOUS
62
3
100
AcDbLine
10
112762.120000000000
20
61732.559999999998
30
0.0
11
113210.490000000010
21
61956.870000000003
31
0.0
0
LINE
5
844
100
AcDbEntity
8
1-0
6
CONTINUOUS
62
3
100
AcDbLine
10
113210.490000000010
20
61956.870000000003
30
0.0
11
113659.720000000000
21
62178.349999999999
31
0.0
0
LINE
5
845
100
AcDbEntity
8
1-0
6
CONTINUOUS
62
3
100
AcDbLine
10
113659.720000000000
20
62178.349999999999
30
0.0
11
114109.429999999990
21
62397.839999999997
31
0.0
0
LINE
5
846
100
AcDbEntity
8
1-0
6
CONTINUOUS
62
3
100
AcDbLine
10
114109.429999999990
20
62397.839999999997
30
0.0
11
114559.289999999990
21
62616.089999999997
31
0.0
0
LINE
5
847
100
AcDbEntity
8
1-0
6
CONTINUOUS
62
3
100
AcDbLine
10
114559.289999999990
20
62616.089999999997
30
0.0
11
115008.920000000000
21
62833.949999999997
31
0.0
0
LINE
5
848
100
AcDbEntity
8
1-0
6
CONTINUOUS
62
3
100
AcDbLine
10
115008.920000000000
20
62833.949999999997
30
0.0
11
115458.009999999990
21
63052.220000000001
31
0.0
0
LINE
5
849
100
AcDbEntity
8
1-0
6
CONTINUOUS
62
3
100
AcDbLine
10
115458.009999999990
20
63052.220000000001
30
0.0
11
115906.140000000000
21
63271.709999999999
31
0.0
0
LINE
5
84a
100
AcDbEntity
8
1-0
6
CONTINUOUS
62
3
100
AcDbLine
10
115906.140000000000
20
63271.709999999999
30
0.0
11
116353.009999999990
21
63493.230000000003
31
0.0
0
LINE
5
84b
100
AcDbEntity
8
1-0
6
CONTINUOUS
62
3
100
AcDbLine
10
116353.009999999990
20
63493.230000000003
30
0.0
11
116798.230000000000
21
63717.599999999999
31
0.0
0
LINE
5
84c
100
AcDbEntity
8
1-0
6
CONTINUOUS
62
3
100
AcDbLine
10
116798.230000000000
20
63717.599999999999
30
0.0
11
117241.490000000010
21
63945.620000000003
31
0.0
0
LINE
5
84d
100
AcDbEntity
8
1-0
6
CONTINUOUS
62
3
100
AcDbLine
10
117241.490000000010
20
63945.620000000003
30
0.0
11
117682.370000000000
21
64178.089999999997
31
0.0
0
LINE
5
84e
100
AcDbEntity
8
1-0
6
CONTINUOUS
62
3
100
AcDbLine
10
117682.370000000000
20
64178.089999999997
30
0.0
11
118120.759999999990
21
64415.489999999998
31
0.0
0
LINE
5
84f
100
AcDbEntity
8
1-0
6
CONTINUOUS
62
3
100
AcDbLine
10
118120.759999999990
20
64415.489999999998
30
0.0
11
118556.820000000010
21
64657.449999999997
31
0.0
0
LINE
5
850
100
AcDbEntity
8
1-0
6
CONTINUOUS
62
3
100
AcDbLine
10
118556.820000000010
20
64657.449999999997
30
0.0
11
118990.780000000000
21
64903.519999999997
31
0.0
0
LINE
5
851
100
AcDbEntity
8
1-0
6
CONTINUOUS
62
3
100
AcDbLine
10
118990.780000000000
20
64903.519999999997
30
0.0
11
119422.940000000000
21
65153.220000000001
31
0.0
0
LINE
5
852
100
AcDbEntity
8
1-0
6
CONTINUOUS
62
3
100
AcDbLine
10
119422.940000000000
20
65153.220000000001
30
0.0
11
119853.509999999990
21
65406.099999999999
31
0.0
0
LINE
5
853
100
AcDbEntity
8
1-0
6
CONTINUOUS
62
3
100
AcDbLine
10
119853.509999999990
20
65406.099999999999
30
0.0
11
120282.800000000000
21
65661.690000000002
31
0.0
0
LINE
5
854
100
AcDbEntity
8
1-0
6
CONTINUOUS
62
3
100
AcDbLine
10
120282.800000000000
20
65661.690000000002
30
0.0
11
120711.000000000000
21
65919.520000000004
31
0.0
0
LINE
5
855
100
AcDbEntity
8
1-0
6
CONTINUOUS
62
3
100
AcDbLine
10
120711.000000000000
20
65919.520000000004
30
0.0
11
121138.390000000000
21
66179.139999999999
31
0.0
0
LINE
5
856
100
AcDbEntity
8
1-0
6
CONTINUOUS
62
3
100
AcDbLine
10
121138.390000000000
20
66179.139999999999
30
0.0
11
121565.250000000000
21
66440.070000000007
31
0.0
0
LINE
5
857
100
AcDbEntity
8
1-0
6
CONTINUOUS
62
3
100
AcDbLine
10
121565.250000000000
20
66440.070000000007
30
0.0
11
121991.789999999990
21
66701.860000000001
31
0.0
0
LINE
5
858
100
AcDbEntity
8
1-0
6
CONTINUOUS
62
3
100
AcDbLine
10
121991.789999999990
20
66701.860000000001
30
0.0
11
122418.280000000000
21
66964.020000000004
31
0.0
0
LINE
5
859
100
AcDbEntity
8
1-0
6
CONTINUOUS
62
3
100
AcDbLine
10
122418.280000000000
20
66964.020000000004
30
0.0
11
122844.970000000000
21
67226.119999999995
31
0.0
0
LINE
5
85a
100
AcDbEntity
8
1-0
6
CONTINUOUS
62
3
100
AcDbLine
10
122844.970000000000
20
67226.119999999995
30
0.0
11
123272.130000000000
21
67487.669999999998
31
0.0
0
LINE
5
85b
100
AcDbEntity
8
1-0
6
CONTINUOUS
62
3
100
AcDbLine
10
123272.130000000000
20
67487.669999999998
30
0.0
11
123700.009999999990
21
67748.220000000001
31
0.0
0
LINE
5
85c
100
AcDbEntity
8
1-0
6
CONTINUOUS
62
3
100
AcDbLine
10
123700.009999999990
20
67748.220000000001
30
0.0
11
124128.840000000000
21
68007.289999999994
31
0.0
0
LINE
5
85d
100
AcDbEntity
8
1-0
6
CONTINUOUS
62
3
100
AcDbLine
10
124128.840000000000
20
68007.289999999994
30
0.0
11
124558.870000000000
21
68264.440000000002
31
0.0
0
LINE
5
85e
100
AcDbEntity
8
1-0
6
CONTINUOUS
62
3
100
AcDbLine
10
124558.870000000000
20
68264.440000000002
30
0.0
11
124990.390000000000
21
68519.190000000002
31
0.0
0
LINE
5
85f
100
AcDbEntity
8
1-0
6
CONTINUOUS
62
3
100
AcDbLine
10
124990.390000000000
20
68519.190000000002
30
0.0
11
125423.580000000000
21
68771.149999999994
31
0.0
0
LINE
5
860
100
AcDbEntity
8
1-0
6
CONTINUOUS
62
3
100
AcDbLine
10
125423.580000000000
20
68771.149999999994
30
0.0
11
125858.220000000000
21
69020.649999999994
31
0.0
0
LINE
5
861
100
AcDbEntity
8
1-0
6
CONTINUOUS
62
3
100
AcDbLine
10
125858.220000000000
20
69020.649999999994
30
0.0
11
126293.880000000000
21
69268.360000000001
31
0.0
0
LINE
5
862
100
AcDbEntity
8
1-0
6
CONTINUOUS
62
3
100
AcDbLine
10
126293.880000000000
20
69268.360000000001
30
0.0
11
126730.160000000000
21
69514.919999999998
31
0.0
0
LINE
5
863
100
AcDbEntity
8
1-0
6
CONTINUOUS
62
3
100
AcDbLine
10
126730.160000000000
20
69514.919999999998
30
0.0
11
127166.560000000000
21
69761.020000000004
31
0.0
0
LINE
5
864
100
AcDbEntity
8
1-0
6
CONTINUOUS
62
3
100
AcDbLine
10
127166.560000000000
20
69761.020000000004
30
0.0
11
127602.720000000000
21
70007.309999999998
31
0.0
0
LINE
5
865
100
AcDbEntity
8
1-0
6
CONTINUOUS
62
3
100
AcDbLine
10
127602.720000000000
20
70007.309999999998
30
0.0
11
128038.140000000000
21
70254.460000000006
31
0.0
0
LINE
5
866
100
AcDbEntity
8
1-0
6
CONTINUOUS
62
3
100
AcDbLine
10
128038.140000000000
20
70254.460000000006
30
0.0
11
128472.470000000000
21
70503.119999999995
31
0.0
0
LINE
5
867
100
AcDbEntity
8
1-0
6
CONTINUOUS
62
3
100
AcDbLine
10
128472.470000000000
20
70503.119999999995
30
0.0
11
128905.210000000010
21
70753.979999999996
31
0.0
0
LINE
5
868
100
AcDbEntity
8
1-0
6
CONTINUOUS
62
3
100
AcDbLine
10
128905.210000000010
20
70753.979999999996
30
0.0
11
129335.970000000000
21
71007.690000000002
31
0.0
0
LINE
5
869
100
AcDbEntity
8
1-0
6
CONTINUOUS
62
3
100
AcDbLine
10
129335.970000000000
20
71007.690000000002
30
0.0
11
129764.280000000000
21
71264.899999999994
31
0.0
0
LINE
5
86a
100
AcDbEntity
8
1-0
6
CONTINUOUS
62
3
100
AcDbLine
10
129764.280000000000
20
71264.899999999994
30
0.0
11
130189.750000000000
21
71526.300000000003
31
0.0
0
LINE
5
86b
100
AcDbEntity
8
1-0
6
CONTINUOUS
62
3
100
AcDbLine
10
130189.750000000000
20
71526.300000000003
30
0.0
11
130611.929999999990
21
71792.550000000003
31
0.0
0
LINE
5
86c
100
AcDbEntity
8
1-0
6
CONTINUOUS
62
3
100
AcDbLine
10
130611.929999999990
20
71792.550000000003
30
0.0
11
131030.429999999990
21
72064.300000000003
31
0.0
0
LINE
5
86d
100
AcDbEntity
8
1-0
6
CONTINUOUS
62
3
100
AcDbLine
10
131030.429999999990
20
72064.300000000003
30
0.0
11
131444.739999999990
21
72342.240000000005
31
0.0
0
LINE
5
86e
100
AcDbEntity
8
1-0
6
CONTINUOUS
62
3
100
AcDbLine
10
131444.739999999990
20
72342.240000000005
30
0.0
11
131854.489999999990
21
72626.979999999996
31
0.0
0
LINE
5
86f
100
AcDbEntity
8
1-0
6
CONTINUOUS
62
3
100
AcDbLine
10
131854.489999999990
20
72626.979999999996
30
0.0
11
132259.720000000000
21
72918.429999999993
31
0.0
0
LINE
5
870
100
AcDbEntity
8
1-0
6
CONTINUOUS
62
3
100
AcDbLine
10
132259.720000000000
20
72918.429999999993
30
0.0
11
132661.290000000010
21
73215.500000000000
31
0.0
0
LINE
5
871
100
AcDbEntity
8
1-0
6
CONTINUOUS
62
3
100
AcDbLine
10
132661.290000000010
20
73215.500000000000
30
0.0
11
133059.870000000000
21
73517.009999999995
31
0.0
0
LINE
5
872
100
AcDbEntity
8
1-0
6
CONTINUOUS
62
3
100
AcDbLine
10
133059.870000000000
20
73517.009999999995
30
0.0
11
133456.359999999990
21
73821.770000000004
31
0.0
0
LINE
5
873
100
AcDbEntity
8
1-0
6
CONTINUOUS
62
3
100
AcDbLine
10
133456.359999999990
20
73821.770000000004
30
0.0
11
133851.519999999990
21
74128.610000000001
31
0.0
0
LINE
5
874
100
AcDbEntity
8
1-0
6
CONTINUOUS
62
3
100
AcDbLine
10
133851.519999999990
20
74128.610000000001
30
0.0
11
134246.179999999990
21
74436.339999999997
31
0.0
0
LINE
5
875
100
AcDbEntity
8
1-0
6
CONTINUOUS
62
3
100
AcDbLine
10
134246.179999999990
20
74436.339999999997
30
0.0
11
134641.109999999990
21
74743.800000000003
31
0.0
0
LINE
5
876
100
AcDbEntity
8
1-0
6
CONTINUOUS
62
3
100
AcDbLine
10
134641.109999999990
20
74743.800000000003
30
0.0
11
135037.140000000010
21
75049.789999999994
31
0.0
0
LINE
5
877
100
AcDbEntity
8
1-0
6
CONTINUOUS
62
3
100
AcDbLine
10
135037.140000000010
20
75049.789999999994
30
0.0
11
135435.049999999990
21
75353.160000000003
31
0.0
0
LINE
5
878
100
AcDbEntity
8
1-0
6
CONTINUOUS
62
3
100
AcDbLine
10
135435.049999999990
20
75353.160000000003
30
0.0
11
135835.660000000000
21
75652.720000000001
31
0.0
0
LINE
5
879
100
AcDbEntity
8
1-0
6
CONTINUOUS
62
3
100
AcDbLine
10
135835.660000000000
20
75652.720000000001
30
0.0
11
136239.649999999990
21
75947.479999999996
31
0.0
0
LINE
5
87a
100
AcDbEntity
8
1-0
6
CONTINUOUS
62
3
100
AcDbLine
10
136239.649999999990
20
75947.479999999996
30
0.0
11
136646.880000000000
21
76237.610000000001
31
0.0
0
LINE
5
87b
100
AcDbEntity
8
1-0
6
CONTINUOUS
62
3
100
AcDbLine
10
136646.880000000000
20
76237.610000000001
30
0.0
11
137056.920000000010
21
76523.690000000002
31
0.0
0
LINE
5
87c
100
AcDbEntity
8
1-0
6
CONTINUOUS
62
3
100
AcDbLine
10
137056.920000000010
20
76523.690000000002
30
0.0
11
137469.399999999990
21
76806.320000000007
31
0.0
0
LINE
5
87d
100
AcDbEntity
8
1-0
6
CONTINUOUS
62
3
100
AcDbLine
10
137469.399999999990
20
76806.320000000007
30
0.0
11
137883.850000000010
21
77086.070000000007
31
0.0
0
LINE
5
87e
100
AcDbEntity
8
1-0
6
CONTINUOUS
62
3
100
AcDbLine
10
137883.850000000010
20
77086.070000000007
30
0.0
11
138299.920000000010
21
77363.509999999995
31
0.0
0
LINE
5
87f
100
AcDbEntity
8
1-0
6
CONTINUOUS
62
3
100
AcDbLine
10
138299.920000000010
20
77363.509999999995
30
0.0
11
138717.160000000000
21
77639.250000000000
31
0.0
0
LINE
5
880
100
AcDbEntity
8
1-0
6
CONTINUOUS
62
3
100
AcDbLine
10
138717.160000000000
20
77639.250000000000
30
0.0
11
139135.160000000000
21
77913.880000000005
31
0.0
0
LINE
5
881
100
AcDbEntity
8
1-0
6
CONTINUOUS
62
3
100
AcDbLine
10
139135.160000000000
20
77913.880000000005
30
0.0
11
139553.530000000000
21
78187.949999999997
31
0.0
0
LINE
5
882
100
AcDbEntity
8
1-0
6
CONTINUOUS
62
3
100
AcDbLine
10
139553.530000000000
20
78187.949999999997
30
0.0
11
139971.799999999990
21
78462.070000000007
31
0.0
0
LINE
5
883
100
AcDbEntity
8
1-0
6
CONTINUOUS
62
3
100
AcDbLine
10
139971.799999999990
20
78462.070000000007
30
0.0
11
140389.640000000010
21
78736.830000000002
31
0.0
0
LINE
5
884
100
AcDbEntity
8
1-0
6
CONTINUOUS
62
3
100
AcDbLine
10
140389.640000000010
20
78736.830000000002
30
0.0
11
140806.579999999990
21
79012.779999999999
31
0.0
0
LINE
5
885
100
AcDbEntity
8
1-0
6
CONTINUOUS
62
3
100
AcDbLine
10
140806.579999999990
20
79012.779999999999
30
0.0
11
141222.250000000000
21
79290.460000000006
31
0.0
0
LINE
5
886
100
AcDbEntity
8
1-0
6
CONTINUOUS
62
3
100
AcDbLine
10
141222.250000000000
20
79290.460000000006
30
0.0
11
141637.140000000010
21
79569.309999999998
31
0.0
0
LINE
5
887
100
AcDbEntity
8
1-0
6
CONTINUOUS
62
3
100
AcDbLine
10
141637.140000000010
20
79569.309999999998
30
0.0
11
142052.190000000000
21
79847.970000000001
31
0.0
0
LINE
5
888
100
AcDbEntity
8
1-0
6
CONTINUOUS
62
3
100
AcDbLine
10
142052.190000000000
20
79847.970000000001
30
0.0
11
142468.420000000010
21
80125.070000000007
31
0.0
0
LINE
5
889
100
AcDbEntity
8
1-0
6
CONTINUOUS
62
3
100
AcDbLine
10
142468.420000000010
20
80125.070000000007
30
0.0
11
142886.870000000000
21
80399.270000000004
31
0.0
0
LINE
5
88a
100
AcDbEntity
8
1-0
6
CONTINUOUS
62
3
100
AcDbLine
10
142886.870000000000
20
80399.270000000004
30
0.0
11
143308.140000000010
21
80669.660000000003
31
0.0
0
LINE
5
88b
100
AcDbEntity
8
1-0
6
CONTINUOUS
62
3
100
AcDbLine
10
143308.140000000010
20
80669.660000000003
30
0.0
11
143731.630000000000
21
80937.110000000001
31
0.0
0
LINE
5
88c
100
AcDbEntity
8
1-0
6
CONTINUOUS
62
3
100
AcDbLine
10
143731.630000000000
20
80937.110000000001
30
0.0
11
144156.370000000000
21
81202.850000000006
31
0.0
0
LINE
5
88d
100
AcDbEntity
8
1-0
6
CONTINUOUS
62
3
100
AcDbLine
10
144156.370000000000
20
81202.850000000006
30
0.0
11
144581.459999999990
21
81468.149999999994
31
0.0
0
LINE
5
88e
100
AcDbEntity
8
1-0
6
CONTINUOUS
62
3
100
AcDbLine
10
144581.459999999990
20
81468.149999999994
30
0.0
11
145005.890000000010
21
81734.240000000005
31
0.0
0
LINE
5
88f
100
AcDbEntity
8
1-0
6
CONTINUOUS
62
3
100
AcDbLine
10
145005.890000000010
20
81734.240000000005
30
0.0
11
145428.769999999990
21
82002.389999999999
31
0.0
0
LINE
5
890
100
AcDbEntity
8
1-0
6
CONTINUOUS
62
3
100
AcDbLine
10
145428.769999999990
20
82002.389999999999
30
0.0
11
145849.149999999990
21
82273.820000000007
31
0.0
0
LINE
5
891
100
AcDbEntity
8
1-0
6
CONTINUOUS
62
3
100
AcDbLine
10
145849.149999999990
20
82273.820000000007
30
0.0
11
146266.070000000010
21
82549.809999999998
31
0.0
0
LINE
5
892
100
AcDbEntity
8
1-0
6
CONTINUOUS
62
3
100
AcDbLine
10
146266.070000000010
20
82549.809999999998
30
0.0
11
146678.649999999990
21
82831.580000000002
31
0.0
0
LINE
5
893
100
AcDbEntity
8
1-0
6
CONTINUOUS
62
3
100
AcDbLine
10
146678.649999999990
20
82831.580000000002
30
0.0
11
147085.850000000010
21
83120.369999999995
31
0.0
0
LINE
5
894
100
AcDbEntity
8
1-0
6
CONTINUOUS
62
3
100
AcDbLine
10
147085.850000000010
20
83120.369999999995
30
0.0
11
147486.780000000000
21
83417.470000000001
31
0.0
0
LINE
5
895
100
AcDbEntity
8
1-0
6
CONTINUOUS
62
3
100
AcDbLine
10
147486.780000000000
20
83417.470000000001
30
0.0
11
147753.230000000010
21
83624.960000000006
31
0.0
0
LINE
5
896
100
AcDbEntity
8
1-0
6
CONTINUOUS
62
3
100
AcDbLine
10
9972.180000000000
20
75809.520000000004
30
0.0
11
9891.110000000001
21
75307.660000000003
31
0.0
0
LINE
5
897
100
AcDbEntity
8
1-0
6
CONTINUOUS
62
3
100
AcDbLine
10
9891.110000000001
20
75307.660000000003
30
0.0
11
9783.820000000000
21
74817.740000000005
31
0.0
0
LINE
5
898
100
AcDbEntity
8
1-0
6
CONTINUOUS
62
3
100
AcDbLine
10
9783.820000000000
20
74817.740000000005
30
0.0
11
9624.139999999999
21
74351.660000000003
31
0.0
0
LINE
5
899
100
AcDbEntity
8
1-0
6
CONTINUOUS
62
3
100
AcDbLine
10
9624.139999999999
20
74351.660000000003
30
0.0
11
9395.980000000000
21
73916.570000000007
31
0.0
0
LINE
5
89a
100
AcDbEntity
8
1-0
6
CONTINUOUS
62
3
100
AcDbLine
10
9395.980000000000
20
73916.570000000007
30
0.0
11
9115.820000000000
21
73504.050000000003
31
0.0
0
LINE
5
89b
100
AcDbEntity
8
1-0
6
CONTINUOUS
62
3
100
AcDbLine
10
9115.820000000000
20
73504.050000000003
30
0.0
11
8806.850000000000
21
73102.550000000003
31
0.0
0
LINE
5
89c
100
AcDbEntity
8
1-0
6
CONTINUOUS
62
3
100
AcDbLine
10
8806.850000000000
20
73102.550000000003
30
0.0
11
8492.139999999999
21
72700.529999999999
31
0.0
0
LINE
5
89d
100
AcDbEntity
8
1-0
6
CONTINUOUS
62
3
100
AcDbLine
10
8492.139999999999
20
72700.529999999999
30
0.0
11
8191.000000000000
21
72288.750000000000
31
0.0
0
LINE
5
89e
100
AcDbEntity
8
1-0
6
CONTINUOUS
62
3
100
AcDbLine
10
8191.000000000000
20
72288.750000000000
30
0.0
11
7909.720000000000
21
71865.649999999994
31
0.0
0
LINE
5
89f
100
AcDbEntity
8
1-0
6
CONTINUOUS
62
3
100
AcDbLine
10
7909.720000000000
20
71865.649999999994
30
0.0
11
7651.830000000000
21
71431.380000000005
31
0.0
0
LINE
5
8a0
100
AcDbEntity
8
1-0
6
CONTINUOUS
62
3
100
AcDbLine
10
7651.830000000000
20
71431.380000000005
30
0.0
11
7420.860000000000
21
70986.050000000003
31
0.0
0
LINE
5
8a1
100
AcDbEntity
8
1-0
6
CONTINUOUS
62
3
100
AcDbLine
10
7420.860000000000
20
70986.050000000003
30
0.0
11
7220.360000000000
21
70529.800000000003
31
0.0
0
LINE
5
8a2
100
AcDbEntity
8
1-0
6
CONTINUOUS
62
3
100
AcDbLine
10
7220.360000000000
20
70529.800000000003
30
0.0
11
7053.870000000000
21
70062.720000000001
31
0.0
0
LINE
5
8a3
100
AcDbEntity
8
1-0
6
CONTINUOUS
62
3
100
AcDbLine
10
7053.870000000000
20
70062.720000000001
30
0.0
11
6924.020000000000
21
69585.070000000007
31
0.0
0
LINE
5
8a4
100
AcDbEntity
8
1-0
6
CONTINUOUS
62
3
100
AcDbLine
10
6924.020000000000
20
69585.070000000007
30
0.0
11
6823.850000000000
21
69098.210000000006
31
0.0
0
LINE
5
8a5
100
AcDbEntity
8
1-0
6
CONTINUOUS
62
3
100
AcDbLine
10
6823.850000000000
20
69098.210000000006
30
0.0
11
6740.600000000000
21
68604.300000000003
31
0.0
0
LINE
5
8a6
100
AcDbEntity
8
1-0
6
CONTINUOUS
62
3
100
AcDbLine
10
6740.600000000000
20
68604.300000000003
30
0.0
11
6661.430000000000
21
68105.419999999998
31
0.0
0
LINE
5
8a7
100
AcDbEntity
8
1-0
6
CONTINUOUS
62
3
100
AcDbLine
10
6661.430000000000
20
68105.419999999998
30
0.0
11
6578.790000000000
21
67603.990000000005
31
0.0
0
LINE
5
8a8
100
AcDbEntity
8
1-0
6
CONTINUOUS
62
3
100
AcDbLine
10
6578.790000000000
20
67603.990000000005
30
0.0
11
6523.740000000000
21
67104.869999999995
31
0.0
0
LINE
5
8a9
100
AcDbEntity
8
1-0
6
CONTINUOUS
62
3
100
AcDbLine
10
6523.740000000000
20
67104.869999999995
30
0.0
11
6544.250000000000
21
66613.850000000006
31
0.0
0
LINE
5
8aa
100
AcDbEntity
8
1-0
6
CONTINUOUS
62
3
100
AcDbLine
10
6544.250000000000
20
66613.850000000006
30
0.0
11
6666.530000000000
21
66136.300000000003
31
0.0
0
LINE
5
8ab
100
AcDbEntity
8
1-0
6
CONTINUOUS
62
3
100
AcDbLine
10
6666.530000000000
20
66136.300000000003
30
0.0
11
6874.630000000000
21
65676.610000000001
31
0.0
0
LINE
5
8ac
100
AcDbEntity
8
1-0
6
CONTINUOUS
62
3
100
AcDbLine
10
6874.630000000000
20
65676.610000000001
30
0.0
11
7147.780000000000
21
65239.010000000002
31
0.0
0
LINE
5
8ad
100
AcDbEntity
8
1-0
6
CONTINUOUS
62
3
100
AcDbLine
10
7147.780000000000
20
65239.010000000002
30
0.0
11
7465.160000000000
21
64827.790000000001
31
0.0
0
LINE
5
8ae
100
AcDbEntity
8
1-0
6
CONTINUOUS
62
3
100
AcDbLine
10
7465.160000000000
20
64827.790000000001
30
0.0
11
7807.440000000000
21
64447.029999999999
31
0.0
0
LINE
5
8af
100
AcDbEntity
8
1-0
6
CONTINUOUS
62
3
100
AcDbLine
10
7807.440000000000
20
64447.029999999999
30
0.0
11
8169.520000000000
21
64098.769999999997
31
0.0
0
LINE
5
8b0
100
AcDbEntity
8
1-0
6
CONTINUOUS
62
3
100
AcDbLine
10
8169.520000000000
20
64098.769999999997
30
0.0
11
8554.469999999999
21
63783.959999999999
31
0.0
0
LINE
5
8b1
100
AcDbEntity
8
1-0
6
CONTINUOUS
62
3
100
AcDbLine
10
8554.469999999999
20
63783.959999999999
30
0.0
11
8965.510000000000
21
63503.510000000002
31
0.0
0
LINE
5
8b2
100
AcDbEntity
8
1-0
6
CONTINUOUS
62
3
100
AcDbLine
10
8965.510000000000
20
63503.510000000002
30
0.0
11
9402.719999999999
21
63258.650000000001
31
0.0
0
LINE
5
8b3
100
AcDbEntity
8
1-0
6
CONTINUOUS
62
3
100
AcDbLine
10
9402.719999999999
20
63258.650000000001
30
0.0
11
9860.940000000001
21
63051.120000000003
31
0.0
0
LINE
5
8b4
100
AcDbEntity
8
1-0
6
CONTINUOUS
62
3
100
AcDbLine
10
9860.940000000001
20
63051.120000000003
30
0.0
11
10334.420000000000
21
62882.739999999998
31
0.0
0
LINE
5
8b5
100
AcDbEntity
8
1-0
6
CONTINUOUS
62
3
100
AcDbLine
10
10334.420000000000
20
62882.739999999998
30
0.0
11
10817.650000000000
21
62754.849999999999
31
0.0
0
LINE
5
8b6
100
AcDbEntity
8
1-0
6
CONTINUOUS
62
3
100
AcDbLine
10
10817.650000000000
20
62754.849999999999
30
0.0
11
11307.600000000000
21
62663.250000000000
31
0.0
0
LINE
5
8b7
100
AcDbEntity
8
1-0
6
CONTINUOUS
62
3
100
AcDbLine
10
11307.600000000000
20
62663.250000000000
30
0.0
11
11802.799999999999
21
62600.080000000002
31
0.0
0
LINE
5
8b8
100
AcDbEntity
8
1-0
6
CONTINUOUS
62
3
100
AcDbLine
10
11802.799999999999
20
62600.080000000002
30
0.0
11
12301.910000000000
21
62557.360000000001
31
0.0
0
LINE
5
8b9
100
AcDbEntity
8
1-0
6
CONTINUOUS
62
3
100
AcDbLine
10
12301.910000000000
20
62557.360000000001
30
0.0
11
12803.520000000000
21
62527.129999999997
31
0.0
0
LINE
5
8ba
100
AcDbEntity
8
1-0
6
CONTINUOUS
62
3
100
AcDbLine
10
12803.520000000000
20
62527.129999999997
30
0.0
11
13306.250000000000
21
62501.459999999999
31
0.0
0
LINE
5
8bb
100
AcDbEntity
8
1-0
6
CONTINUOUS
62
3
100
AcDbLine
10
13306.250000000000
20
62501.459999999999
30
0.0
11
13808.719999999999
21
62472.400000000001
31
0.0
0
LINE
5
8bc
100
AcDbEntity
8
1-0
6
CONTINUOUS
62
3
100
AcDbLine
10
13808.719999999999
20
62472.400000000001
30
0.0
11
14309.950000000001
21
62434.470000000001
31
0.0
0
LINE
5
8bd
100
AcDbEntity
8
1-0
6
CONTINUOUS
62
3
100
AcDbLine
10
14309.950000000001
20
62434.470000000001
30
0.0
11
14809.590000000000
21
62386.809999999998
31
0.0
0
LINE
5
8be
100
AcDbEntity
8
1-0
6
CONTINUOUS
62
3
100
AcDbLine
10
14809.590000000000
20
62386.809999999998
30
0.0
11
15307.520000000000
21
62329.070000000000
31
0.0
0
LINE
5
8bf
100
AcDbEntity
8
1-0
6
CONTINUOUS
62
3
100
AcDbLine
10
15307.520000000000
20
62329.070000000000
30
0.0
11
15803.480000000000
21
62260.919999999998
31
0.0
0
LINE
5
8c0
100
AcDbEntity
8
1-0
6
CONTINUOUS
62
3
100
AcDbLine
10
15803.480000000000
20
62260.919999999998
30
0.0
11
16297.280000000001
21
62182.019999999997
31
0.0
0
LINE
5
8c1
100
AcDbEntity
8
1-0
6
CONTINUOUS
62
3
100
AcDbLine
10
16297.280000000001
20
62182.019999999997
30
0.0
11
16788.740000000002
21
62092.010000000002
31
0.0
0
LINE
5
8c2
100
AcDbEntity
8
1-0
6
CONTINUOUS
62
3
100
AcDbLine
10
16788.740000000002
20
62092.010000000002
30
0.0
11
17277.639999999999
21
61990.570000000000
31
0.0
0
LINE
5
8c3
100
AcDbEntity
8
1-0
6
CONTINUOUS
62
3
100
AcDbLine
10
17277.639999999999
20
61990.570000000000
30
0.0
11
17763.770000000000
21
61877.349999999999
31
0.0
0
LINE
5
8c4
100
AcDbEntity
8
1-0
6
CONTINUOUS
62
3
100
AcDbLine
10
17763.770000000000
20
61877.349999999999
30
0.0
11
18247.060000000001
21
61752.360000000001
31
0.0
0
LINE
5
8c5
100
AcDbEntity
8
1-0
6
CONTINUOUS
62
3
100
AcDbLine
10
18247.060000000001
20
61752.360000000001
30
0.0
11
18727.790000000001
21
61616.970000000001
31
0.0
0
LINE
5
8c6
100
AcDbEntity
8
1-0
6
CONTINUOUS
62
3
100
AcDbLine
10
18727.790000000001
20
61616.970000000001
30
0.0
11
19206.340000000000
21
61472.790000000001
31
0.0
0
LINE
5
8c7
100
AcDbEntity
8
1-0
6
CONTINUOUS
62
3
100
AcDbLine
10
19206.340000000000
20
61472.790000000001
30
0.0
11
19683.099999999999
21
61321.459999999999
31
0.0
0
LINE
5
8c8
100
AcDbEntity
8
1-0
6
CONTINUOUS
62
3
100
AcDbLine
10
19683.099999999999
20
61321.459999999999
30
0.0
11
20158.470000000001
21
61164.620000000003
31
0.0
0
LINE
5
8c9
100
AcDbEntity
8
1-0
6
CONTINUOUS
62
3
100
AcDbLine
10
20158.470000000001
20
61164.620000000003
30
0.0
11
20632.820000000000
21
61003.889999999999
31
0.0
0
LINE
5
8ca
100
AcDbEntity
8
1-0
6
CONTINUOUS
62
3
100
AcDbLine
10
20632.820000000000
20
61003.889999999999
30
0.0
11
21106.549999999999
21
60840.949999999997
31
0.0
0
LINE
5
8cb
100
AcDbEntity
8
1-0
6
CONTINUOUS
62
3
100
AcDbLine
10
21106.549999999999
20
60840.949999999997
30
0.0
11
21580.009999999998
21
60677.339999999997
31
0.0
0
LINE
5
8cc
100
AcDbEntity
8
1-0
6
CONTINUOUS
62
3
100
AcDbLine
10
21580.009999999998
20
60677.339999999997
30
0.0
11
22053.369999999999
21
60513.769999999997
31
0.0
0
LINE
5
8cd
100
AcDbEntity
8
1-0
6
CONTINUOUS
62
3
100
AcDbLine
10
22053.369999999999
20
60513.769999999997
30
0.0
11
22526.590000000000
21
60350.139999999999
31
0.0
0
LINE
5
8ce
100
AcDbEntity
8
1-0
6
CONTINUOUS
62
3
100
AcDbLine
10
22526.590000000000
20
60350.139999999999
30
0.0
11
22999.660000000000
21
60186.379999999997
31
0.0
0
LINE
5
8cf
100
AcDbEntity
8
1-0
6
CONTINUOUS
62
3
100
AcDbLine
10
22999.660000000000
20
60186.379999999997
30
0.0
11
23472.509999999998
21
60022.349999999999
31
0.0
0
LINE
5
8d0
100
AcDbEntity
8
1-0
6
CONTINUOUS
62
3
100
AcDbLine
10
23472.509999999998
20
60022.349999999999
30
0.0
11
23945.139999999999
21
59857.970000000001
31
0.0
0
LINE
5
8d1
100
AcDbEntity
8
1-0
6
CONTINUOUS
62
3
100
AcDbLine
10
23945.139999999999
20
59857.970000000001
30
0.0
11
24417.490000000002
21
59693.129999999997
31
0.0
0
LINE
5
8d2
100
AcDbEntity
8
1-0
6
CONTINUOUS
62
3
100
AcDbLine
10
24417.490000000002
20
59693.129999999997
30
0.0
11
24889.529999999999
21
59527.709999999999
31
0.0
0
LINE
5
8d3
100
AcDbEntity
8
1-0
6
CONTINUOUS
62
3
100
AcDbLine
10
24889.529999999999
20
59527.709999999999
30
0.0
11
25361.250000000000
21
59361.629999999997
31
0.0
0
LINE
5
8d4
100
AcDbEntity
8
1-0
6
CONTINUOUS
62
3
100
AcDbLine
10
25361.250000000000
20
59361.629999999997
30
0.0
11
25832.570000000000
21
59194.769999999997
31
0.0
0
LINE
5
8d5
100
AcDbEntity
8
1-0
6
CONTINUOUS
62
3
100
AcDbLine
10
25832.570000000000
20
59194.769999999997
30
0.0
11
26303.490000000002
21
59027.050000000003
31
0.0
0
LINE
5
8d6
100
AcDbEntity
8
1-0
6
CONTINUOUS
62
3
100
AcDbLine
10
26303.490000000002
20
59027.050000000003
30
0.0
11
26773.950000000001
21
58858.339999999997
31
0.0
0
LINE
5
8d7
100
AcDbEntity
8
1-0
6
CONTINUOUS
62
3
100
AcDbLine
10
26773.950000000001
20
58858.339999999997
30
0.0
11
27243.939999999999
21
58688.529999999999
31
0.0
0
LINE
5
8d8
100
AcDbEntity
8
1-0
6
CONTINUOUS
62
3
100
AcDbLine
10
27243.939999999999
20
58688.529999999999
30
0.0
11
27713.400000000001
21
58517.550000000003
31
0.0
0
LINE
5
8d9
100
AcDbEntity
8
1-0
6
CONTINUOUS
62
3
100
AcDbLine
10
27713.400000000001
20
58517.550000000003
30
0.0
11
28182.320000000000
21
58345.269999999997
31
0.0
0
LINE
5
8da
100
AcDbEntity
8
1-0
6
CONTINUOUS
62
3
100
AcDbLine
10
28182.320000000000
20
58345.269999999997
30
0.0
11
28650.639999999999
21
58171.589999999997
31
0.0
0
LINE
5
8db
100
AcDbEntity
8
1-0
6
CONTINUOUS
62
3
100
AcDbLine
10
28650.639999999999
20
58171.589999999997
30
0.0
11
29118.340000000000
21
57996.419999999998
31
0.0
0
LINE
5
8dc
100
AcDbEntity
8
1-0
6
CONTINUOUS
62
3
100
AcDbLine
10
29118.340000000000
20
57996.419999999998
30
0.0
11
29585.400000000001
21
57819.639999999999
31
0.0
0
LINE
5
8dd
100
AcDbEntity
8
1-0
6
CONTINUOUS
62
3
100
AcDbLine
10
29585.400000000001
20
57819.639999999999
30
0.0
11
30051.730000000000
21
57641.150000000001
31
0.0
0
LINE
5
8de
100
AcDbEntity
8
1-0
6
CONTINUOUS
62
3
100
AcDbLine
10
30051.730000000000
20
57641.150000000001
30
0.0
11
30517.389999999999
21
57460.910000000003
31
0.0
0
LINE
5
8df
100
AcDbEntity
8
1-0
6
CONTINUOUS
62
3
100
AcDbLine
10
30517.389999999999
20
57460.910000000003
30
0.0
11
30982.380000000001
21
57279.010000000002
31
0.0
0
LINE
5
8e0
100
AcDbEntity
8
1-0
6
CONTINUOUS
62
3
100
AcDbLine
10
30982.380000000001
20
57279.010000000002
30
0.0
11
31446.770000000000
21
57095.599999999999
31
0.0
0
LINE
5
8e1
100
AcDbEntity
8
1-0
6
CONTINUOUS
62
3
100
AcDbLine
10
31446.770000000000
20
57095.599999999999
30
0.0
11
31910.650000000001
21
56910.790000000001
31
0.0
0
LINE
5
8e2
100
AcDbEntity
8
1-0
6
CONTINUOUS
62
3
100
AcDbLine
10
31910.650000000001
20
56910.790000000001
30
0.0
11
32374.049999999999
21
56724.699999999997
31
0.0
0
LINE
5
8e3
100
AcDbEntity
8
1-0
6
CONTINUOUS
62
3
100
AcDbLine
10
32374.049999999999
20
56724.699999999997
30
0.0
11
32837.029999999999
21
56537.480000000003
31
0.0
0
LINE
5
8e4
100
AcDbEntity
8
1-0
6
CONTINUOUS
62
3
100
AcDbLine
10
32837.029999999999
20
56537.480000000003
30
0.0
11
33299.680000000000
21
56349.220000000001
31
0.0
0
LINE
5
8e5
100
AcDbEntity
8
1-0
6
CONTINUOUS
62
3
100
AcDbLine
10
33299.680000000000
20
56349.220000000001
30
0.0
11
33762.019999999997
21
56160.080000000002
31
0.0
0
LINE
5
8e6
100
AcDbEntity
8
1-0
6
CONTINUOUS
62
3
100
AcDbLine
10
33762.019999999997
20
56160.080000000002
30
0.0
11
34224.139999999999
21
55970.160000000003
31
0.0
0
LINE
5
8e7
100
AcDbEntity
8
1-0
6
CONTINUOUS
62
3
100
AcDbLine
10
34224.139999999999
20
55970.160000000003
30
0.0
11
34686.099999999999
21
55779.610000000001
31
0.0
0
LINE
5
8e8
100
AcDbEntity
8
1-0
6
CONTINUOUS
62
3
100
AcDbLine
10
34686.099999999999
20
55779.610000000001
30
0.0
11
35147.959999999999
21
55588.529999999999
31
0.0
0
LINE
5
8e9
100
AcDbEntity
8
1-0
6
CONTINUOUS
62
3
100
AcDbLine
10
35147.959999999999
20
55588.529999999999
30
0.0
11
35609.750000000000
21
55397.080000000002
31
0.0
0
LINE
5
8ea
100
AcDbEntity
8
1-0
6
CONTINUOUS
62
3
100
AcDbLine
10
35609.750000000000
20
55397.080000000002
30
0.0
11
36071.570000000000
21
55205.349999999999
31
0.0
0
LINE
5
8eb
100
AcDbEntity
8
1-0
6
CONTINUOUS
62
3
100
AcDbLine
10
36071.570000000000
20
55205.349999999999
30
0.0
11
36533.470000000001
21
55013.489999999998
31
0.0
0
LINE
5
8ec
100
AcDbEntity
8
1-0
6
CONTINUOUS
62
3
100
AcDbLine
10
36533.470000000001
20
55013.489999999998
30
0.0
11
36995.510000000002
21
54821.599999999999
31
0.0
0
LINE
5
8ed
100
AcDbEntity
8
1-0
6
CONTINUOUS
62
3
100
AcDbLine
10
36995.510000000002
20
54821.599999999999
30
0.0
11
37457.739999999998
21
54629.849999999999
31
0.0
0
LINE
5
8ee
100
AcDbEntity
8
1-0
6
CONTINUOUS
62
3
100
AcDbLine
10
37457.739999999998
20
54629.849999999999
30
0.0
11
37920.220000000001
21
54438.320000000000
31
0.0
0
LINE
5
8ef
100
AcDbEntity
8
1-0
6
CONTINUOUS
62
3
100
AcDbLine
10
37920.220000000001
20
54438.320000000000
30
0.0
11
38383.029999999999
21
54247.169999999998
31
0.0
0
LINE
5
8f0
100
AcDbEntity
8
1-0
6
CONTINUOUS
62
3
100
AcDbLine
10
38383.029999999999
20
54247.169999999998
30
0.0
11
38846.209999999999
21
54056.489999999998
31
0.0
0
LINE
5
8f1
100
AcDbEntity
8
1-0
6
CONTINUOUS
62
3
100
AcDbLine
10
38846.209999999999
20
54056.489999999998
30
0.0
11
39309.849999999999
21
53866.440000000002
31
0.0
0
LINE
5
8f2
100
AcDbEntity
8
1-0
6
CONTINUOUS
62
3
100
AcDbLine
10
39309.849999999999
20
53866.440000000002
30
0.0
11
39773.980000000003
21
53677.139999999999
31
0.0
0
LINE
5
8f3
100
AcDbEntity
8
1-0
6
CONTINUOUS
62
3
100
AcDbLine
10
39773.980000000003
20
53677.139999999999
30
0.0
11
40238.669999999998
21
53488.709999999999
31
0.0
0
LINE
5
8f4
100
AcDbEntity
8
1-0
6
CONTINUOUS
62
3
100
AcDbLine
10
40238.669999999998
20
53488.709999999999
30
0.0
11
40704.029999999999
21
53301.529999999999
31
0.0
0
LINE
5
8f5
100
AcDbEntity
8
1-0
6
CONTINUOUS
62
3
100
AcDbLine
10
40704.029999999999
20
53301.529999999999
30
0.0
11
41170.209999999999
21
53116.239999999998
31
0.0
0
LINE
5
8f6
100
AcDbEntity
8
1-0
6
CONTINUOUS
62
3
100
AcDbLine
10
41170.209999999999
20
53116.239999999998
30
0.0
11
41637.339999999997
21
52933.570000000000
31
0.0
0
LINE
5
8f7
100
AcDbEntity
8
1-0
6
CONTINUOUS
62
3
100
AcDbLine
10
41637.339999999997
20
52933.570000000000
30
0.0
11
42105.599999999999
21
52754.180000000000
31
0.0
0
LINE
5
8f8
100
AcDbEntity
8
1-0
6
CONTINUOUS
62
3
100
AcDbLine
10
42105.599999999999
20
52754.180000000000
30
0.0
11
42575.129999999997
21
52578.769999999997
31
0.0
0
LINE
5
8f9
100
AcDbEntity
8
1-0
6
CONTINUOUS
62
3
100
AcDbLine
10
42575.129999999997
20
52578.769999999997
30
0.0
11
43046.089999999997
21
52408.010000000002
31
0.0
0
LINE
5
8fa
100
AcDbEntity
8
1-0
6
CONTINUOUS
62
3
100
AcDbLine
10
43046.089999999997
20
52408.010000000002
30
0.0
11
43518.620000000003
21
52242.589999999997
31
0.0
0
LINE
5
8fb
100
AcDbEntity
8
1-0
6
CONTINUOUS
62
3
100
AcDbLine
10
43518.620000000003
20
52242.589999999997
30
0.0
11
43992.900000000001
21
52083.199999999997
31
0.0
0
LINE
5
8fc
100
AcDbEntity
8
1-0
6
CONTINUOUS
62
3
100
AcDbLine
10
43992.900000000001
20
52083.199999999997
30
0.0
11
44469.050000000003
21
51930.540000000001
31
0.0
0
LINE
5
8fd
100
AcDbEntity
8
1-0
6
CONTINUOUS
62
3
100
AcDbLine
10
44469.050000000003
20
51930.540000000001
30
0.0
11
44947.239999999998
21
51785.279999999999
31
0.0
0
LINE
5
8fe
100
AcDbEntity
8
1-0
6
CONTINUOUS
62
3
100
AcDbLine
10
44947.239999999998
20
51785.279999999999
30
0.0
11
45427.620000000003
21
51648.099999999999
31
0.0
0
LINE
5
8ff
100
AcDbEntity
8
1-0
6
CONTINUOUS
62
3
100
AcDbLine
10
45427.620000000003
20
51648.099999999999
30
0.0
11
45910.360000000001
21
51519.699999999997
31
0.0
0
LINE
5
900
100
AcDbEntity
8
1-0
6
CONTINUOUS
62
3
100
AcDbLine
10
45910.360000000001
20
51519.699999999997
30
0.0
11
46395.589999999997
21
51400.779999999999
31
0.0
0
LINE
5
901
100
AcDbEntity
8
1-0
6
CONTINUOUS
62
3
100
AcDbLine
10
46395.589999999997
20
51400.779999999999
30
0.0
11
46883.449999999997
21
51291.940000000002
31
0.0
0
LINE
5
902
100
AcDbEntity
8
1-0
6
CONTINUOUS
62
3
100
AcDbLine
10
46883.449999999997
20
51291.940000000002
30
0.0
11
47373.650000000001
21
51192.029999999999
31
0.0
0
LINE
5
903
100
AcDbEntity
8
1-0
6
CONTINUOUS
62
3
100
AcDbLine
10
47373.650000000001
20
51192.029999999999
30
0.0
11
47865.320000000000
21
51097.779999999999
31
0.0
0
LINE
5
904
100
AcDbEntity
8
1-0
6
CONTINUOUS
62
3
100
AcDbLine
10
47865.320000000000
20
51097.779999999999
30
0.0
11
48357.580000000002
21
51005.809999999998
31
0.0
0
LINE
5
905
100
AcDbEntity
8
1-0
6
CONTINUOUS
62
3
100
AcDbLine
10
48357.580000000002
20
51005.809999999998
30
0.0
11
48849.580000000002
21
50912.690000000002
31
0.0
0
LINE
5
906
100
AcDbEntity
8
1-0
6
CONTINUOUS
62
3
100
AcDbLine
10
48849.580000000002
20
50912.690000000002
30
0.0
11
49340.430000000000
21
50815.059999999998
31
0.0
0
LINE
5
907
100
AcDbEntity
8
1-0
6
CONTINUOUS
62
3
100
AcDbLine
10
49340.430000000000
20
50815.059999999998
30
0.0
11
49829.250000000000
21
50709.510000000002
31
0.0
0
LINE
5
908
100
AcDbEntity
8
1-0
6
CONTINUOUS
62
3
100
AcDbLine
10
49829.250000000000
20
50709.510000000002
30
0.0
11
50315.160000000003
21
50592.639999999999
31
0.0
0
LINE
5
909
100
AcDbEntity
8
1-0
6
CONTINUOUS
62
3
100
AcDbLine
10
50315.160000000003
20
50592.639999999999
30
0.0
11
50797.309999999998
21
50461.059999999998
31
0.0
0
LINE
5
90a
100
AcDbEntity
8
1-0
6
CONTINUOUS
62
3
100
AcDbLine
10
50797.309999999998
20
50461.059999999998
30
0.0
11
51274.809999999998
21
50311.430000000000
31
0.0
0
LINE
5
90b
100
AcDbEntity
8
1-0
6
CONTINUOUS
62
3
100
AcDbLine
10
51274.809999999998
20
50311.430000000000
30
0.0
11
51747.599999999999
21
50143.720000000001
31
0.0
0
LINE
5
90c
100
AcDbEntity
8
1-0
6
CONTINUOUS
62
3
100
AcDbLine
10
51747.599999999999
20
50143.720000000001
30
0.0
11
52216.940000000002
21
49963.290000000001
31
0.0
0
LINE
5
90d
100
AcDbEntity
8
1-0
6
CONTINUOUS
62
3
100
AcDbLine
10
52216.940000000002
20
49963.290000000001
30
0.0
11
52684.230000000003
21
49775.980000000003
31
0.0
0
LINE
5
90e
100
AcDbEntity
8
1-0
6
CONTINUOUS
62
3
100
AcDbLine
10
52684.230000000003
20
49775.980000000003
30
0.0
11
53150.809999999998
21
49587.650000000001
31
0.0
0
LINE
5
90f
100
AcDbEntity
8
1-0
6
CONTINUOUS
62
3
100
AcDbLine
10
53150.809999999998
20
49587.650000000001
30
0.0
11
53618.089999999997
21
49404.139999999999
31
0.0
0
LINE
5
910
100
AcDbEntity
8
1-0
6
CONTINUOUS
62
3
100
AcDbLine
10
53618.089999999997
20
49404.139999999999
30
0.0
11
54087.410000000003
21
49231.309999999998
31
0.0
0
LINE
5
911
100
AcDbEntity
8
1-0
6
CONTINUOUS
62
3
100
AcDbLine
10
54087.410000000003
20
49231.309999999998
30
0.0
11
54560.169999999998
21
49074.980000000003
31
0.0
0
LINE
5
912
100
AcDbEntity
8
1-0
6
CONTINUOUS
62
3
100
AcDbLine
10
54560.169999999998
20
49074.980000000003
30
0.0
11
55037.739999999998
21
48941.019999999997
31
0.0
0
LINE
5
913
100
AcDbEntity
8
1-0
6
CONTINUOUS
62
3
100
AcDbLine
10
55037.739999999998
20
48941.019999999997
30
0.0
11
55521.459999999999
21
48835.180000000000
31
0.0
0
LINE
5
914
100
AcDbEntity
8
1-0
6
CONTINUOUS
62
3
100
AcDbLine
10
55521.459999999999
20
48835.180000000000
30
0.0
11
56011.639999999999
21
48759.400000000001
31
0.0
0
LINE
5
915
100
AcDbEntity
8
1-0
6
CONTINUOUS
62
3
100
AcDbLine
10
56011.639999999999
20
48759.400000000001
30
0.0
11
56507.180000000000
21
48710.639999999999
31
0.0
0
LINE
5
916
100
AcDbEntity
8
1-0
6
CONTINUOUS
62
3
100
AcDbLine
10
56507.180000000000
20
48710.639999999999
30
0.0
11
57006.919999999998
21
48685.529999999999
31
0.0
0
LINE
5
917
100
AcDbEntity
8
1-0
6
CONTINUOUS
62
3
100
AcDbLine
10
57006.919999999998
20
48685.529999999999
30
0.0
11
57509.690000000002
21
48680.709999999999
31
0.0
0
LINE
5
918
100
AcDbEntity
8
1-0
6
CONTINUOUS
62
3
100
AcDbLine
10
57509.690000000002
20
48680.709999999999
30
0.0
11
58014.330000000002
21
48692.800000000003
31
0.0
0
LINE
5
919
100
AcDbEntity
8
1-0
6
CONTINUOUS
62
3
100
AcDbLine
10
58014.330000000002
20
48692.800000000003
30
0.0
11
58519.610000000001
21
48718.440000000002
31
0.0
0
LINE
5
91a
100
AcDbEntity
8
1-0
6
CONTINUOUS
62
3
100
AcDbLine
10
58519.610000000001
20
48718.440000000002
30
0.0
11
59024.440000000002
21
48754.250000000000
31
0.0
0
LINE
5
91b
100
AcDbEntity
8
1-0
6
CONTINUOUS
62
3
100
AcDbLine
10
59024.440000000002
20
48754.250000000000
30
0.0
11
59527.669999999998
21
48797.040000000001
31
0.0
0
LINE
5
91c
100
AcDbEntity
8
1-0
6
CONTINUOUS
62
3
100
AcDbLine
10
59527.669999999998
20
48797.040000000001
30
0.0
11
60028.989999999998
21
48845.480000000003
31
0.0
0
LINE
5
91d
100
AcDbEntity
8
1-0
6
CONTINUOUS
62
3
100
AcDbLine
10
60028.989999999998
20
48845.480000000003
30
0.0
11
60528.529999999999
21
48899.339999999997
31
0.0
0
LINE
5
91e
100
AcDbEntity
8
1-0
6
CONTINUOUS
62
3
100
AcDbLine
10
60528.529999999999
20
48899.339999999997
30
0.0
11
61026.419999999998
21
48958.430000000000
31
0.0
0
LINE
5
91f
100
AcDbEntity
8
1-0
6
CONTINUOUS
62
3
100
AcDbLine
10
61026.419999999998
20
48958.430000000000
30
0.0
11
61522.820000000000
21
49022.550000000003
31
0.0
0
LINE
5
920
100
AcDbEntity
8
1-0
6
CONTINUOUS
62
3
100
AcDbLine
10
61522.820000000000
20
49022.550000000003
30
0.0
11
62017.860000000001
21
49091.500000000000
31
0.0
0
LINE
5
921
100
AcDbEntity
8
1-0
6
CONTINUOUS
62
3
100
AcDbLine
10
62017.860000000001
20
49091.500000000000
30
0.0
11
62511.699999999997
21
49165.059999999998
31
0.0
0
LINE
5
922
100
AcDbEntity
8
1-0
6
CONTINUOUS
62
3
100
AcDbLine
10
62511.699999999997
20
49165.059999999998
30
0.0
11
63004.459999999999
21
49243.050000000003
31
0.0
0
LINE
5
923
100
AcDbEntity
8
1-0
6
CONTINUOUS
62
3
100
AcDbLine
10
63004.459999999999
20
49243.050000000003
30
0.0
11
63496.300000000003
21
49325.250000000000
31
0.0
0
LINE
5
924
100
AcDbEntity
8
1-0
6
CONTINUOUS
62
3
100
AcDbLine
10
63496.300000000003
20
49325.250000000000
30
0.0
11
63987.360000000001
21
49411.480000000003
31
0.0
0
LINE
5
925
100
AcDbEntity
8
1-0
6
CONTINUOUS
62
3
100
AcDbLine
10
63987.360000000001
20
49411.480000000003
30
0.0
11
64477.769999999997
21
49501.519999999997
31
0.0
0
LINE
5
926
100
AcDbEntity
8
1-0
6
CONTINUOUS
62
3
100
AcDbLine
10
64477.769999999997
20
49501.519999999997
30
0.0
11
64967.690000000002
21
49595.180000000000
31
0.0
0
LINE
5
927
100
AcDbEntity
8
1-0
6
CONTINUOUS
62
3
100
AcDbLine
10
64967.690000000002
20
49595.180000000000
30
0.0
11
65457.239999999998
21
49692.260000000002
31
0.0
0
LINE
5
928
100
AcDbEntity
8
1-0
6
CONTINUOUS
62
3
100
AcDbLine
10
65457.239999999998
20
49692.260000000002
30
0.0
11
65946.490000000005
21
49792.660000000003
31
0.0
0
LINE
5
929
100
AcDbEntity
8
1-0
6
CONTINUOUS
62
3
100
AcDbLine
10
65946.490000000005
20
49792.660000000003
30
0.0
11
66435.339999999997
21
49896.419999999998
31
0.0
0
LINE
5
92a
100
AcDbEntity
8
1-0
6
CONTINUOUS
62
3
100
AcDbLine
10
66435.339999999997
20
49896.419999999998
30
0.0
11
66923.729999999996
21
50003.629999999997
31
0.0
0
LINE
5
92b
100
AcDbEntity
8
1-0
6
CONTINUOUS
62
3
100
AcDbLine
10
66923.729999999996
20
50003.629999999997
30
0.0
11
67411.550000000003
21
50114.330000000002
31
0.0
0
LINE
5
92c
100
AcDbEntity
8
1-0
6
CONTINUOUS
62
3
100
AcDbLine
10
67411.550000000003
20
50114.330000000002
30
0.0
11
67898.720000000001
21
50228.580000000002
31
0.0
0
LINE
5
92d
100
AcDbEntity
8
1-0
6
CONTINUOUS
62
3
100
AcDbLine
10
67898.720000000001
20
50228.580000000002
30
0.0
11
68385.139999999999
21
50346.470000000001
31
0.0
0
LINE
5
92e
100
AcDbEntity
8
1-0
6
CONTINUOUS
62
3
100
AcDbLine
10
68385.139999999999
20
50346.470000000001
30
0.0
11
68870.750000000000
21
50468.019999999997
31
0.0
0
LINE
5
92f
100
AcDbEntity
8
1-0
6
CONTINUOUS
62
3
100
AcDbLine
10
68870.750000000000
20
50468.019999999997
30
0.0
11
69355.429999999993
21
50593.320000000000
31
0.0
0
LINE
5
930
100
AcDbEntity
8
1-0
6
CONTINUOUS
62
3
100
AcDbLine
10
69355.429999999993
20
50593.320000000000
30
0.0
11
69839.110000000001
21
50722.430000000000
31
0.0
0
LINE
5
931
100
AcDbEntity
8
1-0
6
CONTINUOUS
62
3
100
AcDbLine
10
69839.110000000001
20
50722.430000000000
30
0.0
11
70321.710000000006
21
50855.400000000001
31
0.0
0
LINE
5
932
100
AcDbEntity
8
1-0
6
CONTINUOUS
62
3
100
AcDbLine
10
70321.710000000006
20
50855.400000000001
30
0.0
11
70803.139999999999
21
50992.290000000001
31
0.0
0
LINE
5
933
100
AcDbEntity
8
1-0
6
CONTINUOUS
62
3
100
AcDbLine
10
70803.139999999999
20
50992.290000000001
30
0.0
11
71283.289999999994
21
51133.180000000000
31
0.0
0
LINE
5
934
100
AcDbEntity
8
1-0
6
CONTINUOUS
62
3
100
AcDbLine
10
71283.289999999994
20
51133.180000000000
30
0.0
11
71762.089999999997
21
51278.129999999997
31
0.0
0
LINE
5
935
100
AcDbEntity
8
1-0
6
CONTINUOUS
62
3
100
AcDbLine
10
71762.089999999997
20
51278.129999999997
30
0.0
11
72239.449999999997
21
51427.169999999998
31
0.0
0
LINE
5
936
100
AcDbEntity
8
1-0
6
CONTINUOUS
62
3
100
AcDbLine
10
72239.449999999997
20
51427.169999999998
30
0.0
11
72715.309999999998
21
51580.320000000000
31
0.0
0
LINE
5
937
100
AcDbEntity
8
1-0
6
CONTINUOUS
62
3
100
AcDbLine
10
72715.309999999998
20
51580.320000000000
30
0.0
11
73189.809999999998
21
51737.239999999998
31
0.0
0
LINE
5
938
100
AcDbEntity
8
1-0
6
CONTINUOUS
62
3
100
AcDbLine
10
73189.809999999998
20
51737.239999999998
30
0.0
11
73663.130000000005
21
51897.489999999998
31
0.0
0
LINE
5
939
100
AcDbEntity
8
1-0
6
CONTINUOUS
62
3
100
AcDbLine
10
73663.130000000005
20
51897.489999999998
30
0.0
11
74135.429999999993
21
52060.639999999999
31
0.0
0
LINE
5
93a
100
AcDbEntity
8
1-0
6
CONTINUOUS
62
3
100
AcDbLine
10
74135.429999999993
20
52060.639999999999
30
0.0
11
74606.880000000005
21
52226.250000000000
31
0.0
0
LINE
5
93b
100
AcDbEntity
8
1-0
6
CONTINUOUS
62
3
100
AcDbLine
10
74606.880000000005
20
52226.250000000000
30
0.0
11
75077.660000000003
21
52393.910000000003
31
0.0
0
LINE
5
93c
100
AcDbEntity
8
1-0
6
CONTINUOUS
62
3
100
AcDbLine
10
75077.660000000003
20
52393.910000000003
30
0.0
11
75547.949999999997
21
52563.160000000003
31
0.0
0
LINE
5
93d
100
AcDbEntity
8
1-0
6
CONTINUOUS
62
3
100
AcDbLine
10
75547.949999999997
20
52563.160000000003
30
0.0
11
76017.910000000003
21
52733.589999999997
31
0.0
0
LINE
5
93e
100
AcDbEntity
8
1-0
6
CONTINUOUS
62
3
100
AcDbLine
10
76017.910000000003
20
52733.589999999997
30
0.0
11
76487.729999999996
21
52904.750000000000
31
0.0
0
LINE
5
93f
100
AcDbEntity
8
1-0
6
CONTINUOUS
62
3
100
AcDbLine
10
76487.729999999996
20
52904.750000000000
30
0.0
11
76957.570000000007
21
53076.220000000001
31
0.0
0
LINE
5
940
100
AcDbEntity
8
1-0
6
CONTINUOUS
62
3
100
AcDbLine
10
76957.570000000007
20
53076.220000000001
30
0.0
11
77427.610000000001
21
53247.570000000000
31
0.0
0
LINE
5
941
100
AcDbEntity
8
1-0
6
CONTINUOUS
62
3
100
AcDbLine
10
77427.610000000001
20
53247.570000000000
30
0.0
11
77898.050000000003
21
53418.370000000003
31
0.0
0
LINE
5
942
100
AcDbEntity
8
1-0
6
CONTINUOUS
62
3
100
AcDbLine
10
77898.050000000003
20
53418.370000000003
30
0.0
11
78369.009999999995
21
53588.160000000003
31
0.0
0
LINE
5
943
100
AcDbEntity
8
1-0
6
CONTINUOUS
62
3
100
AcDbLine
10
78369.009999999995
20
53588.160000000003
30
0.0
11
78840.699999999997
21
53756.540000000001
31
0.0
0
LINE
5
944
100
AcDbEntity
8
1-0
6
CONTINUOUS
62
3
100
AcDbLine
10
78840.699999999997
20
53756.540000000001
30
0.0
11
79313.089999999997
21
53923.529999999999
31
0.0
0
LINE
5
945
100
AcDbEntity
8
1-0
6
CONTINUOUS
62
3
100
AcDbLine
10
79313.089999999997
20
53923.529999999999
30
0.0
11
79785.699999999997
21
54090.120000000003
31
0.0
0
LINE
5
946
100
AcDbEntity
8
1-0
6
CONTINUOUS
62
3
100
AcDbLine
10
79785.699999999997
20
54090.120000000003
30
0.0
11
80258.000000000000
21
54257.419999999998
31
0.0
0
LINE
5
947
100
AcDbEntity
8
1-0
6
CONTINUOUS
62
3
100
AcDbLine
10
80258.000000000000
20
54257.419999999998
30
0.0
11
80729.479999999996
21
54426.550000000003
31
0.0
0
LINE
5
948
100
AcDbEntity
8
1-0
6
CONTINUOUS
62
3
100
AcDbLine
10
80729.479999999996
20
54426.550000000003
30
0.0
11
81199.630000000005
21
54598.620000000003
31
0.0
0
LINE
5
949
100
AcDbEntity
8
1-0
6
CONTINUOUS
62
3
100
AcDbLine
10
81199.630000000005
20
54598.620000000003
30
0.0
11
81667.899999999994
21
54774.730000000003
31
0.0
0
LINE
5
94a
100
AcDbEntity
8
1-0
6
CONTINUOUS
62
3
100
AcDbLine
10
81667.899999999994
20
54774.730000000003
30
0.0
11
82133.779999999999
21
54956.019999999997
31
0.0
0
LINE
5
94b
100
AcDbEntity
8
1-0
6
CONTINUOUS
62
3
100
AcDbLine
10
82133.779999999999
20
54956.019999999997
30
0.0
11
82596.750000000000
21
55143.580000000002
31
0.0
0
LINE
5
94c
100
AcDbEntity
8
1-0
6
CONTINUOUS
62
3
100
AcDbLine
10
82596.750000000000
20
55143.580000000002
30
0.0
11
83056.279999999999
21
55338.529999999999
31
0.0
0
LINE
5
94d
100
AcDbEntity
8
1-0
6
CONTINUOUS
62
3
100
AcDbLine
10
83056.279999999999
20
55338.529999999999
30
0.0
11
83511.850000000006
21
55541.980000000003
31
0.0
0
LINE
5
94e
100
AcDbEntity
8
1-0
6
CONTINUOUS
62
3
100
AcDbLine
10
83511.850000000006
20
55541.980000000003
30
0.0
11
83962.990000000005
21
55754.949999999997
31
0.0
0
LINE
5
94f
100
AcDbEntity
8
1-0
6
CONTINUOUS
62
3
100
AcDbLine
10
83962.990000000005
20
55754.949999999997
30
0.0
11
84409.949999999997
21
55976.940000000002
31
0.0
0
LINE
5
950
100
AcDbEntity
8
1-0
6
CONTINUOUS
62
3
100
AcDbLine
10
84409.949999999997
20
55976.940000000002
30
0.0
11
84853.539999999994
21
56206.290000000001
31
0.0
0
LINE
5
951
100
AcDbEntity
8
1-0
6
CONTINUOUS
62
3
100
AcDbLine
10
84853.539999999994
20
56206.290000000001
30
0.0
11
85294.539999999994
21
56441.330000000002
31
0.0
0
LINE
5
952
100
AcDbEntity
8
1-0
6
CONTINUOUS
62
3
100
AcDbLine
10
85294.539999999994
20
56441.330000000002
30
0.0
11
85733.830000000002
21
56680.389999999999
31
0.0
0
LINE
5
953
100
AcDbEntity
8
1-0
6
CONTINUOUS
62
3
100
AcDbLine
10
85733.830000000002
20
56680.389999999999
30
0.0
11
86172.169999999998
21
56921.779999999999
31
0.0
0
LINE
5
954
100
AcDbEntity
8
1-0
6
CONTINUOUS
62
3
100
AcDbLine
10
86172.169999999998
20
56921.779999999999
30
0.0
11
86610.399999999994
21
57163.830000000002
31
0.0
0
LINE
5
955
100
AcDbEntity
8
1-0
6
CONTINUOUS
62
3
100
AcDbLine
10
86610.399999999994
20
57163.830000000002
30
0.0
11
87049.339999999997
21
57404.870000000003
31
0.0
0
LINE
5
956
100
AcDbEntity
8
1-0
6
CONTINUOUS
62
3
100
AcDbLine
10
87049.339999999997
20
57404.870000000003
30
0.0
11
87489.789999999994
21
57643.220000000001
31
0.0
0
LINE
5
957
100
AcDbEntity
8
1-0
6
CONTINUOUS
62
3
100
AcDbLine
10
87489.789999999994
20
57643.220000000001
30
0.0
11
87932.559999999998
21
57877.220000000001
31
0.0
0
LINE
5
958
100
AcDbEntity
8
1-0
6
CONTINUOUS
62
3
100
AcDbLine
10
87932.559999999998
20
57877.220000000001
30
0.0
11
88378.130000000005
21
58105.809999999998
31
0.0
0
LINE
5
959
100
AcDbEntity
8
1-0
6
CONTINUOUS
62
3
100
AcDbLine
10
88378.130000000005
20
58105.809999999998
30
0.0
11
88826.520000000004
21
58328.720000000001
31
0.0
0
LINE
5
95a
100
AcDbEntity
8
1-0
6
CONTINUOUS
62
3
100
AcDbLine
10
88826.520000000004
20
58328.720000000001
30
0.0
11
89277.750000000000
21
58545.730000000003
31
0.0
0
LINE
5
95b
100
AcDbEntity
8
1-0
6
CONTINUOUS
62
3
100
AcDbLine
10
89277.750000000000
20
58545.730000000003
30
0.0
11
89731.800000000003
21
58756.589999999997
31
0.0
0
LINE
5
95c
100
AcDbEntity
8
1-0
6
CONTINUOUS
62
3
100
AcDbLine
10
89731.800000000003
20
58756.589999999997
30
0.0
11
90188.710000000006
21
58961.110000000001
31
0.0
0
LINE
5
95d
100
AcDbEntity
8
1-0
6
CONTINUOUS
62
3
100
AcDbLine
10
90188.710000000006
20
58961.110000000001
30
0.0
11
90648.440000000002
21
59159.050000000003
31
0.0
0
LINE
5
95e
100
AcDbEntity
8
1-0
6
CONTINUOUS
62
3
100
AcDbLine
10
90648.440000000002
20
59159.050000000003
30
0.0
11
91111.029999999999
21
59350.190000000002
31
0.0
0
LINE
5
95f
100
AcDbEntity
8
1-0
6
CONTINUOUS
62
3
100
AcDbLine
10
91111.029999999999
20
59350.190000000002
30
0.0
11
91576.470000000001
21
59534.290000000001
31
0.0
0
LINE
5
960
100
AcDbEntity
8
1-0
6
CONTINUOUS
62
3
100
AcDbLine
10
91576.470000000001
20
59534.290000000001
30
0.0
11
92044.759999999995
21
59711.160000000003
31
0.0
0
LINE
5
961
100
AcDbEntity
8
1-0
6
CONTINUOUS
62
3
100
AcDbLine
10
92044.759999999995
20
59711.160000000003
30
0.0
11
92515.919999999998
21
59880.540000000001
31
0.0
0
LINE
5
962
100
AcDbEntity
8
1-0
6
CONTINUOUS
62
3
100
AcDbLine
10
92515.919999999998
20
59880.540000000001
30
0.0
11
92989.940000000002
21
60042.230000000003
31
0.0
0
LINE
5
963
100
AcDbEntity
8
1-0
6
CONTINUOUS
62
3
100
AcDbLine
10
92989.940000000002
20
60042.230000000003
30
0.0
11
93466.820000000007
21
60196.010000000002
31
0.0
0
LINE
5
964
100
AcDbEntity
8
1-0
6
CONTINUOUS
62
3
100
AcDbLine
10
93466.820000000007
20
60196.010000000002
30
0.0
11
93946.419999999998
21
60342.080000000002
31
0.0
0
LINE
5
965
100
AcDbEntity
8
1-0
6
CONTINUOUS
62
3
100
AcDbLine
10
93946.419999999998
20
60342.080000000002
30
0.0
11
94427.970000000001
21
60482.449999999997
31
0.0
0
LINE
5
966
100
AcDbEntity
8
1-0
6
CONTINUOUS
62
3
100
AcDbLine
10
94427.970000000001
20
60482.449999999997
30
0.0
11
94910.500000000000
21
60619.599999999999
31
0.0
0
LINE
5
967
100
AcDbEntity
8
1-0
6
CONTINUOUS
62
3
100
AcDbLine
10
94910.500000000000
20
60619.599999999999
30
0.0
11
95393.070000000007
21
60755.989999999998
31
0.0
0
LINE
5
968
100
AcDbEntity
8
1-0
6
CONTINUOUS
62
3
100
AcDbLine
10
95393.070000000007
20
60755.989999999998
30
0.0
11
95874.770000000004
21
60894.070000000000
31
0.0
0
LINE
5
969
100
AcDbEntity
8
1-0
6
CONTINUOUS
62
3
100
AcDbLine
10
95874.770000000004
20
60894.070000000000
30
0.0
11
96354.639999999999
21
61036.330000000002
31
0.0
0
LINE
5
96a
100
AcDbEntity
8
1-0
6
CONTINUOUS
62
3
100
AcDbLine
10
96354.639999999999
20
61036.330000000002
30
0.0
11
96831.720000000001
21
61185.230000000003
31
0.0
0
LINE
5
96b
100
AcDbEntity
8
1-0
6
CONTINUOUS
62
3
100
AcDbLine
10
96831.720000000001
20
61185.230000000003
30
0.0
11
97305.089999999997
21
61343.209999999999
31
0.0
0
LINE
5
96c
100
AcDbEntity
8
1-0
6
CONTINUOUS
62
3
100
AcDbLine
10
97305.089999999997
20
61343.209999999999
30
0.0
11
97773.809999999998
21
61512.769999999997
31
0.0
0
LINE
5
96d
100
AcDbEntity
8
1-0
6
CONTINUOUS
62
3
100
AcDbLine
10
97773.809999999998
20
61512.769999999997
30
0.0
11
98236.929999999993
21
61696.349999999999
31
0.0
0
LINE
5
96e
100
AcDbEntity
8
1-0
6
CONTINUOUS
62
3
100
AcDbLine
10
98236.929999999993
20
61696.349999999999
30
0.0
11
98693.740000000005
21
61895.800000000003
31
0.0
0
LINE
5
96f
100
AcDbEntity
8
1-0
6
CONTINUOUS
62
3
100
AcDbLine
10
98693.740000000005
20
61895.800000000003
30
0.0
11
99145.050000000003
21
62109.180000000000
31
0.0
0
LINE
5
970
100
AcDbEntity
8
1-0
6
CONTINUOUS
62
3
100
AcDbLine
10
99145.050000000003
20
62109.180000000000
30
0.0
11
99592.100000000006
21
62333.209999999999
31
0.0
0
LINE
5
971
100
AcDbEntity
8
1-0
6
CONTINUOUS
62
3
100
AcDbLine
10
99592.100000000006
20
62333.209999999999
30
0.0
11
100036.220000000000
21
62564.620000000003
31
0.0
0
LINE
5
972
100
AcDbEntity
8
1-0
6
CONTINUOUS
62
3
100
AcDbLine
10
100036.220000000000
20
62564.620000000003
30
0.0
11
100478.690000000000
21
62800.110000000001
31
0.0
0
LINE
5
973
100
AcDbEntity
8
1-0
6
CONTINUOUS
62
3
100
AcDbLine
10
100478.690000000000
20
62800.110000000001
30
0.0
11
100920.830000000000
21
63036.410000000003
31
0.0
0
LINE
5
974
100
AcDbEntity
8
1-0
6
CONTINUOUS
62
3
100
AcDbLine
10
100920.830000000000
20
63036.410000000003
30
0.0
11
101363.530000000000
21
63271.180000000000
31
0.0
0
LINE
5
975
100
AcDbEntity
8
1-0
6
CONTINUOUS
62
3
100
AcDbLine
10
101363.530000000000
20
63271.180000000000
30
0.0
11
101806.870000000000
21
63504.239999999998
31
0.0
0
LINE
5
976
100
AcDbEntity
8
1-0
6
CONTINUOUS
62
3
100
AcDbLine
10
101806.870000000000
20
63504.239999999998
30
0.0
11
102250.830000000000
21
63735.690000000002
31
0.0
0
LINE
5
977
100
AcDbEntity
8
1-0
6
CONTINUOUS
62
3
100
AcDbLine
10
102250.830000000000
20
63735.690000000002
30
0.0
11
102695.360000000000
21
63965.669999999998
31
0.0
0
LINE
5
978
100
AcDbEntity
8
1-0
6
CONTINUOUS
62
3
100
AcDbLine
10
102695.360000000000
20
63965.669999999998
30
0.0
11
103140.390000000000
21
64194.260000000002
31
0.0
0
LINE
5
979
100
AcDbEntity
8
1-0
6
CONTINUOUS
62
3
100
AcDbLine
10
103140.390000000000
20
64194.260000000002
30
0.0
11
103585.899999999990
21
64421.599999999999
31
0.0
0
LINE
5
97a
100
AcDbEntity
8
1-0
6
CONTINUOUS
62
3
100
AcDbLine
10
103585.899999999990
20
64421.599999999999
30
0.0
11
104031.850000000010
21
64647.790000000001
31
0.0
0
LINE
5
97b
100
AcDbEntity
8
1-0
6
CONTINUOUS
62
3
100
AcDbLine
10
104031.850000000010
20
64647.790000000001
30
0.0
11
104478.170000000000
21
64872.940000000002
31
0.0
0
LINE
5
97c
100
AcDbEntity
8
1-0
6
CONTINUOUS
62
3
100
AcDbLine
10
104478.170000000000
20
64872.940000000002
30
0.0
11
104924.870000000000
21
65097.180000000000
31
0.0
0
LINE
5
97d
100
AcDbEntity
8
1-0
6
CONTINUOUS
62
3
100
AcDbLine
10
104924.870000000000
20
65097.180000000000
30
0.0
11
105371.850000000010
21
65320.589999999997
31
0.0
0
LINE
5
97e
100
AcDbEntity
8
1-0
6
CONTINUOUS
62
3
100
AcDbLine
10
105371.850000000010
20
65320.589999999997
30
0.0
11
105819.110000000000
21
65543.309999999998
31
0.0
0
LINE
5
97f
100
AcDbEntity
8
1-0
6
CONTINUOUS
62
3
100
AcDbLine
10
105819.110000000000
20
65543.309999999998
30
0.0
11
106266.590000000000
21
65765.449999999997
31
0.0
0
LINE
5
980
100
AcDbEntity
8
1-0
6
CONTINUOUS
62
3
100
AcDbLine
10
106266.590000000000
20
65765.449999999997
30
0.0
11
106714.240000000010
21
65987.119999999995
31
0.0
0
LINE
5
981
100
AcDbEntity
8
1-0
6
CONTINUOUS
62
3
100
AcDbLine
10
106714.240000000010
20
65987.119999999995
30
0.0
11
107162.039999999990
21
66208.419999999998
31
0.0
0
LINE
5
982
100
AcDbEntity
8
1-0
6
CONTINUOUS
62
3
100
AcDbLine
10
107162.039999999990
20
66208.419999999998
30
0.0
11
107609.910000000000
21
66429.490000000005
31
0.0
0
LINE
5
983
100
AcDbEntity
8
1-0
6
CONTINUOUS
62
3
100
AcDbLine
10
107609.910000000000
20
66429.490000000005
30
0.0
11
108057.850000000010
21
66650.429999999993
31
0.0
0
LINE
5
984
100
AcDbEntity
8
1-0
6
CONTINUOUS
62
3
100
AcDbLine
10
108057.850000000010
20
66650.429999999993
30
0.0
11
108136.340000000000
21
66689.139999999999
31
0.0
0
LINE
5
985
100
AcDbEntity
8
1-0
6
CONTINUOUS
62
3
100
AcDbLine
10
14682.660000000000
20
56917.519999999997
30
0.0
11
15168.340000000000
21
56799.040000000001
31
0.0
0
LINE
5
986
100
AcDbEntity
8
1-0
6
CONTINUOUS
62
3
100
AcDbLine
10
15168.340000000000
20
56799.040000000001
30
0.0
11
15654.080000000000
21
56680.699999999997
31
0.0
0
LINE
5
987
100
AcDbEntity
8
1-0
6
CONTINUOUS
62
3
100
AcDbLine
10
15654.080000000000
20
56680.699999999997
30
0.0
11
16139.900000000000
21
56562.660000000003
31
0.0
0
LINE
5
988
100
AcDbEntity
8
1-0
6
CONTINUOUS
62
3
100
AcDbLine
10
16139.900000000000
20
56562.660000000003
30
0.0
11
16625.849999999999
21
56445.040000000001
31
0.0
0
LINE
5
989
100
AcDbEntity
8
1-0
6
CONTINUOUS
62
3
100
AcDbLine
10
16625.849999999999
20
56445.040000000001
30
0.0
11
17111.959999999999
21
56327.989999999998
31
0.0
0
LINE
5
98a
100
AcDbEntity
8
1-0
6
CONTINUOUS
62
3
100
AcDbLine
10
17111.959999999999
20
56327.989999999998
30
0.0
11
17598.290000000001
21
56211.680000000000
31
0.0
0
LINE
5
98b
100
AcDbEntity
8
1-0
6
CONTINUOUS
62
3
100
AcDbLine
10
17598.290000000001
20
56211.680000000000
30
0.0
11
18084.860000000001
21
56096.220000000001
31
0.0
0
LINE
5
98c
100
AcDbEntity
8
1-0
6
CONTINUOUS
62
3
100
AcDbLine
10
18084.860000000001
20
56096.220000000001
30
0.0
11
18571.740000000002
21
55981.739999999998
31
0.0
0
LINE
5
98d
100
AcDbEntity
8
1-0
6
CONTINUOUS
62
3
100
AcDbLine
10
18571.740000000002
20
55981.739999999998
30
0.0
11
19058.770000000000
21
55867.790000000001
31
0.0
0
LINE
5
98e
100
AcDbEntity
8
1-0
6
CONTINUOUS
62
3
100
AcDbLine
10
19058.770000000000
20
55867.790000000001
30
0.0
11
19545.720000000001
21
55753.430000000000
31
0.0
0
LINE
5
98f
100
AcDbEntity
8
1-0
6
CONTINUOUS
62
3
100
AcDbLine
10
19545.720000000001
20
55753.430000000000
30
0.0
11
20032.299999999999
21
55637.709999999999
31
0.0
0
LINE
5
990
100
AcDbEntity
8
1-0
6
CONTINUOUS
62
3
100
AcDbLine
10
20032.299999999999
20
55637.709999999999
30
0.0
11
20518.259999999998
21
55519.660000000003
31
0.0
0
LINE
5
991
100
AcDbEntity
8
1-0
6
CONTINUOUS
62
3
100
AcDbLine
10
20518.259999999998
20
55519.660000000003
30
0.0
11
21003.310000000001
21
55398.320000000000
31
0.0
0
LINE
5
992
100
AcDbEntity
8
1-0
6
CONTINUOUS
62
3
100
AcDbLine
10
21003.310000000001
20
55398.320000000000
30
0.0
11
21487.209999999999
21
55272.760000000002
31
0.0
0
LINE
5
993
100
AcDbEntity
8
1-0
6
CONTINUOUS
62
3
100
AcDbLine
10
21487.209999999999
20
55272.760000000002
30
0.0
11
21969.680000000000
21
55142.000000000000
31
0.0
0
LINE
5
994
100
AcDbEntity
8
1-0
6
CONTINUOUS
62
3
100
AcDbLine
10
21969.680000000000
20
55142.000000000000
30
0.0
11
22450.450000000001
21
55005.139999999999
31
0.0
0
LINE
5
995
100
AcDbEntity
8
1-0
6
CONTINUOUS
62
3
100
AcDbLine
10
22450.450000000001
20
55005.139999999999
30
0.0
11
22929.790000000001
21
54862.959999999999
31
0.0
0
LINE
5
996
100
AcDbEntity
8
1-0
6
CONTINUOUS
62
3
100
AcDbLine
10
22929.790000000001
20
54862.959999999999
30
0.0
11
23408.490000000002
21
54718.480000000003
31
0.0
0
LINE
5
997
100
AcDbEntity
8
1-0
6
CONTINUOUS
62
3
100
AcDbLine
10
23408.490000000002
20
54718.480000000003
30
0.0
11
23887.439999999999
21
54574.809999999998
31
0.0
0
LINE
5
998
100
AcDbEntity
8
1-0
6
CONTINUOUS
62
3
100
AcDbLine
10
23887.439999999999
20
54574.809999999998
30
0.0
11
24367.330000000002
21
54434.379999999997
31
0.0
0
LINE
5
999
100
AcDbEntity
8
1-0
6
CONTINUOUS
62
3
100
AcDbLine
10
24367.330000000002
20
54434.379999999997
30
0.0
11
24847.970000000001
21
54296.559999999998
31
0.0
0
LINE
5
99a
100
AcDbEntity
8
1-0
6
CONTINUOUS
62
3
100
AcDbLine
10
24847.970000000001
20
54296.559999999998
30
0.0
11
25194.119999999999
21
54198.129999999997
31
0.0
0
LINE
5
99b
100
AcDbEntity
8
1-0
6
CONTINUOUS
62
3
100
AcDbLine
10
28436.459999999999
20
53256.809999999998
30
0.0
11
28928.540000000001
21
53162.980000000003
31
0.0
0
LINE
5
99c
100
AcDbEntity
8
1-0
6
CONTINUOUS
62
3
100
AcDbLine
10
28928.540000000001
20
53162.980000000003
30
0.0
11
29417.380000000001
21
53057.699999999997
31
0.0
0
LINE
5
99d
100
AcDbEntity
8
1-0
6
CONTINUOUS
62
3
100
AcDbLine
10
29417.380000000001
20
53057.699999999997
30
0.0
11
29899.759999999998
21
52929.599999999999
31
0.0
0
LINE
5
99e
100
AcDbEntity
8
1-0
6
CONTINUOUS
62
3
100
AcDbLine
10
29899.759999999998
20
52929.599999999999
30
0.0
11
30374.720000000001
21
52775.279999999999
31
0.0
0
LINE
5
99f
100
AcDbEntity
8
1-0
6
CONTINUOUS
62
3
100
AcDbLine
10
30374.720000000001
20
52775.279999999999
30
0.0
11
30845.340000000000
21
52605.440000000002
31
0.0
0
LINE
5
9a0
100
AcDbEntity
8
1-0
6
CONTINUOUS
62
3
100
AcDbLine
10
30845.340000000000
20
52605.440000000002
30
0.0
11
31315.160000000000
21
52432.239999999998
31
0.0
0
LINE
5
9a1
100
AcDbEntity
8
1-0
6
CONTINUOUS
62
3
100
AcDbLine
10
31315.160000000000
20
52432.239999999998
30
0.0
11
31787.590000000000
21
52267.529999999999
31
0.0
0
LINE
5
9a2
100
AcDbEntity
8
1-0
6
CONTINUOUS
62
3
100
AcDbLine
10
31787.590000000000
20
52267.529999999999
30
0.0
11
32263.820000000000
21
52115.570000000000
31
0.0
0
LINE
5
9a3
100
AcDbEntity
8
1-0
6
CONTINUOUS
62
3
100
AcDbLine
10
32263.820000000000
20
52115.570000000000
30
0.0
11
32742.959999999999
21
51973.169999999998
31
0.0
0
LINE
5
9a4
100
AcDbEntity
8
1-0
6
CONTINUOUS
62
3
100
AcDbLine
10
32742.959999999999
20
51973.169999999998
30
0.0
11
33224.010000000002
21
51836.849999999999
31
0.0
0
LINE
5
9a5
100
AcDbEntity
8
1-0
6
CONTINUOUS
62
3
100
AcDbLine
10
33224.010000000002
20
51836.849999999999
30
0.0
11
33705.959999999999
21
51703.110000000001
31
0.0
0
LINE
5
9a6
100
AcDbEntity
8
1-0
6
CONTINUOUS
62
3
100
AcDbLine
10
33705.959999999999
20
51703.110000000001
30
0.0
11
34187.779999999999
21
51568.470000000001
31
0.0
0
LINE
5
9a7
100
AcDbEntity
8
1-0
6
CONTINUOUS
62
3
100
AcDbLine
10
34187.779999999999
20
51568.470000000001
30
0.0
11
34668.510000000002
21
51429.459999999999
31
0.0
0
LINE
5
9a8
100
AcDbEntity
8
1-0
6
CONTINUOUS
62
3
100
AcDbLine
10
34668.510000000002
20
51429.459999999999
30
0.0
11
35147.300000000003
21
51283.709999999999
31
0.0
0
LINE
5
9a9
100
AcDbEntity
8
1-0
6
CONTINUOUS
62
3
100
AcDbLine
10
35147.300000000003
20
51283.709999999999
30
0.0
11
35623.639999999999
21
51130.290000000001
31
0.0
0
LINE
5
9aa
100
AcDbEntity
8
1-0
6
CONTINUOUS
62
3
100
AcDbLine
10
35623.639999999999
20
51130.290000000001
30
0.0
11
36096.949999999997
21
50968.379999999997
31
0.0
0
LINE
5
9ab
100
AcDbEntity
8
1-0
6
CONTINUOUS
62
3
100
AcDbLine
10
36096.949999999997
20
50968.379999999997
30
0.0
11
36566.690000000002
21
50797.120000000003
31
0.0
0
LINE
5
9ac
100
AcDbEntity
8
1-0
6
CONTINUOUS
62
3
100
AcDbLine
10
36566.690000000002
20
50797.120000000003
30
0.0
11
37032.339999999997
21
50615.680000000000
31
0.0
0
LINE
5
9ad
100
AcDbEntity
8
1-0
6
CONTINUOUS
62
3
100
AcDbLine
10
37032.339999999997
20
50615.680000000000
30
0.0
11
37493.570000000000
21
50423.660000000003
31
0.0
0
LINE
5
9ae
100
AcDbEntity
8
1-0
6
CONTINUOUS
62
3
100
AcDbLine
10
37493.570000000000
20
50423.660000000003
30
0.0
11
37950.830000000002
21
50222.230000000003
31
0.0
0
LINE
5
9af
100
AcDbEntity
8
1-0
6
CONTINUOUS
62
3
100
AcDbLine
10
37950.830000000002
20
50222.230000000003
30
0.0
11
38404.779999999999
21
50012.959999999999
31
0.0
0
LINE
5
9b0
100
AcDbEntity
8
1-0
6
CONTINUOUS
62
3
100
AcDbLine
10
38404.779999999999
20
50012.959999999999
30
0.0
11
38856.089999999997
21
49797.389999999999
31
0.0
0
LINE
5
9b1
100
AcDbEntity
8
1-0
6
CONTINUOUS
62
3
100
AcDbLine
10
38856.089999999997
20
49797.389999999999
30
0.0
11
39305.410000000003
21
49577.099999999999
31
0.0
0
LINE
5
9b2
100
AcDbEntity
8
1-0
6
CONTINUOUS
62
3
100
AcDbLine
10
39305.410000000003
20
49577.099999999999
30
0.0
11
39753.410000000003
21
49353.650000000001
31
0.0
0
LINE
5
9b3
100
AcDbEntity
8
1-0
6
CONTINUOUS
62
3
100
AcDbLine
10
39753.410000000003
20
49353.650000000001
30
0.0
11
40200.720000000001
21
49128.599999999999
31
0.0
0
LINE
5
9b4
100
AcDbEntity
8
1-0
6
CONTINUOUS
62
3
100
AcDbLine
10
40200.720000000001
20
49128.599999999999
30
0.0
11
40212.410000000003
21
49122.709999999999
31
0.0
0
ARC
5
9b5
100
AcDbEntity
8
1-0
6
CONTINUOUS
62
4
100
AcDbCircle
10
39238.150000000001
20
12930.600000000000
30
0.0
40
299.999997209656
100
AcDbArc
50
189.181869506836
51
330.239456176758
0
ARC
5
9b6
100
AcDbEntity
8
1-0
6
CONTINUOUS
62
4
100
AcDbCircle
10
12932.780000000001
20
19470.709999999999
30
0.0
40
299.999997209656
100
AcDbArc
50
184.952728271484
51
326.010314941406
0
ARC
5
9b7
100
AcDbEntity
8
1-0
6
CONTINUOUS
62
4
100
AcDbCircle
10
39794.059999999998
20
12829.680000000000
30
0.0
40
299.999997209656
100
AcDbArc
50
189.181869506836
51
330.239456176758
0
ARC
5
9b8
100
AcDbEntity
8
1-0
6
CONTINUOUS
62
4
100
AcDbCircle
10
8662.379999999999
20
16231.080000000000
30
0.0
40
299.999997209656
100
AcDbArc
50
4.952713012695
51
146.010314941406
0
ARC
5
9b9
100
AcDbEntity
8
1-0
6
CONTINUOUS
62
4
100
AcDbCircle
10
40349.970000000001
20
12728.760000000000
30
0.0
40
299.999997209656
100
AcDbArc
50
189.181869506836
51
330.239456176758
0
ARC
5
9ba
100
AcDbEntity
8
1-0
6
CONTINUOUS
62
4
100
AcDbCircle
10
4610.960000000000
20
17072.029999999999
30
0.0
40
299.999997209656
100
AcDbArc
50
4.874023437500
51
145.931625366211
0
ARC
5
9bb
100
AcDbEntity
8
1-0
6
CONTINUOUS
62
4
100
AcDbCircle
10
3517.420000000000
20
17356.810000000001
30
0.0
40
299.999997209656
100
AcDbArc
50
4.874023437500
51
145.931625366211
0
ARC
5
9bc
100
AcDbEntity
8
1-0
6
CONTINUOUS
62
4
100
AcDbCircle
10
5704.480000000000
20
16787.250000000000
30
0.0
40
299.999997209656
100
AcDbArc
50
4.874023437500
51
145.931625366211
0
ARC
5
9bd
100
AcDbEntity
8
1-0
6
CONTINUOUS
62
4
100
AcDbCircle
10
11339.000000000000
20
15331.340000000000
30
0.0
40
299.999997209656
100
AcDbArc
50
4.952713012695
51
146.010314941406
0
ARC
5
9be
100
AcDbEntity
8
1-0
6
CONTINUOUS
62
4
100
AcDbCircle
10
5157.710000000000
20
16929.630000000001
30
0.0
40
299.999997209656
100
AcDbArc
50
4.874023437500
51
145.931625366211
0
ARC
5
9bf
100
AcDbEntity
8
1-0
6
CONTINUOUS
62
4
100
AcDbCircle
10
9756.299999999999
20
15947.799999999999
30
0.0
40
299.999997209656
100
AcDbArc
50
4.952713012695
51
146.010314941406
0
ARC
5
9c0
100
AcDbEntity
8
1-0
6
CONTINUOUS
62
4
100
AcDbCircle
10
4390.390000000000
20
17336.139999999999
30
0.0
40
299.999997209656
100
AcDbArc
50
4.874023437500
51
145.931625366211
0
ARC
5
9c1
100
AcDbEntity
8
1-0
6
CONTINUOUS
62
4
100
AcDbCircle
10
4064.190000000000
20
17214.419999999998
30
0.0
40
299.999997209656
100
AcDbArc
50
4.874023437500
51
145.931625366211
0
ARC
5
9c2
100
AcDbEntity
8
1-0
6
CONTINUOUS
62
4
100
AcDbCircle
10
3843.620000000000
20
17478.529999999999
30
0.0
40
299.999997209656
100
AcDbArc
50
4.874023437500
51
145.931625366211
0
ARC
5
9c3
100
AcDbEntity
8
1-0
6
CONTINUOUS
62
4
100
AcDbCircle
10
20632.209999999999
20
12371.870000000001
30
0.0
40
299.999997209656
100
AcDbArc
50
7.619445800781
51
148.677047729492
0
ARC
5
9c4
100
AcDbEntity
8
1-0
6
CONTINUOUS
62
4
100
AcDbCircle
10
8336.340000000000
20
16108.920000000000
30
0.0
40
299.999997209656
100
AcDbArc
50
4.952713012695
51
146.010314941406
0
ARC
5
9c5
100
AcDbEntity
8
1-0
6
CONTINUOUS
62
4
100
AcDbCircle
10
8883.299999999999
20
15967.280000000001
30
0.0
40
299.999997209656
100
AcDbArc
50
4.952713012695
51
146.010314941406
0
ARC
5
9c6
100
AcDbEntity
8
1-0
6
CONTINUOUS
62
4
100
AcDbCircle
10
9977.209999999999
20
15683.990000000000
30
0.0
40
299.999997209656
100
AcDbArc
50
4.952713012695
51
146.010314941406
0
ARC
5
9c7
100
AcDbEntity
8
1-0
6
CONTINUOUS
62
4
100
AcDbCircle
10
8115.430000000000
20
16372.730000000000
30
0.0
40
299.999997209656
100
AcDbArc
50
4.952713012695
51
146.010314941406
0
ARC
5
9c8
100
AcDbEntity
8
1-0
6
CONTINUOUS
62
4
100
AcDbCircle
10
5483.910000000000
20
17051.340000000000
30
0.0
40
299.999997209656
100
AcDbArc
50
4.874023437500
51
145.931625366211
0
ARC
5
9c9
100
AcDbEntity
8
1-0
6
CONTINUOUS
62
4
100
AcDbCircle
10
7789.380000000000
20
16250.559999999999
30
0.0
40
299.999997209656
100
AcDbArc
50
4.952713012695
51
146.010314941406
0
ARC
5
9ca
100
AcDbEntity
8
1-0
6
CONTINUOUS
62
4
100
AcDbCircle
10
14026.700000000001
20
19187.419999999998
30
0.0
40
299.999997209656
100
AcDbArc
50
184.952728271484
51
326.010314941406
0
ARC
5
9cb
100
AcDbEntity
8
1-0
6
CONTINUOUS
62
4
100
AcDbCircle
10
11885.969999999999
20
15189.700000000001
30
0.0
40
299.999997209656
100
AcDbArc
50
4.952713012695
51
146.010314941406
0
ARC
5
9cc
100
AcDbEntity
8
1-0
6
CONTINUOUS
62
4
100
AcDbCircle
10
12758.950000000001
20
15170.230000000000
30
0.0
40
299.999997209656
100
AcDbArc
50
4.952713012695
51
146.010314941406
0
ARC
5
9cd
100
AcDbEntity
8
1-0
6
CONTINUOUS
62
4
100
AcDbCircle
10
12979.879999999999
20
14906.420000000000
30
0.0
40
299.999997209656
100
AcDbArc
50
4.952713012695
51
146.010314941406
0
ARC
5
9ce
100
AcDbEntity
8
1-0
6
CONTINUOUS
62
4
100
AcDbCircle
10
9209.330000000000
20
16089.440000000001
30
0.0
40
299.999997209656
100
AcDbArc
50
4.952713012695
51
146.010314941406
0
ARC
5
9cf
100
AcDbEntity
8
1-0
6
CONTINUOUS
62
4
100
AcDbCircle
10
12432.920000000000
20
15048.059999999999
30
0.0
40
299.999997209656
100
AcDbArc
50
4.952713012695
51
146.010314941406
0
ARC
5
9d0
100
AcDbEntity
8
1-0
6
CONTINUOUS
62
4
100
AcDbCircle
10
11665.049999999999
20
15453.510000000000
30
0.0
40
299.999997209656
100
AcDbArc
50
4.952713012695
51
146.010314941406
0
ARC
5
9d1
100
AcDbEntity
8
1-0
6
CONTINUOUS
62
4
100
AcDbCircle
10
14573.660000000000
20
19045.779999999999
30
0.0
40
299.999997209656
100
AcDbArc
50
184.952728271484
51
326.010314941406
0
ARC
5
9d2
100
AcDbEntity
8
1-0
6
CONTINUOUS
62
4
100
AcDbCircle
10
9331.830000000000
20
20196.619999999999
30
0.0
40
299.999997209656
100
AcDbArc
50
184.952728271484
51
326.010314941406
0
ARC
5
9d3
100
AcDbEntity
8
1-0
6
CONTINUOUS
62
4
100
AcDbCircle
10
13305.920000000000
20
15028.580000000000
30
0.0
40
299.999997209656
100
AcDbArc
50
4.952713012695
51
146.010314941406
0
ARC
5
9d4
100
AcDbEntity
8
1-0
6
CONTINUOUS
62
4
100
AcDbCircle
10
12212.000000000000
20
15311.870000000001
30
0.0
40
299.999997209656
100
AcDbArc
50
4.952713012695
51
146.010314941406
0
ARC
5
9d5
100
AcDbEntity
8
1-0
6
CONTINUOUS
62
4
100
AcDbCircle
10
9430.260000000000
20
15825.639999999999
30
0.0
40
299.999997209656
100
AcDbArc
50
4.952713012695
51
146.010314941406
0
ARC
5
9d6
100
AcDbEntity
8
1-0
6
CONTINUOUS
62
4
100
AcDbCircle
10
13479.740000000000
20
19329.070000000000
30
0.0
40
299.999997209656
100
AcDbArc
50
184.952728271484
51
326.010314941406
0
ARC
5
9d7
100
AcDbEntity
8
1-0
6
CONTINUOUS
62
4
100
AcDbCircle
10
7470.040000000000
20
20885.340000000000
30
0.0
40
299.999997209656
100
AcDbArc
50
184.952728271484
51
326.010314941406
0
ARC
5
9d8
100
AcDbEntity
8
1-0
6
CONTINUOUS
62
4
100
AcDbCircle
10
12385.830000000000
20
19612.349999999999
30
0.0
40
299.999997209656
100
AcDbArc
50
184.952728271484
51
326.010314941406
0
ARC
5
9d9
100
AcDbEntity
8
1-0
6
CONTINUOUS
62
4
100
AcDbCircle
10
14247.610000000001
20
18923.619999999999
30
0.0
40
299.999997209656
100
AcDbArc
50
184.952728271484
51
326.010314941406
0
ARC
5
9da
100
AcDbEntity
8
1-0
6
CONTINUOUS
62
4
100
AcDbCircle
10
13700.660000000000
20
19065.259999999998
30
0.0
40
299.999997209656
100
AcDbArc
50
184.952728271484
51
326.010314941406
0
ARC
5
9db
100
AcDbEntity
8
1-0
6
CONTINUOUS
62
4
100
AcDbCircle
10
8563.959999999999
20
20602.070000000000
30
0.0
40
299.999997209656
100
AcDbArc
50
184.952728271484
51
326.010314941406
0
ARC
5
9dc
100
AcDbEntity
8
1-0
6
CONTINUOUS
62
4
100
AcDbCircle
10
9657.879999999999
20
20318.790000000001
30
0.0
40
299.999997209656
100
AcDbArc
50
184.952728271484
51
326.010314941406
0
ARC
5
9dd
100
AcDbEntity
8
1-0
6
CONTINUOUS
62
4
100
AcDbCircle
10
9110.910000000000
20
20460.430000000000
30
0.0
40
299.999997209656
100
AcDbArc
50
184.952728271484
51
326.010314941406
0
ARC
5
9de
100
AcDbEntity
8
1-0
6
CONTINUOUS
62
4
100
AcDbCircle
10
4937.160000000000
20
17193.740000000002
30
0.0
40
299.999997209656
100
AcDbArc
50
4.874023437500
51
145.931625366211
0
ARC
5
9df
100
AcDbEntity
8
1-0
6
CONTINUOUS
62
4
100
AcDbCircle
10
13526.830000000000
20
14764.780000000001
30
0.0
40
299.999997209656
100
AcDbArc
50
4.952713012695
51
146.010314941406
0
ARC
5
9e0
100
AcDbEntity
8
1-0
6
CONTINUOUS
62
4
100
AcDbCircle
10
17908.180000000000
20
13352.230000000000
30
0.0
40
299.999997209656
100
AcDbArc
50
7.619445800781
51
148.677047729492
0
ARC
5
9e1
100
AcDbEntity
8
1-0
6
CONTINUOUS
62
4
100
AcDbCircle
10
8784.879999999999
20
20338.259999999998
30
0.0
40
299.999997209656
100
AcDbArc
50
184.952728271484
51
326.010314941406
0
ARC
5
9e2
100
AcDbEntity
8
1-0
6
CONTINUOUS
62
4
100
AcDbCircle
10
13153.709999999999
20
19206.910000000000
30
0.0
40
299.999997209656
100
AcDbArc
50
184.952728271484
51
326.010314941406
0
ARC
5
9e3
100
AcDbEntity
8
1-0
6
CONTINUOUS
62
4
100
AcDbCircle
10
12606.740000000000
20
19348.540000000001
30
0.0
40
299.999997209656
100
AcDbArc
50
184.952728271484
51
326.010314941406
0
ARC
5
9e4
100
AcDbEntity
8
1-0
6
CONTINUOUS
62
4
100
AcDbCircle
10
15678.570000000000
20
13820.129999999999
30
0.0
40
299.999997209656
100
AcDbArc
50
7.619445800781
51
148.677047729492
0
ARC
5
9e5
100
AcDbEntity
8
1-0
6
CONTINUOUS
62
4
100
AcDbCircle
10
8237.920000000000
20
20479.900000000001
30
0.0
40
299.999997209656
100
AcDbArc
50
184.952728271484
51
326.010314941406
0
ARC
5
9e6
100
AcDbEntity
8
1-0
6
CONTINUOUS
62
4
100
AcDbCircle
10
2649.620000000000
20
22136.529999999999
30
0.0
40
299.999997209656
100
AcDbArc
50
184.874023437500
51
325.931625366211
0
ARC
5
9e7
100
AcDbEntity
8
1-0
6
CONTINUOUS
62
4
100
AcDbCircle
10
3743.140000000000
20
21851.750000000000
30
0.0
40
299.999997209656
100
AcDbArc
50
184.874023437500
51
325.931625366211
0
ARC
5
9e8
100
AcDbEntity
8
1-0
6
CONTINUOUS
62
4
100
AcDbCircle
10
3963.710000000000
20
21587.639999999999
30
0.0
40
299.999997209656
100
AcDbArc
50
184.874023437500
51
325.931625366211
0
ARC
5
9e9
100
AcDbEntity
8
1-0
6
CONTINUOUS
62
4
100
AcDbCircle
10
7690.960000000000
20
20621.540000000001
30
0.0
40
299.999997209656
100
AcDbArc
50
184.952728271484
51
326.010314941406
0
ARC
5
9ea
100
AcDbEntity
8
1-0
6
CONTINUOUS
62
4
100
AcDbCircle
10
8016.990000000000
20
20743.709999999999
30
0.0
40
299.999997209656
100
AcDbArc
50
184.952728271484
51
326.010314941406
0
ARC
5
9eb
100
AcDbEntity
8
1-0
6
CONTINUOUS
62
4
100
AcDbCircle
10
18146.020000000000
20
13097.969999999999
30
0.0
40
299.999997209656
100
AcDbArc
50
7.619445800781
51
148.677047729492
0
ARC
5
9ec
100
AcDbEntity
8
1-0
6
CONTINUOUS
62
4
100
AcDbCircle
10
2102.850000000000
20
22278.919999999998
30
0.0
40
299.999997209656
100
AcDbArc
50
184.874023437500
51
325.931625366211
0
ARC
5
9ed
100
AcDbEntity
8
1-0
6
CONTINUOUS
62
4
100
AcDbCircle
10
2323.420000000000
20
22014.810000000001
30
0.0
40
299.999997209656
100
AcDbArc
50
184.874023437500
51
325.931625366211
0
ARC
5
9ee
100
AcDbEntity
8
1-0
6
CONTINUOUS
62
4
100
AcDbCircle
10
41461.800000000003
20
12526.920000000000
30
0.0
40
299.999997209656
100
AcDbArc
50
189.181869506836
51
330.239456176758
0
ARC
5
9ef
100
AcDbEntity
8
1-0
6
CONTINUOUS
62
4
100
AcDbCircle
10
20166.299999999999
20
12878.360000000001
30
0.0
40
299.999997209656
100
AcDbArc
50
7.619445800781
51
148.677047729492
0
ARC
5
9f0
100
AcDbEntity
8
1-0
6
CONTINUOUS
62
4
100
AcDbCircle
10
4289.910000000000
20
21709.349999999999
30
0.0
40
299.999997209656
100
AcDbArc
50
184.874023437500
51
325.931625366211
0
ARC
5
9f1
100
AcDbEntity
8
1-0
6
CONTINUOUS
62
4
100
AcDbCircle
10
18698.980000000000
20
12981.930000000000
30
0.0
40
299.999997209656
100
AcDbArc
50
7.619445800781
51
148.677047729492
0
ARC
5
9f2
100
AcDbEntity
8
1-0
6
CONTINUOUS
62
4
100
AcDbCircle
10
16720.119999999999
20
13192.850000000000
30
0.0
40
299.999997209656
100
AcDbArc
50
7.619445800781
51
148.677047729492
0
ARC
5
9f3
100
AcDbEntity
8
1-0
6
CONTINUOUS
62
4
100
AcDbCircle
10
15125.620000000001
20
13936.170000000000
30
0.0
40
299.999997209656
100
AcDbArc
50
7.619445800781
51
148.677047729492
0
ARC
5
9f4
100
AcDbEntity
8
1-0
6
CONTINUOUS
62
4
100
AcDbCircle
10
2870.170000000000
20
21872.419999999998
30
0.0
40
299.999997209656
100
AcDbArc
50
184.874023437500
51
325.931625366211
0
ARC
5
9f5
100
AcDbEntity
8
1-0
6
CONTINUOUS
62
4
100
AcDbCircle
10
18378.980000000000
20
12844.730000000000
30
0.0
40
299.999997209656
100
AcDbArc
50
7.619445800781
51
148.677047729492
0
ARC
5
9f6
100
AcDbEntity
8
1-0
6
CONTINUOUS
62
4
100
AcDbCircle
10
3196.380000000000
20
21994.139999999999
30
0.0
40
299.999997209656
100
AcDbArc
50
184.874023437500
51
325.931625366211
0
ARC
5
9f7
100
AcDbEntity
8
1-0
6
CONTINUOUS
62
4
100
AcDbCircle
10
17040.110000000001
20
13330.049999999999
30
0.0
40
299.999997209656
100
AcDbArc
50
7.619445800781
51
148.677047729492
0
ARC
5
9f8
100
AcDbEntity
8
1-0
6
CONTINUOUS
62
4
100
AcDbCircle
10
27393.500000000000
20
15681.879999999999
30
0.0
40
299.999997209656
100
AcDbArc
50
179.642288208008
51
320.699859619141
0
ARC
5
9f9
100
AcDbEntity
8
1-0
6
CONTINUOUS
62
4
100
AcDbCircle
10
18931.939999999999
20
12728.680000000000
30
0.0
40
299.999997209656
100
AcDbArc
50
7.619445800781
51
148.677047729492
0
ARC
5
9fa
100
AcDbEntity
8
1-0
6
CONTINUOUS
62
4
100
AcDbCircle
10
19403.130000000001
20
18563.160000000000
30
0.0
40
299.999997209656
100
AcDbArc
50
179.642288208008
51
320.699859619141
0
ARC
5
9fb
100
AcDbEntity
8
1-0
6
CONTINUOUS
62
4
100
AcDbCircle
10
17593.070000000000
20
13214.000000000000
30
0.0
40
299.999997209656
100
AcDbArc
50
7.619445800781
51
148.677047729492
0
ARC
5
9fc
100
AcDbEntity
8
1-0
6
CONTINUOUS
62
4
100
AcDbCircle
10
18461.130000000001
20
13236.200000000001
30
0.0
40
299.999997209656
100
AcDbArc
50
7.619445800781
51
148.677047729492
0
ARC
5
9fd
100
AcDbEntity
8
1-0
6
CONTINUOUS
62
4
100
AcDbCircle
10
17360.119999999999
20
13467.250000000000
30
0.0
40
299.999997209656
100
AcDbArc
50
7.619445800781
51
148.677047729492
0
ARC
5
9fe
100
AcDbEntity
8
1-0
6
CONTINUOUS
62
4
100
AcDbCircle
10
20079.250000000000
20
12487.920000000000
30
0.0
40
299.999997209656
100
AcDbArc
50
7.619445800781
51
148.677047729492
0
ARC
5
9ff
100
AcDbEntity
8
1-0
6
CONTINUOUS
62
4
100
AcDbCircle
10
21639.720000000001
20
18181.869999999999
30
0.0
40
299.999997209656
100
AcDbArc
50
179.642288208008
51
320.699859619141
0
ARC
5
a00
100
AcDbEntity
8
1-0
6
CONTINUOUS
62
4
100
AcDbCircle
10
17826.029999999999
20
12960.770000000000
30
0.0
40
299.999997209656
100
AcDbArc
50
7.619445800781
51
148.677047729492
0
ARC
5
a01
100
AcDbEntity
8
1-0
6
CONTINUOUS
62
4
100
AcDbCircle
10
19734.369999999999
20
18656.330000000002
30
0.0
40
299.999997209656
100
AcDbArc
50
179.642288208008
51
320.699859619141
0
ARC
5
a02
100
AcDbEntity
8
1-0
6
CONTINUOUS
62
4
100
AcDbCircle
10
17273.060000000001
20
13076.809999999999
30
0.0
40
299.999997209656
100
AcDbArc
50
7.619445800781
51
148.677047729492
0
ARC
5
a03
100
AcDbEntity
8
1-0
6
CONTINUOUS
62
4
100
AcDbCircle
10
20399.250000000000
20
12625.120000000001
30
0.0
40
299.999997209656
100
AcDbArc
50
7.619445800781
51
148.677047729492
0
ARC
5
a04
100
AcDbEntity
8
1-0
6
CONTINUOUS
62
4
100
AcDbCircle
10
20952.200000000001
20
12509.080000000000
30
0.0
40
299.999997209656
100
AcDbArc
50
7.619445800781
51
148.677047729492
0
ARC
5
a05
100
AcDbEntity
8
1-0
6
CONTINUOUS
62
4
100
AcDbCircle
10
3416.940000000000
20
21730.029999999999
30
0.0
40
299.999997209656
100
AcDbArc
50
184.874023437500
51
325.931625366211
0
ARC
5
a06
100
AcDbEntity
8
1-0
6
CONTINUOUS
62
4
100
AcDbCircle
10
21185.160000000000
20
12255.840000000000
30
0.0
40
299.999997209656
100
AcDbArc
50
7.619445800781
51
148.677047729492
0
ARC
5
a07
100
AcDbEntity
8
1-0
6
CONTINUOUS
62
4
100
AcDbCircle
10
20070.310000000001
20
18747.790000000001
30
0.0
40
299.999997209656
100
AcDbArc
50
179.642288208008
51
320.699859619141
0
ARC
5
a08
100
AcDbEntity
8
1-0
6
CONTINUOUS
62
4
100
AcDbCircle
10
19538.810000000001
20
18939.439999999999
30
0.0
40
299.999997209656
100
AcDbArc
50
179.642288208008
51
320.699859619141
0
ARC
5
a09
100
AcDbEntity
8
1-0
6
CONTINUOUS
62
4
100
AcDbCircle
10
19007.299999999999
20
19131.099999999999
30
0.0
40
299.999997209656
100
AcDbArc
50
179.642288208008
51
320.699859619141
0
ARC
5
a0a
100
AcDbEntity
8
1-0
6
CONTINUOUS
62
4
100
AcDbCircle
10
21738.119999999999
20
12139.799999999999
30
0.0
40
299.999997209656
100
AcDbArc
50
7.619445800781
51
148.677047729492
0
ARC
5
a0b
100
AcDbEntity
8
1-0
6
CONTINUOUS
62
4
100
AcDbCircle
10
19846.290000000001
20
12741.160000000000
30
0.0
40
299.999997209656
100
AcDbArc
50
7.619445800781
51
148.677047729492
0
ARC
5
a0c
100
AcDbEntity
8
1-0
6
CONTINUOUS
62
4
100
AcDbCircle
10
23774.820000000000
20
17411.970000000001
30
0.0
40
299.999997209656
100
AcDbArc
50
179.642288208008
51
320.699859619141
0
ARC
5
a0d
100
AcDbEntity
8
1-0
6
CONTINUOUS
62
4
100
AcDbCircle
10
21504.040000000001
20
17805.580000000002
30
0.0
40
299.999997209656
100
AcDbArc
50
179.642288208008
51
320.699859619141
0
ARC
5
a0e
100
AcDbEntity
8
1-0
6
CONTINUOUS
62
4
100
AcDbCircle
10
19202.860000000001
20
18847.980000000000
30
0.0
40
299.999997209656
100
AcDbArc
50
179.642288208008
51
320.699859619141
0
ARC
5
a0f
100
AcDbEntity
8
1-0
6
CONTINUOUS
62
4
100
AcDbCircle
10
18871.619999999999
20
18754.810000000001
30
0.0
40
299.999997209656
100
AcDbArc
50
179.642288208008
51
320.699859619141
0
ARC
5
a10
100
AcDbEntity
8
1-0
6
CONTINUOUS
62
4
100
AcDbCircle
10
19929.930000000000
20
18373.200000000001
30
0.0
40
299.999997209656
100
AcDbArc
50
179.642288208008
51
320.699859619141
0
ARC
5
a11
100
AcDbEntity
8
1-0
6
CONTINUOUS
62
4
100
AcDbCircle
10
27529.180000000000
20
16058.170000000000
30
0.0
40
299.999997209656
100
AcDbArc
50
179.642288208008
51
320.699859619141
0
ARC
5
a12
100
AcDbEntity
8
1-0
6
CONTINUOUS
62
4
100
AcDbCircle
10
20265.860000000001
20
18464.669999999998
30
0.0
40
299.999997209656
100
AcDbArc
50
179.642288208008
51
320.699859619141
0
ARC
5
a13
100
AcDbEntity
8
1-0
6
CONTINUOUS
62
4
100
AcDbCircle
10
22702.720000000001
20
17798.549999999999
30
0.0
40
299.999997209656
100
AcDbArc
50
179.642288208008
51
320.699859619141
0
ARC
5
a14
100
AcDbEntity
8
1-0
6
CONTINUOUS
62
4
100
AcDbCircle
10
22898.279999999999
20
17515.430000000000
30
0.0
40
299.999997209656
100
AcDbArc
50
179.642288208008
51
320.699859619141
0
ARC
5
a15
100
AcDbEntity
8
1-0
6
CONTINUOUS
62
4
100
AcDbCircle
10
23234.230000000000
20
17606.900000000001
30
0.0
40
299.999997209656
100
AcDbArc
50
179.642288208008
51
320.699859619141
0
ARC
5
a16
100
AcDbEntity
8
1-0
6
CONTINUOUS
62
4
100
AcDbCircle
10
21108.220000000001
20
18373.520000000000
30
0.0
40
299.999997209656
100
AcDbArc
50
179.642288208008
51
320.699859619141
0
ARC
5
a17
100
AcDbEntity
8
1-0
6
CONTINUOUS
62
4
100
AcDbCircle
10
18671.369999999999
20
19039.630000000001
30
0.0
40
299.999997209656
100
AcDbArc
50
179.642288208008
51
320.699859619141
0
ARC
5
a18
100
AcDbEntity
8
1-0
6
CONTINUOUS
62
4
100
AcDbCircle
10
22562.340000000000
20
17423.959999999999
30
0.0
40
299.999997209656
100
AcDbArc
50
179.642288208008
51
320.699859619141
0
ARC
5
a19
100
AcDbEntity
8
1-0
6
CONTINUOUS
62
4
100
AcDbCircle
10
22035.549999999999
20
17613.919999999998
30
0.0
40
299.999997209656
100
AcDbArc
50
179.642288208008
51
320.699859619141
0
ARC
5
a1a
100
AcDbEntity
8
1-0
6
CONTINUOUS
62
4
100
AcDbCircle
10
22171.230000000000
20
17990.200000000001
30
0.0
40
299.999997209656
100
AcDbArc
50
179.642288208008
51
320.699859619141
0
ARC
5
a1b
100
AcDbEntity
8
1-0
6
CONTINUOUS
62
4
100
AcDbCircle
10
22366.779999999999
20
17707.090000000000
30
0.0
40
299.999997209656
100
AcDbArc
50
179.642288208008
51
320.699859619141
0
ARC
5
a1c
100
AcDbEntity
8
1-0
6
CONTINUOUS
62
4
100
AcDbCircle
10
21835.270000000000
20
17898.740000000002
30
0.0
40
299.999997209656
100
AcDbArc
50
179.642288208008
51
320.699859619141
0
ARC
5
a1d
100
AcDbEntity
8
1-0
6
CONTINUOUS
62
4
100
AcDbCircle
10
21303.779999999999
20
18090.400000000001
30
0.0
40
299.999997209656
100
AcDbArc
50
179.642288208008
51
320.699859619141
0
ARC
5
a1e
100
AcDbEntity
8
1-0
6
CONTINUOUS
62
4
100
AcDbCircle
10
19526.299999999999
20
12603.959999999999
30
0.0
40
299.999997209656
100
AcDbArc
50
7.619445800781
51
148.677047729492
0
ARC
5
a1f
100
AcDbEntity
8
1-0
6
CONTINUOUS
62
4
100
AcDbCircle
10
20601.820000000000
20
18556.139999999999
30
0.0
40
299.999997209656
100
AcDbArc
50
179.642288208008
51
320.699859619141
0
ARC
5
a20
100
AcDbEntity
8
1-0
6
CONTINUOUS
62
4
100
AcDbCircle
10
16431.299999999999
20
19847.380000000001
30
0.0
40
299.999997209656
100
AcDbArc
50
179.642288208008
51
320.699859619141
0
ARC
5
a21
100
AcDbEntity
8
1-0
6
CONTINUOUS
62
4
100
AcDbCircle
10
15899.799999999999
20
20039.029999999999
30
0.0
40
299.999997209656
100
AcDbArc
50
179.642288208008
51
320.699859619141
0
ARC
5
a22
100
AcDbEntity
8
1-0
6
CONTINUOUS
62
4
100
AcDbCircle
10
29951.529999999999
20
14972.090000000000
30
0.0
40
299.999997209656
100
AcDbArc
50
179.642288208008
51
320.699859619141
0
ARC
5
a23
100
AcDbEntity
8
1-0
6
CONTINUOUS
62
4
100
AcDbCircle
10
16631.570000000000
20
19562.560000000001
30
0.0
40
299.999997209656
100
AcDbArc
50
179.642288208008
51
320.699859619141
0
ARC
5
a24
100
AcDbEntity
8
1-0
6
CONTINUOUS
62
4
100
AcDbCircle
10
29224.480000000000
20
15446.860000000001
30
0.0
40
299.999997209656
100
AcDbArc
50
179.642288208008
51
320.699859619141
0
ARC
5
a25
100
AcDbEntity
8
1-0
6
CONTINUOUS
62
4
100
AcDbCircle
10
17158.360000000001
20
19372.599999999999
30
0.0
40
299.999997209656
100
AcDbArc
50
179.642288208008
51
320.699859619141
0
ARC
5
a26
100
AcDbEntity
8
1-0
6
CONTINUOUS
62
4
100
AcDbCircle
10
31350.490000000002
20
14680.240000000000
30
0.0
40
299.999997209656
100
AcDbArc
50
179.642288208008
51
320.699859619141
0
ARC
5
a27
100
AcDbEntity
8
1-0
6
CONTINUOUS
62
4
100
AcDbCircle
10
16100.059999999999
20
19754.209999999999
30
0.0
40
299.999997209656
100
AcDbArc
50
179.642288208008
51
320.699859619141
0
ARC
5
a28
100
AcDbEntity
8
1-0
6
CONTINUOUS
62
4
100
AcDbCircle
10
26861.990000000002
20
15873.540000000001
30
0.0
40
299.999997209656
100
AcDbArc
50
179.642288208008
51
320.699859619141
0
ARC
5
a29
100
AcDbEntity
8
1-0
6
CONTINUOUS
62
4
100
AcDbCircle
10
29755.970000000001
20
15255.200000000001
30
0.0
40
299.999997209656
100
AcDbArc
50
179.642288208008
51
320.699859619141
0
ARC
5
a2a
100
AcDbEntity
8
1-0
6
CONTINUOUS
62
4
100
AcDbCircle
10
30818.980000000000
20
14871.889999999999
30
0.0
40
299.999997209656
100
AcDbArc
50
179.642288208008
51
320.699859619141
0
ARC
5
a2b
100
AcDbEntity
8
1-0
6
CONTINUOUS
62
4
100
AcDbCircle
10
29420.040000000001
20
15163.740000000000
30
0.0
40
299.999997209656
100
AcDbArc
50
179.642288208008
51
320.699859619141
0
ARC
5
a2c
100
AcDbEntity
8
1-0
6
CONTINUOUS
62
4
100
AcDbCircle
10
30483.040000000001
20
14780.430000000000
30
0.0
40
299.999997209656
100
AcDbArc
50
179.642288208008
51
320.699859619141
0
ARC
5
a2d
100
AcDbEntity
8
1-0
6
CONTINUOUS
62
4
100
AcDbCircle
10
17830.259999999998
20
19555.529999999999
30
0.0
40
299.999997209656
100
AcDbArc
50
179.642288208008
51
320.699859619141
0
ARC
5
a2e
100
AcDbEntity
8
1-0
6
CONTINUOUS
62
4
100
AcDbCircle
10
31014.529999999999
20
14588.780000000001
30
0.0
40
299.999997209656
100
AcDbArc
50
179.642288208008
51
320.699859619141
0
ARC
5
a2f
100
AcDbEntity
8
1-0
6
CONTINUOUS
62
4
100
AcDbCircle
10
30151.799999999999
20
14687.270000000000
30
0.0
40
299.999997209656
100
AcDbArc
50
179.642288208008
51
320.699859619141
0
ARC
5
a30
100
AcDbEntity
8
1-0
6
CONTINUOUS
62
4
100
AcDbCircle
10
14577.549999999999
20
14051.180000000000
30
0.0
40
299.999997209656
100
AcDbArc
50
7.619445800781
51
148.677047729492
0
ARC
5
a31
100
AcDbEntity
8
1-0
6
CONTINUOUS
62
4
100
AcDbCircle
10
30287.480000000000
20
15063.549999999999
30
0.0
40
299.999997209656
100
AcDbArc
50
179.642288208008
51
320.699859619141
0
ARC
5
a32
100
AcDbEntity
8
1-0
6
CONTINUOUS
62
4
100
AcDbCircle
10
30678.599999999999
20
14497.309999999999
30
0.0
40
299.999997209656
100
AcDbArc
50
179.642288208008
51
320.699859619141
0
ARC
5
a33
100
AcDbEntity
8
1-0
6
CONTINUOUS
62
4
100
AcDbCircle
10
29620.290000000001
20
14878.920000000000
30
0.0
40
299.999997209656
100
AcDbArc
50
179.642288208008
51
320.699859619141
0
ARC
5
a34
100
AcDbEntity
8
1-0
6
CONTINUOUS
62
4
100
AcDbCircle
10
13937.549999999999
20
13776.780000000001
30
0.0
40
299.999997209656
100
AcDbArc
50
7.619445800781
51
148.677047729492
0
ARC
5
a35
100
AcDbEntity
8
1-0
6
CONTINUOUS
62
4
100
AcDbCircle
10
14490.500000000000
20
13660.740000000000
30
0.0
40
299.999997209656
100
AcDbArc
50
7.619445800781
51
148.677047729492
0
ARC
5
a36
100
AcDbEntity
8
1-0
6
CONTINUOUS
62
4
100
AcDbCircle
10
15043.469999999999
20
13544.690000000001
30
0.0
40
299.999997209656
100
AcDbArc
50
7.619445800781
51
148.677047729492
0
ARC
5
a37
100
AcDbEntity
8
1-0
6
CONTINUOUS
62
4
100
AcDbCircle
10
15596.410000000000
20
13428.660000000000
30
0.0
40
299.999997209656
100
AcDbArc
50
7.619445800781
51
148.677047729492
0
ARC
5
a38
100
AcDbEntity
8
1-0
6
CONTINUOUS
62
4
100
AcDbCircle
10
18475.810000000001
20
19322.750000000000
30
0.0
40
299.999997209656
100
AcDbArc
50
179.642288208008
51
320.699859619141
0
ARC
5
a39
100
AcDbEntity
8
1-0
6
CONTINUOUS
62
4
100
AcDbCircle
10
14257.549999999999
20
13913.980000000000
30
0.0
40
299.999997209656
100
AcDbArc
50
7.619445800781
51
148.677047729492
0
ARC
5
a3a
100
AcDbEntity
8
1-0
6
CONTINUOUS
62
4
100
AcDbCircle
10
25564.869999999999
20
16553.880000000001
30
0.0
40
299.999997209656
100
AcDbArc
50
179.642288208008
51
320.699859619141
0
ARC
5
a3b
100
AcDbEntity
8
1-0
6
CONTINUOUS
62
4
100
AcDbCircle
10
16149.379999999999
20
13312.620000000001
30
0.0
40
299.999997209656
100
AcDbArc
50
7.619445800781
51
148.677047729492
0
ARC
5
a3c
100
AcDbEntity
8
1-0
6
CONTINUOUS
62
4
100
AcDbCircle
10
15916.420000000000
20
13565.860000000001
30
0.0
40
299.999997209656
100
AcDbArc
50
7.619445800781
51
148.677047729492
0
ARC
5
a3d
100
AcDbEntity
8
1-0
6
CONTINUOUS
62
4
100
AcDbCircle
10
14810.510000000000
20
13797.940000000001
30
0.0
40
299.999997209656
100
AcDbArc
50
7.619445800781
51
148.677047729492
0
ARC
5
a3e
100
AcDbEntity
8
1-0
6
CONTINUOUS
62
4
100
AcDbCircle
10
25228.939999999999
20
16462.419999999998
30
0.0
40
299.999997209656
100
AcDbArc
50
179.642288208008
51
320.699859619141
0
ARC
5
a3f
100
AcDbEntity
8
1-0
6
CONTINUOUS
62
4
100
AcDbCircle
10
25369.320000000000
20
16837.009999999998
30
0.0
40
299.999997209656
100
AcDbArc
50
179.642288208008
51
320.699859619141
0
ARC
5
a40
100
AcDbEntity
8
1-0
6
CONTINUOUS
62
4
100
AcDbCircle
10
24837.820000000000
20
17028.660000000000
30
0.0
40
299.999997209656
100
AcDbArc
50
179.642288208008
51
320.699859619141
0
ARC
5
a41
100
AcDbEntity
8
1-0
6
CONTINUOUS
62
4
100
AcDbCircle
10
25900.830000000002
20
16645.349999999999
30
0.0
40
299.999997209656
100
AcDbArc
50
179.642288208008
51
320.699859619141
0
ARC
5
a42
100
AcDbEntity
8
1-0
6
CONTINUOUS
62
4
100
AcDbCircle
10
24702.139999999999
20
16652.369999999999
30
0.0
40
299.999997209656
100
AcDbArc
50
179.642288208008
51
320.699859619141
0
ARC
5
a43
100
AcDbEntity
8
1-0
6
CONTINUOUS
62
4
100
AcDbCircle
10
15363.459999999999
20
13681.900000000000
30
0.0
40
299.999997209656
100
AcDbArc
50
7.619445800781
51
148.677047729492
0
ARC
5
a44
100
AcDbEntity
8
1-0
6
CONTINUOUS
62
4
100
AcDbCircle
10
23970.380000000001
20
17128.840000000000
30
0.0
40
299.999997209656
100
AcDbArc
50
179.642288208008
51
320.699859619141
0
ARC
5
a45
100
AcDbEntity
8
1-0
6
CONTINUOUS
62
4
100
AcDbCircle
10
26466.180000000000
20
16441.480000000000
30
0.0
40
299.999997209656
100
AcDbArc
50
179.642288208008
51
320.699859619141
0
ARC
5
a46
100
AcDbEntity
8
1-0
6
CONTINUOUS
62
4
100
AcDbCircle
10
24501.869999999999
20
16937.189999999999
30
0.0
40
299.999997209656
100
AcDbArc
50
179.642288208008
51
320.699859619141
0
ARC
5
a47
100
AcDbEntity
8
1-0
6
CONTINUOUS
62
4
100
AcDbCircle
10
28592.189999999999
20
15674.870000000001
30
0.0
40
299.999997209656
100
AcDbArc
50
179.642288208008
51
320.699859619141
0
ARC
5
a48
100
AcDbEntity
8
1-0
6
CONTINUOUS
62
4
100
AcDbCircle
10
25033.380000000001
20
16745.540000000001
30
0.0
40
299.999997209656
100
AcDbArc
50
179.642288208008
51
320.699859619141
0
ARC
5
a49
100
AcDbEntity
8
1-0
6
CONTINUOUS
62
4
100
AcDbCircle
10
24170.630000000001
20
16844.020000000000
30
0.0
40
299.999997209656
100
AcDbArc
50
179.642288208008
51
320.699859619141
0
ARC
5
a4a
100
AcDbEntity
8
1-0
6
CONTINUOUS
62
4
100
AcDbCircle
10
26997.680000000000
20
16249.830000000000
30
0.0
40
299.999997209656
100
AcDbArc
50
179.642288208008
51
320.699859619141
0
ARC
5
a4b
100
AcDbEntity
8
1-0
6
CONTINUOUS
62
4
100
AcDbCircle
10
28060.680000000000
20
15866.520000000000
30
0.0
40
299.999997209656
100
AcDbArc
50
179.642288208008
51
320.699859619141
0
ARC
5
a4c
100
AcDbEntity
8
1-0
6
CONTINUOUS
62
4
100
AcDbCircle
10
26661.740000000002
20
16158.360000000001
30
0.0
40
299.999997209656
100
AcDbArc
50
179.642288208008
51
320.699859619141
0
ARC
5
a4d
100
AcDbEntity
8
1-0
6
CONTINUOUS
62
4
100
AcDbCircle
10
27724.740000000002
20
15775.049999999999
30
0.0
40
299.999997209656
100
AcDbArc
50
179.642288208008
51
320.699859619141
0
ARC
5
a4e
100
AcDbEntity
8
1-0
6
CONTINUOUS
62
4
100
AcDbCircle
10
29634.090000000000
20
10891.510000000000
30
0.0
40
299.999997209656
100
AcDbArc
50
7.619445800781
51
148.677047729492
0
ARC
5
a4f
100
AcDbEntity
8
1-0
6
CONTINUOUS
62
4
100
AcDbCircle
10
28256.240000000002
20
15583.400000000000
30
0.0
40
299.999997209656
100
AcDbArc
50
179.642288208008
51
320.699859619141
0
ARC
5
a50
100
AcDbEntity
8
1-0
6
CONTINUOUS
62
4
100
AcDbCircle
10
24544.320000000000
20
11550.900000000000
30
0.0
40
299.999997209656
100
AcDbArc
50
7.619445800781
51
148.677047729492
0
ARC
5
a51
100
AcDbEntity
8
1-0
6
CONTINUOUS
62
4
100
AcDbCircle
10
24306.310000000001
20
17220.310000000001
30
0.0
40
299.999997209656
100
AcDbArc
50
179.642288208008
51
320.699859619141
0
ARC
5
a52
100
AcDbEntity
8
1-0
6
CONTINUOUS
62
4
100
AcDbCircle
10
23991.360000000001
20
11666.950000000001
30
0.0
40
299.999997209656
100
AcDbArc
50
7.619445800781
51
148.677047729492
0
ARC
5
a53
100
AcDbEntity
8
1-0
6
CONTINUOUS
62
4
100
AcDbCircle
10
27920.299999999999
20
15491.930000000000
30
0.0
40
299.999997209656
100
AcDbArc
50
179.642288208008
51
320.699859619141
0
ARC
5
a54
100
AcDbEntity
8
1-0
6
CONTINUOUS
62
4
100
AcDbCircle
10
22652.490000000002
20
12152.270000000000
30
0.0
40
299.999997209656
100
AcDbArc
50
7.619445800781
51
148.677047729492
0
ARC
5
a55
100
AcDbEntity
8
1-0
6
CONTINUOUS
62
4
100
AcDbCircle
10
23205.450000000001
20
12036.219999999999
30
0.0
40
299.999997209656
100
AcDbArc
50
7.619445800781
51
148.677047729492
0
ARC
5
a56
100
AcDbEntity
8
1-0
6
CONTINUOUS
62
4
100
AcDbCircle
10
23758.400000000001
20
11920.190000000001
30
0.0
40
299.999997209656
100
AcDbArc
50
7.619445800781
51
148.677047729492
0
ARC
5
a57
100
AcDbEntity
8
1-0
6
CONTINUOUS
62
4
100
AcDbCircle
10
26530.509999999998
20
11338.450000000001
30
0.0
40
299.999997209656
100
AcDbArc
50
7.619445800781
51
148.677047729492
0
ARC
5
a58
100
AcDbEntity
8
1-0
6
CONTINUOUS
62
4
100
AcDbCircle
10
29318.980000000000
20
10753.280000000001
30
0.0
40
299.999997209656
100
AcDbArc
50
7.619445800781
51
148.677047729492
0
ARC
5
a59
100
AcDbEntity
8
1-0
6
CONTINUOUS
62
4
100
AcDbCircle
10
27193.230000000000
20
15966.709999999999
30
0.0
40
299.999997209656
100
AcDbArc
50
179.642288208008
51
320.699859619141
0
ARC
5
a5a
100
AcDbEntity
8
1-0
6
CONTINUOUS
62
4
100
AcDbCircle
10
28533.070000000000
20
11122.559999999999
30
0.0
40
299.999997209656
100
AcDbArc
50
7.619445800781
51
148.677047729492
0
ARC
5
a5b
100
AcDbEntity
8
1-0
6
CONTINUOUS
62
4
100
AcDbCircle
10
27316.430000000000
20
10969.170000000000
30
0.0
40
299.999997209656
100
AcDbArc
50
7.619445800781
51
148.677047729492
0
ARC
5
a5c
100
AcDbEntity
8
1-0
6
CONTINUOUS
62
4
100
AcDbCircle
10
29871.939999999999
20
10637.240000000000
30
0.0
40
299.999997209656
100
AcDbArc
50
7.619445800781
51
148.677047729492
0
ARC
5
a5d
100
AcDbEntity
8
1-0
6
CONTINUOUS
62
4
100
AcDbCircle
10
23438.410000000000
20
11782.990000000000
30
0.0
40
299.999997209656
100
AcDbArc
50
7.619445800781
51
148.677047729492
0
ARC
5
a5e
100
AcDbEntity
8
1-0
6
CONTINUOUS
62
4
100
AcDbCircle
10
29081.139999999999
20
11007.549999999999
30
0.0
40
299.999997209656
100
AcDbArc
50
7.619445800781
51
148.677047729492
0
ARC
5
a5f
100
AcDbEntity
8
1-0
6
CONTINUOUS
62
4
100
AcDbCircle
10
26210.520000000000
20
11201.250000000000
30
0.0
40
299.999997209656
100
AcDbArc
50
7.619445800781
51
148.677047729492
0
ARC
5
a60
100
AcDbEntity
8
1-0
6
CONTINUOUS
62
4
100
AcDbCircle
10
25977.560000000001
20
11454.490000000000
30
0.0
40
299.999997209656
100
AcDbArc
50
7.619445800781
51
148.677047729492
0
ARC
5
a61
100
AcDbEntity
8
1-0
6
CONTINUOUS
62
4
100
AcDbCircle
10
25657.560000000001
20
11317.290000000001
30
0.0
40
299.999997209656
100
AcDbArc
50
7.619445800781
51
148.677047729492
0
ARC
5
a62
100
AcDbEntity
8
1-0
6
CONTINUOUS
62
4
100
AcDbCircle
10
25424.599999999999
20
11570.530000000001
30
0.0
40
299.999997209656
100
AcDbArc
50
7.619445800781
51
148.677047729492
0
ARC
5
a63
100
AcDbEntity
8
1-0
6
CONTINUOUS
62
4
100
AcDbCircle
10
26763.470000000001
20
11085.200000000001
30
0.0
40
299.999997209656
100
AcDbArc
50
7.619445800781
51
148.677047729492
0
ARC
5
a64
100
AcDbEntity
8
1-0
6
CONTINUOUS
62
4
100
AcDbCircle
10
46062.599999999999
20
7423.060000000000
30
0.0
40
299.999997209656
100
AcDbArc
50
9.181869506836
51
150.239456176758
0
ARC
5
a65
100
AcDbEntity
8
1-0
6
CONTINUOUS
62
4
100
AcDbCircle
10
20714.360000000001
20
12763.350000000000
30
0.0
40
299.999997209656
100
AcDbArc
50
7.619445800781
51
148.677047729492
0
ARC
5
a66
100
AcDbEntity
8
1-0
6
CONTINUOUS
62
4
100
AcDbCircle
10
21267.310000000001
20
12647.309999999999
30
0.0
40
299.999997209656
100
AcDbArc
50
7.619445800781
51
148.677047729492
0
ARC
5
a67
100
AcDbEntity
8
1-0
6
CONTINUOUS
62
4
100
AcDbCircle
10
22332.500000000000
20
12015.070000000000
30
0.0
40
299.999997209656
100
AcDbArc
50
7.619445800781
51
148.677047729492
0
ARC
5
a68
100
AcDbEntity
8
1-0
6
CONTINUOUS
62
4
100
AcDbCircle
10
22885.450000000001
20
11899.030000000001
30
0.0
40
299.999997209656
100
AcDbArc
50
7.619445800781
51
148.677047729492
0
ARC
5
a69
100
AcDbEntity
8
1-0
6
CONTINUOUS
62
4
100
AcDbCircle
10
28998.990000000002
20
10616.070000000000
30
0.0
40
299.999997209656
100
AcDbArc
50
7.619445800781
51
148.677047729492
0
ARC
5
a6a
100
AcDbEntity
8
1-0
6
CONTINUOUS
62
4
100
AcDbCircle
10
28766.029999999999
20
10869.320000000000
30
0.0
40
299.999997209656
100
AcDbArc
50
7.619445800781
51
148.677047729492
0
ARC
5
a6b
100
AcDbEntity
8
1-0
6
CONTINUOUS
62
4
100
AcDbCircle
10
30104.900000000001
20
10384.000000000000
30
0.0
40
299.999997209656
100
AcDbArc
50
7.619445800781
51
148.677047729492
0
ARC
5
a6c
100
AcDbEntity
8
1-0
6
CONTINUOUS
62
4
100
AcDbCircle
10
55659.480000000003
20
9949.490000000000
30
0.0
40
299.999997209656
100
AcDbArc
50
189.181869506836
51
330.239456176758
0
ARC
5
a6d
100
AcDbEntity
8
1-0
6
CONTINUOUS
62
4
100
AcDbCircle
10
29551.930000000000
20
10500.040000000001
30
0.0
40
299.999997209656
100
AcDbArc
50
7.619445800781
51
148.677047729492
0
ARC
5
a6e
100
AcDbEntity
8
1-0
6
CONTINUOUS
62
4
100
AcDbCircle
10
36919.839999999997
20
9286.090000000000
30
0.0
40
299.999997209656
100
AcDbArc
50
9.181869506836
51
150.239456176758
0
ARC
5
a6f
100
AcDbEntity
8
1-0
6
CONTINUOUS
62
4
100
AcDbCircle
10
35391.910000000003
20
13425.580000000000
30
0.0
40
299.999997209656
100
AcDbArc
50
189.181869506836
51
330.239456176758
0
ARC
5
a70
100
AcDbEntity
8
1-0
6
CONTINUOUS
62
4
100
AcDbCircle
10
55103.570000000000
20
10050.420000000000
30
0.0
40
299.999997209656
100
AcDbArc
50
189.181869506836
51
330.239456176758
0
ARC
5
a71
100
AcDbEntity
8
1-0
6
CONTINUOUS
62
4
100
AcDbCircle
10
54547.660000000003
20
10151.340000000000
30
0.0
40
299.999997209656
100
AcDbArc
50
189.181869506836
51
330.239456176758
0
ARC
5
a72
100
AcDbEntity
8
1-0
6
CONTINUOUS
62
4
100
AcDbCircle
10
56455.180000000000
20
9601.790000000001
30
0.0
40
299.999997209656
100
AcDbArc
50
189.181869506836
51
330.239456176758
0
ARC
5
a73
100
AcDbEntity
8
1-0
6
CONTINUOUS
62
4
100
AcDbCircle
10
55899.250000000000
20
9702.709999999999
30
0.0
40
299.999997209656
100
AcDbArc
50
189.181869506836
51
330.239456176758
0
ARC
5
a74
100
AcDbEntity
8
1-0
6
CONTINUOUS
62
4
100
AcDbCircle
10
28446.020000000000
20
10732.120000000001
30
0.0
40
299.999997209656
100
AcDbArc
50
7.619445800781
51
148.677047729492
0
ARC
5
a75
100
AcDbEntity
8
1-0
6
CONTINUOUS
62
4
100
AcDbCircle
10
35708.050000000003
20
13571.459999999999
30
0.0
40
299.999997209656
100
AcDbArc
50
189.181869506836
51
330.239456176758
0
ARC
5
a76
100
AcDbEntity
8
1-0
6
CONTINUOUS
62
4
100
AcDbCircle
10
35152.139999999999
20
13672.379999999999
30
0.0
40
299.999997209656
100
AcDbArc
50
189.181869506836
51
330.239456176758
0
ARC
5
a77
100
AcDbEntity
8
1-0
6
CONTINUOUS
62
4
100
AcDbCircle
10
34596.209999999999
20
13773.290000000001
30
0.0
40
299.999997209656
100
AcDbArc
50
189.181869506836
51
330.239456176758
0
ARC
5
a78
100
AcDbEntity
8
1-0
6
CONTINUOUS
62
4
100
AcDbCircle
10
34040.309999999998
20
13874.209999999999
30
0.0
40
299.999997209656
100
AcDbArc
50
189.181869506836
51
330.239456176758
0
ARC
5
a79
100
AcDbEntity
8
1-0
6
CONTINUOUS
62
4
100
AcDbCircle
10
33484.400000000001
20
13975.129999999999
30
0.0
40
299.999997209656
100
AcDbArc
50
189.181869506836
51
330.239456176758
0
ARC
5
a7a
100
AcDbEntity
8
1-0
6
CONTINUOUS
62
4
100
AcDbCircle
10
28213.070000000000
20
10985.360000000001
30
0.0
40
299.999997209656
100
AcDbArc
50
7.619445800781
51
148.677047729492
0
ARC
5
a7b
100
AcDbEntity
8
1-0
6
CONTINUOUS
62
4
100
AcDbCircle
10
27083.480000000000
20
11222.410000000000
30
0.0
40
299.999997209656
100
AcDbArc
50
7.619445800781
51
148.677047729492
0
ARC
5
a7c
100
AcDbEntity
8
1-0
6
CONTINUOUS
62
4
100
AcDbCircle
10
25744.610000000001
20
11707.730000000000
30
0.0
40
299.999997209656
100
AcDbArc
50
7.619445800781
51
148.677047729492
0
ARC
5
a7d
100
AcDbEntity
8
1-0
6
CONTINUOUS
62
4
100
AcDbCircle
10
26292.669999999998
20
11592.719999999999
30
0.0
40
299.999997209656
100
AcDbArc
50
7.619445800781
51
148.677047729492
0
ARC
5
a7e
100
AcDbEntity
8
1-0
6
CONTINUOUS
62
4
100
AcDbCircle
10
26845.619999999999
20
11476.680000000000
30
0.0
40
299.999997209656
100
AcDbArc
50
7.619445800781
51
148.677047729492
0
ARC
5
a7f
100
AcDbEntity
8
1-0
6
CONTINUOUS
62
4
100
AcDbCircle
10
27893.070000000000
20
10848.160000000000
30
0.0
40
299.999997209656
100
AcDbArc
50
7.619445800781
51
148.677047729492
0
ARC
5
a80
100
AcDbEntity
8
1-0
6
CONTINUOUS
62
4
100
AcDbCircle
10
36617.839999999997
20
13203.030000000001
30
0.0
40
299.999997209656
100
AcDbArc
50
189.181869506836
51
330.239456176758
0
ARC
5
a81
100
AcDbEntity
8
1-0
6
CONTINUOUS
62
4
100
AcDbCircle
10
37729.650000000001
20
13001.190000000001
30
0.0
40
299.999997209656
100
AcDbArc
50
189.181869506836
51
330.239456176758
0
ARC
5
a82
100
AcDbEntity
8
1-0
6
CONTINUOUS
62
4
100
AcDbCircle
10
37173.739999999998
20
13102.110000000001
30
0.0
40
299.999997209656
100
AcDbArc
50
189.181869506836
51
330.239456176758
0
ARC
5
a83
100
AcDbEntity
8
1-0
6
CONTINUOUS
62
4
100
AcDbCircle
10
22972.500000000000
20
12289.469999999999
30
0.0
40
299.999997209656
100
AcDbArc
50
7.619445800781
51
148.677047729492
0
ARC
5
a84
100
AcDbEntity
8
1-0
6
CONTINUOUS
62
4
100
AcDbCircle
10
36933.970000000001
20
13348.910000000000
30
0.0
40
299.999997209656
100
AcDbArc
50
189.181869506836
51
330.239456176758
0
ARC
5
a85
100
AcDbEntity
8
1-0
6
CONTINUOUS
62
4
100
AcDbCircle
10
43672.669999999998
20
12125.559999999999
30
0.0
40
299.999997209656
100
AcDbArc
50
189.181869506836
51
330.239456176758
0
ARC
5
a86
100
AcDbEntity
8
1-0
6
CONTINUOUS
62
4
100
AcDbCircle
10
38285.580000000002
20
12900.270000000000
30
0.0
40
299.999997209656
100
AcDbArc
50
189.181869506836
51
330.239456176758
0
ARC
5
a87
100
AcDbEntity
8
1-0
6
CONTINUOUS
62
4
100
AcDbCircle
10
34085.690000000002
20
9800.600000000000
30
0.0
40
299.999997209656
100
AcDbArc
50
9.181869506836
51
150.239456176758
0
ARC
5
a88
100
AcDbEntity
8
1-0
6
CONTINUOUS
62
4
100
AcDbCircle
10
32973.860000000001
20
10002.430000000000
30
0.0
40
299.999997209656
100
AcDbArc
50
9.181869506836
51
150.239456176758
0
ARC
5
a89
100
AcDbEntity
8
1-0
6
CONTINUOUS
62
4
100
AcDbCircle
10
35491.879999999997
20
9342.060000000000
30
0.0
40
299.999997209656
100
AcDbArc
50
9.181869506836
51
150.239456176758
0
ARC
5
a8a
100
AcDbEntity
8
1-0
6
CONTINUOUS
62
4
100
AcDbCircle
10
43116.750000000000
20
12226.490000000000
30
0.0
40
299.999997209656
100
AcDbArc
50
189.181869506836
51
330.239456176758
0
ARC
5
a8b
100
AcDbEntity
8
1-0
6
CONTINUOUS
62
4
100
AcDbCircle
10
39477.930000000000
20
12683.809999999999
30
0.0
40
299.999997209656
100
AcDbArc
50
189.181869506836
51
330.239456176758
0
ARC
5
a8c
100
AcDbEntity
8
1-0
6
CONTINUOUS
62
4
100
AcDbCircle
10
33724.180000000000
20
13728.340000000000
30
0.0
40
299.999997209656
100
AcDbArc
50
189.181869506836
51
330.239456176758
0
ARC
5
a8d
100
AcDbEntity
8
1-0
6
CONTINUOUS
62
4
100
AcDbCircle
10
40905.889999999999
20
12627.850000000000
30
0.0
40
299.999997209656
100
AcDbArc
50
189.181869506836
51
330.239456176758
0
ARC
5
a8e
100
AcDbEntity
8
1-0
6
CONTINUOUS
62
4
100
AcDbCircle
10
34641.589999999997
20
9699.680000000000
30
0.0
40
299.999997209656
100
AcDbArc
50
9.181869506836
51
150.239456176758
0
ARC
5
a8f
100
AcDbEntity
8
1-0
6
CONTINUOUS
62
4
100
AcDbCircle
10
44228.589999999997
20
12024.639999999999
30
0.0
40
299.999997209656
100
AcDbArc
50
189.181869506836
51
330.239456176758
0
ARC
5
a90
100
AcDbEntity
8
1-0
6
CONTINUOUS
62
4
100
AcDbCircle
10
43356.529999999999
20
11979.690000000001
30
0.0
40
299.999997209656
100
AcDbArc
50
189.181869506836
51
330.239456176758
0
ARC
5
a91
100
AcDbEntity
8
1-0
6
CONTINUOUS
62
4
100
AcDbCircle
10
41145.669999999998
20
12381.059999999999
30
0.0
40
299.999997209656
100
AcDbArc
50
189.181869506836
51
330.239456176758
0
ARC
5
a92
100
AcDbEntity
8
1-0
6
CONTINUOUS
62
4
100
AcDbCircle
10
40589.750000000000
20
12481.969999999999
30
0.0
40
299.999997209656
100
AcDbArc
50
189.181869506836
51
330.239456176758
0
ARC
5
a93
100
AcDbEntity
8
1-0
6
CONTINUOUS
62
4
100
AcDbCircle
10
38601.709999999999
20
13046.139999999999
30
0.0
40
299.999997209656
100
AcDbArc
50
189.181869506836
51
330.239456176758
0
ARC
5
a94
100
AcDbEntity
8
1-0
6
CONTINUOUS
62
4
100
AcDbCircle
10
34280.080000000002
20
13627.420000000000
30
0.0
40
299.999997209656
100
AcDbArc
50
189.181869506836
51
330.239456176758
0
ARC
5
a95
100
AcDbEntity
8
1-0
6
CONTINUOUS
62
4
100
AcDbCircle
10
37489.879999999997
20
13247.990000000000
30
0.0
40
299.999997209656
100
AcDbArc
50
189.181869506836
51
330.239456176758
0
ARC
5
a96
100
AcDbEntity
8
1-0
6
CONTINUOUS
62
4
100
AcDbCircle
10
32657.720000000001
20
9856.570000000000
30
0.0
40
299.999997209656
100
AcDbArc
50
9.181869506836
51
150.239456176758
0
ARC
5
a97
100
AcDbEntity
8
1-0
6
CONTINUOUS
62
4
100
AcDbCircle
10
38045.800000000003
20
13147.059999999999
30
0.0
40
299.999997209656
100
AcDbArc
50
189.181869506836
51
330.239456176758
0
ARC
5
a98
100
AcDbEntity
8
1-0
6
CONTINUOUS
62
4
100
AcDbCircle
10
42244.709999999999
20
12181.530000000001
30
0.0
40
299.999997209656
100
AcDbArc
50
189.181869506836
51
330.239456176758
0
ARC
5
a99
100
AcDbEntity
8
1-0
6
CONTINUOUS
62
4
100
AcDbCircle
10
40033.839999999997
20
12582.889999999999
30
0.0
40
299.999997209656
100
AcDbArc
50
189.181869506836
51
330.239456176758
0
ARC
5
a9a
100
AcDbEntity
8
1-0
6
CONTINUOUS
62
4
100
AcDbCircle
10
34881.370000000003
20
9452.879999999999
30
0.0
40
299.999997209656
100
AcDbArc
50
9.181869506836
51
150.239456176758
0
ARC
5
a9b
100
AcDbEntity
8
1-0
6
CONTINUOUS
62
4
100
AcDbCircle
10
42004.940000000002
20
12428.330000000000
30
0.0
40
299.999997209656
100
AcDbArc
50
189.181869506836
51
330.239456176758
0
ARC
5
a9c
100
AcDbEntity
8
1-0
6
CONTINUOUS
62
4
100
AcDbCircle
10
34325.459999999999
20
9553.799999999999
30
0.0
40
299.999997209656
100
AcDbArc
50
9.181869506836
51
150.239456176758
0
ARC
5
a9d
100
AcDbEntity
8
1-0
6
CONTINUOUS
62
4
100
AcDbCircle
10
33213.629999999997
20
9755.650000000000
30
0.0
40
299.999997209656
100
AcDbArc
50
9.181869506836
51
150.239456176758
0
ARC
5
a9e
100
AcDbEntity
8
1-0
6
CONTINUOUS
62
4
100
AcDbCircle
10
23520.560000000001
20
12174.450000000001
30
0.0
40
299.999997209656
100
AcDbArc
50
7.619445800781
51
148.677047729492
0
ARC
5
a9f
100
AcDbEntity
8
1-0
6
CONTINUOUS
62
4
100
AcDbCircle
10
24311.360000000001
20
11804.150000000000
30
0.0
40
299.999997209656
100
AcDbArc
50
7.619445800781
51
148.677047729492
0
ARC
5
aa0
100
AcDbEntity
8
1-0
6
CONTINUOUS
62
4
100
AcDbCircle
10
25104.610000000001
20
11433.330000000000
30
0.0
40
299.999997209656
100
AcDbArc
50
7.619445800781
51
148.677047729492
0
ARC
5
aa1
100
AcDbEntity
8
1-0
6
CONTINUOUS
62
4
100
AcDbCircle
10
36363.930000000000
20
9387.010000000000
30
0.0
40
299.999997209656
100
AcDbArc
50
9.181869506836
51
150.239456176758
0
ARC
5
aa2
100
AcDbEntity
8
1-0
6
CONTINUOUS
62
4
100
AcDbCircle
10
24073.509999999998
20
12058.420000000000
30
0.0
40
299.999997209656
100
AcDbArc
50
7.619445800781
51
148.677047729492
0
ARC
5
aa3
100
AcDbEntity
8
1-0
6
CONTINUOUS
62
4
100
AcDbCircle
10
35808.010000000002
20
9487.930000000000
30
0.0
40
299.999997209656
100
AcDbArc
50
9.181869506836
51
150.239456176758
0
ARC
5
aa4
100
AcDbEntity
8
1-0
6
CONTINUOUS
62
4
100
AcDbCircle
10
34835.989999999998
20
13526.500000000000
30
0.0
40
299.999997209656
100
AcDbArc
50
189.181869506836
51
330.239456176758
0
ARC
5
aa5
100
AcDbEntity
8
1-0
6
CONTINUOUS
62
4
100
AcDbCircle
10
37715.519999999997
20
8938.379999999999
30
0.0
40
299.999997209656
100
AcDbArc
50
9.181869506836
51
150.239456176758
0
ARC
5
aa6
100
AcDbEntity
8
1-0
6
CONTINUOUS
62
4
100
AcDbCircle
10
33769.550000000003
20
9654.719999999999
30
0.0
40
299.999997209656
100
AcDbArc
50
9.181869506836
51
150.239456176758
0
ARC
5
aa7
100
AcDbEntity
8
1-0
6
CONTINUOUS
62
4
100
AcDbCircle
10
33529.779999999999
20
9901.520000000000
30
0.0
40
299.999997209656
100
AcDbArc
50
9.181869506836
51
150.239456176758
0
ARC
5
aa8
100
AcDbEntity
8
1-0
6
CONTINUOUS
62
4
100
AcDbCircle
10
36047.779999999999
20
9241.129999999999
30
0.0
40
299.999997209656
100
AcDbArc
50
9.181869506836
51
150.239456176758
0
ARC
5
aa9
100
AcDbEntity
8
1-0
6
CONTINUOUS
62
4
100
AcDbCircle
10
36603.709999999999
20
9140.209999999999
30
0.0
40
299.999997209656
100
AcDbArc
50
9.181869506836
51
150.239456176758
0
ARC
5
aaa
100
AcDbEntity
8
1-0
6
CONTINUOUS
62
4
100
AcDbCircle
10
43912.449999999997
20
11878.780000000001
30
0.0
40
299.999997209656
100
AcDbArc
50
189.181869506836
51
330.239456176758
0
ARC
5
aab
100
AcDbEntity
8
1-0
6
CONTINUOUS
62
4
100
AcDbCircle
10
42560.849999999999
20
12327.410000000000
30
0.0
40
299.999997209656
100
AcDbArc
50
189.181869506836
51
330.239456176758
0
ARC
5
aac
100
AcDbEntity
8
1-0
6
CONTINUOUS
62
4
100
AcDbCircle
10
39097.080000000002
20
8890.840000000000
30
0.0
40
299.999997209656
100
AcDbArc
50
9.181869506836
51
150.239456176758
0
ARC
5
aad
100
AcDbEntity
8
1-0
6
CONTINUOUS
62
4
100
AcDbCircle
10
37159.620000000003
20
9039.290000000001
30
0.0
40
299.999997209656
100
AcDbArc
50
9.181869506836
51
150.239456176758
0
ARC
5
aae
100
AcDbEntity
8
1-0
6
CONTINUOUS
62
4
100
AcDbCircle
10
38541.160000000003
20
8991.750000000000
30
0.0
40
299.999997209656
100
AcDbArc
50
9.181869506836
51
150.239456176758
0
ARC
5
aaf
100
AcDbEntity
8
1-0
6
CONTINUOUS
62
4
100
AcDbCircle
10
42800.620000000003
20
12080.610000000001
30
0.0
40
299.999997209656
100
AcDbArc
50
189.181869506836
51
330.239456176758
0
ARC
5
ab0
100
AcDbEntity
8
1-0
6
CONTINUOUS
62
4
100
AcDbCircle
10
45506.690000000002
20
7523.980000000000
30
0.0
40
299.999997209656
100
AcDbArc
50
9.181869506836
51
150.239456176758
0
ARC
5
ab1
100
AcDbEntity
8
1-0
6
CONTINUOUS
62
4
100
AcDbCircle
10
45034.809999999998
20
11675.020000000000
30
0.0
40
299.999997209656
100
AcDbArc
50
189.181869506836
51
330.239456176758
0
ARC
5
ab2
100
AcDbEntity
8
1-0
6
CONTINUOUS
62
4
100
AcDbCircle
10
41046.230000000003
20
8333.719999999999
30
0.0
40
299.999997209656
100
AcDbArc
50
9.181869506836
51
150.239456176758
0
ARC
5
ab3
100
AcDbEntity
8
1-0
6
CONTINUOUS
62
4
100
AcDbCircle
10
39652.989999999998
20
8789.920000000000
30
0.0
40
299.999997209656
100
AcDbArc
50
9.181869506836
51
150.239456176758
0
ARC
5
ab4
100
AcDbEntity
8
1-0
6
CONTINUOUS
62
4
100
AcDbCircle
10
49731.150000000001
20
11025.719999999999
30
0.0
40
299.999997209656
100
AcDbArc
50
189.181869506836
51
330.239456176758
0
ARC
5
ab5
100
AcDbEntity
8
1-0
6
CONTINUOUS
62
4
100
AcDbCircle
10
45590.720000000001
20
11574.100000000000
30
0.0
40
299.999997209656
100
AcDbArc
50
189.181869506836
51
330.239456176758
0
ARC
5
ab6
100
AcDbEntity
8
1-0
6
CONTINUOUS
62
4
100
AcDbCircle
10
48619.320000000000
20
11227.549999999999
30
0.0
40
299.999997209656
100
AcDbArc
50
189.181869506836
51
330.239456176758
0
ARC
5
ab7
100
AcDbEntity
8
1-0
6
CONTINUOUS
62
4
100
AcDbCircle
10
40208.900000000001
20
8689.000000000000
30
0.0
40
299.999997209656
100
AcDbArc
50
9.181869506836
51
150.239456176758
0
ARC
5
ab8
100
AcDbEntity
8
1-0
6
CONTINUOUS
62
4
100
AcDbCircle
10
49175.239999999998
20
11126.639999999999
30
0.0
40
299.999997209656
100
AcDbArc
50
189.181869506836
51
330.239456176758
0
ARC
5
ab9
100
AcDbEntity
8
1-0
6
CONTINUOUS
62
4
100
AcDbCircle
10
43030.099999999999
20
8176.830000000000
30
0.0
40
299.999997209656
100
AcDbArc
50
9.181869506836
51
150.239456176758
0
ARC
5
aba
100
AcDbEntity
8
1-0
6
CONTINUOUS
62
4
100
AcDbCircle
10
46146.629999999997
20
11473.180000000000
30
0.0
40
299.999997209656
100
AcDbArc
50
189.181869506836
51
330.239456176758
0
ARC
5
abb
100
AcDbEntity
8
1-0
6
CONTINUOUS
62
4
100
AcDbCircle
10
42474.190000000002
20
8277.760000000000
30
0.0
40
299.999997209656
100
AcDbArc
50
9.181869506836
51
150.239456176758
0
ARC
5
abc
100
AcDbEntity
8
1-0
6
CONTINUOUS
62
4
100
AcDbCircle
10
36378.059999999998
20
13449.820000000000
30
0.0
40
299.999997209656
100
AcDbArc
50
189.181869506836
51
330.239456176758
0
ARC
5
abd
100
AcDbEntity
8
1-0
6
CONTINUOUS
62
4
100
AcDbCircle
10
43838.949999999997
20
7826.740000000000
30
0.0
40
299.999997209656
100
AcDbArc
50
9.181869506836
51
150.239456176758
0
ARC
5
abe
100
AcDbEntity
8
1-0
6
CONTINUOUS
62
4
100
AcDbCircle
10
44394.860000000001
20
7725.810000000000
30
0.0
40
299.999997209656
100
AcDbArc
50
9.181869506836
51
150.239456176758
0
ARC
5
abf
100
AcDbEntity
8
1-0
6
CONTINUOUS
62
4
100
AcDbCircle
10
44950.790000000001
20
7624.900000000000
30
0.0
40
299.999997209656
100
AcDbArc
50
9.181869506836
51
150.239456176758
0
ARC
5
ac0
100
AcDbEntity
8
1-0
6
CONTINUOUS
62
4
100
AcDbCircle
10
39336.860000000001
20
8644.040000000001
30
0.0
40
299.999997209656
100
AcDbArc
50
9.181869506836
51
150.239456176758
0
ARC
5
ac1
100
AcDbEntity
8
1-0
6
CONTINUOUS
62
4
100
AcDbCircle
10
38225.029999999999
20
8845.889999999999
30
0.0
40
299.999997209656
100
AcDbArc
50
9.181869506836
51
150.239456176758
0
ARC
5
ac2
100
AcDbEntity
8
1-0
6
CONTINUOUS
62
4
100
AcDbCircle
10
38780.940000000002
20
8744.959999999999
30
0.0
40
299.999997209656
100
AcDbArc
50
9.181869506836
51
150.239456176758
0
ARC
5
ac3
100
AcDbEntity
8
1-0
6
CONTINUOUS
62
4
100
AcDbCircle
10
37475.750000000000
20
9185.160000000000
30
0.0
40
299.999997209656
100
AcDbArc
50
9.181869506836
51
150.239456176758
0
ARC
5
ac4
100
AcDbEntity
8
1-0
6
CONTINUOUS
62
4
100
AcDbCircle
10
21505.169999999998
20
12393.040000000001
30
0.0
40
299.999997209656
100
AcDbArc
50
7.619445800781
51
148.677047729492
0
ARC
5
ac5
100
AcDbEntity
8
1-0
6
CONTINUOUS
62
4
100
AcDbCircle
10
40448.680000000000
20
8442.200000000001
30
0.0
40
299.999997209656
100
AcDbArc
50
9.181869506836
51
150.239456176758
0
ARC
5
ac6
100
AcDbEntity
8
1-0
6
CONTINUOUS
62
4
100
AcDbCircle
10
45906.849999999999
20
11719.969999999999
30
0.0
40
299.999997209656
100
AcDbArc
50
189.181869506836
51
330.239456176758
0
ARC
5
ac7
100
AcDbEntity
8
1-0
6
CONTINUOUS
62
4
100
AcDbCircle
10
17494.299999999999
20
19464.060000000001
30
0.0
40
299.999997209656
100
AcDbArc
50
179.642288208008
51
320.699859619141
0
ARC
5
ac8
100
AcDbEntity
8
1-0
6
CONTINUOUS
62
4
100
AcDbCircle
10
46462.779999999999
20
11619.059999999999
30
0.0
40
299.999997209656
100
AcDbArc
50
189.181869506836
51
330.239456176758
0
ARC
5
ac9
100
AcDbEntity
8
1-0
6
CONTINUOUS
62
4
100
AcDbCircle
10
46702.559999999998
20
11372.270000000000
30
0.0
40
299.999997209656
100
AcDbArc
50
189.181869506836
51
330.239456176758
0
ARC
5
aca
100
AcDbEntity
8
1-0
6
CONTINUOUS
62
4
100
AcDbCircle
10
45350.949999999997
20
11820.889999999999
30
0.0
40
299.999997209656
100
AcDbArc
50
189.181869506836
51
330.239456176758
0
ARC
5
acb
100
AcDbEntity
8
1-0
6
CONTINUOUS
62
4
100
AcDbCircle
10
15704.250000000000
20
20322.160000000000
30
0.0
40
299.999997209656
100
AcDbArc
50
179.642288208008
51
320.699859619141
0
ARC
5
acc
100
AcDbEntity
8
1-0
6
CONTINUOUS
62
4
100
AcDbCircle
10
16767.250000000000
20
19938.840000000000
30
0.0
40
299.999997209656
100
AcDbArc
50
179.642288208008
51
320.699859619141
0
ARC
5
acd
100
AcDbEntity
8
1-0
6
CONTINUOUS
62
4
100
AcDbCircle
10
16235.740000000000
20
20130.500000000000
30
0.0
40
299.999997209656
100
AcDbArc
50
179.642288208008
51
320.699859619141
0
ARC
5
ace
100
AcDbEntity
8
1-0
6
CONTINUOUS
62
4
100
AcDbCircle
10
17298.740000000002
20
19747.189999999999
30
0.0
40
299.999997209656
100
AcDbArc
50
179.642288208008
51
320.699859619141
0
ARC
5
acf
100
AcDbEntity
8
1-0
6
CONTINUOUS
62
4
100
AcDbCircle
10
48063.410000000003
20
11328.480000000000
30
0.0
40
299.999997209656
100
AcDbArc
50
189.181869506836
51
330.239456176758
0
ARC
5
ad0
100
AcDbEntity
8
1-0
6
CONTINUOUS
62
4
100
AcDbCircle
10
16962.810000000001
20
19655.720000000001
30
0.0
40
299.999997209656
100
AcDbArc
50
179.642288208008
51
320.699859619141
0
ARC
5
ad1
100
AcDbEntity
8
1-0
6
CONTINUOUS
62
4
100
AcDbCircle
10
44795.029999999999
20
11921.809999999999
30
0.0
40
299.999997209656
100
AcDbArc
50
189.181869506836
51
330.239456176758
0
ARC
5
ad2
100
AcDbEntity
8
1-0
6
CONTINUOUS
62
4
100
AcDbCircle
10
39892.769999999997
20
8543.120000000001
30
0.0
40
299.999997209656
100
AcDbArc
50
9.181869506836
51
150.239456176758
0
ARC
5
ad3
100
AcDbEntity
8
1-0
6
CONTINUOUS
62
4
100
AcDbCircle
10
47507.500000000000
20
11429.400000000000
30
0.0
40
299.999997209656
100
AcDbArc
50
189.181869506836
51
330.239456176758
0
ARC
5
ad4
100
AcDbEntity
8
1-0
6
CONTINUOUS
62
4
100
AcDbCircle
10
49415.019999999997
20
10879.850000000000
30
0.0
40
299.999997209656
100
AcDbArc
50
189.181869506836
51
330.239456176758
0
ARC
5
ad5
100
AcDbEntity
8
1-0
6
CONTINUOUS
62
4
100
AcDbCircle
10
48859.089999999997
20
10980.770000000000
30
0.0
40
299.999997209656
100
AcDbArc
50
189.181869506836
51
330.239456176758
0
ARC
5
ad6
100
AcDbEntity
8
1-0
6
CONTINUOUS
62
4
100
AcDbCircle
10
48303.190000000002
20
11081.680000000000
30
0.0
40
299.999997209656
100
AcDbArc
50
189.181869506836
51
330.239456176758
0
ARC
5
ad7
100
AcDbEntity
8
1-0
6
CONTINUOUS
62
4
100
AcDbCircle
10
45266.910000000003
20
7770.770000000000
30
0.0
40
299.999997209656
100
AcDbArc
50
9.181869506836
51
150.239456176758
0
ARC
5
ad8
100
AcDbEntity
8
1-0
6
CONTINUOUS
62
4
100
AcDbCircle
10
45822.830000000002
20
7669.850000000000
30
0.0
40
299.999997209656
100
AcDbArc
50
9.181869506836
51
150.239456176758
0
ARC
5
ad9
100
AcDbEntity
8
1-0
6
CONTINUOUS
62
4
100
AcDbCircle
10
47018.680000000000
20
11518.139999999999
30
0.0
40
299.999997209656
100
AcDbArc
50
189.181869506836
51
330.239456176758
0
ARC
5
ada
100
AcDbEntity
8
1-0
6
CONTINUOUS
62
4
100
AcDbCircle
10
41918.279999999999
20
8378.680000000000
30
0.0
40
299.999997209656
100
AcDbArc
50
9.181869506836
51
150.239456176758
0
ARC
5
adb
100
AcDbEntity
8
1-0
6
CONTINUOUS
62
4
100
AcDbCircle
10
44155.080000000002
20
7972.610000000000
30
0.0
40
299.999997209656
100
AcDbArc
50
9.181869506836
51
150.239456176758
0
ARC
5
adc
100
AcDbEntity
8
1-0
6
CONTINUOUS
62
4
100
AcDbCircle
10
44711.010000000002
20
7871.690000000000
30
0.0
40
299.999997209656
100
AcDbArc
50
9.181869506836
51
150.239456176758
0
ARC
5
add
100
AcDbEntity
8
1-0
6
CONTINUOUS
62
4
100
AcDbCircle
10
53051.870000000003
20
6357.500000000000
30
0.0
40
299.999997209656
100
AcDbArc
50
9.181869506836
51
150.239456176758
0
ARC
5
ade
100
AcDbEntity
8
1-0
6
CONTINUOUS
62
4
100
AcDbCircle
10
51613.019999999997
20
10480.820000000000
30
0.0
40
299.999997209656
100
AcDbArc
50
189.181869506836
51
330.239456176758
0
ARC
5
adf
100
AcDbEntity
8
1-0
6
CONTINUOUS
62
4
100
AcDbCircle
10
51057.110000000001
20
10581.740000000000
30
0.0
40
299.999997209656
100
AcDbArc
50
189.181869506836
51
330.239456176758
0
ARC
5
ae0
100
AcDbEntity
8
1-0
6
CONTINUOUS
62
4
100
AcDbCircle
10
50501.199999999997
20
10682.660000000000
30
0.0
40
299.999997209656
100
AcDbArc
50
189.181869506836
51
330.239456176758
0
ARC
5
ae1
100
AcDbEntity
8
1-0
6
CONTINUOUS
62
4
100
AcDbCircle
10
56771.309999999998
20
9747.660000000000
30
0.0
40
299.999997209656
100
AcDbArc
50
189.181869506836
51
330.239456176758
0
ARC
5
ae2
100
AcDbEntity
8
1-0
6
CONTINUOUS
62
4
100
AcDbCircle
10
56215.400000000001
20
9848.580000000000
30
0.0
40
299.999997209656
100
AcDbArc
50
189.181869506836
51
330.239456176758
0
ARC
5
ae3
100
AcDbEntity
8
1-0
6
CONTINUOUS
62
4
100
AcDbCircle
10
47537.620000000003
20
7155.290000000000
30
0.0
40
299.999997209656
100
AcDbArc
50
9.181869506836
51
150.239456176758
0
ARC
5
ae4
100
AcDbEntity
8
1-0
6
CONTINUOUS
62
4
100
AcDbCircle
10
52495.959999999999
20
6458.420000000000
30
0.0
40
299.999997209656
100
AcDbArc
50
9.181869506836
51
150.239456176758
0
ARC
5
ae5
100
AcDbEntity
8
1-0
6
CONTINUOUS
62
4
100
AcDbCircle
10
48649.459999999999
20
6953.450000000000
30
0.0
40
299.999997209656
100
AcDbArc
50
9.181869506836
51
150.239456176758
0
ARC
5
ae6
100
AcDbEntity
8
1-0
6
CONTINUOUS
62
4
100
AcDbCircle
10
56086.910000000003
20
5603.260000000000
30
0.0
40
299.999997209656
100
AcDbArc
50
9.181869506836
51
150.239456176758
0
ARC
5
ae7
100
AcDbEntity
8
1-0
6
CONTINUOUS
62
4
100
AcDbCircle
10
48093.529999999999
20
7054.370000000000
30
0.0
40
299.999997209656
100
AcDbArc
50
9.181869506836
51
150.239456176758
0
ARC
5
ae8
100
AcDbEntity
8
1-0
6
CONTINUOUS
62
4
100
AcDbCircle
10
47853.750000000000
20
7301.160000000000
30
0.0
40
299.999997209656
100
AcDbArc
50
9.181869506836
51
150.239456176758
0
ARC
5
ae9
100
AcDbEntity
8
1-0
6
CONTINUOUS
62
4
100
AcDbCircle
10
52168.940000000002
20
10379.910000000000
30
0.0
40
299.999997209656
100
AcDbArc
50
189.181869506836
51
330.239456176758
0
ARC
5
aea
100
AcDbEntity
8
1-0
6
CONTINUOUS
62
4
100
AcDbCircle
10
54419.169999999998
20
5906.020000000000
30
0.0
40
299.999997209656
100
AcDbArc
50
9.181869506836
51
150.239456176758
0
ARC
5
aeb
100
AcDbEntity
8
1-0
6
CONTINUOUS
62
4
100
AcDbCircle
10
54787.440000000002
20
9904.540000000001
30
0.0
40
299.999997209656
100
AcDbArc
50
189.181869506836
51
330.239456176758
0
ARC
5
aec
100
AcDbEntity
8
1-0
6
CONTINUOUS
62
4
100
AcDbCircle
10
55531.000000000000
20
5704.180000000000
30
0.0
40
299.999997209656
100
AcDbArc
50
9.181869506836
51
150.239456176758
0
ARC
5
aed
100
AcDbEntity
8
1-0
6
CONTINUOUS
62
4
100
AcDbCircle
10
55343.349999999999
20
9803.620000000001
30
0.0
40
299.999997209656
100
AcDbArc
50
189.181869506836
51
330.239456176758
0
ARC
5
aee
100
AcDbEntity
8
1-0
6
CONTINUOUS
62
4
100
AcDbCircle
10
51929.160000000003
20
10626.690000000001
30
0.0
40
299.999997209656
100
AcDbArc
50
189.181869506836
51
330.239456176758
0
ARC
5
aef
100
AcDbEntity
8
1-0
6
CONTINUOUS
62
4
100
AcDbCircle
10
53863.260000000002
20
6006.940000000000
30
0.0
40
299.999997209656
100
AcDbArc
50
9.181869506836
51
150.239456176758
0
ARC
5
af0
100
AcDbEntity
8
1-0
6
CONTINUOUS
62
4
100
AcDbCircle
10
50817.330000000002
20
10828.540000000001
30
0.0
40
299.999997209656
100
AcDbArc
50
189.181869506836
51
330.239456176758
0
ARC
5
af1
100
AcDbEntity
8
1-0
6
CONTINUOUS
62
4
100
AcDbCircle
10
54975.089999999997
20
5805.100000000000
30
0.0
40
299.999997209656
100
AcDbArc
50
9.181869506836
51
150.239456176758
0
ARC
5
af2
100
AcDbEntity
8
1-0
6
CONTINUOUS
62
4
100
AcDbCircle
10
51373.239999999998
20
10727.620000000001
30
0.0
40
299.999997209656
100
AcDbArc
50
189.181869506836
51
330.239456176758
0
ARC
5
af3
100
AcDbEntity
8
1-0
6
CONTINUOUS
62
4
100
AcDbCircle
10
41602.139999999999
20
8232.799999999999
30
0.0
40
299.999997209656
100
AcDbArc
50
9.181869506836
51
150.239456176758
0
ARC
5
af4
100
AcDbEntity
8
1-0
6
CONTINUOUS
62
4
100
AcDbCircle
10
50261.419999999998
20
10929.459999999999
30
0.0
40
299.999997209656
100
AcDbArc
50
189.181869506836
51
330.239456176758
0
ARC
5
af5
100
AcDbEntity
8
1-0
6
CONTINUOUS
62
4
100
AcDbCircle
10
52179.830000000002
20
6312.550000000000
30
0.0
40
299.999997209656
100
AcDbArc
50
9.181869506836
51
150.239456176758
0
ARC
5
af6
100
AcDbEntity
8
1-0
6
CONTINUOUS
62
4
100
AcDbCircle
10
52735.739999999998
20
6211.620000000000
30
0.0
40
299.999997209656
100
AcDbArc
50
9.181869506836
51
150.239456176758
0
ARC
5
af7
100
AcDbEntity
8
1-0
6
CONTINUOUS
62
4
100
AcDbCircle
10
53291.650000000001
20
6110.710000000000
30
0.0
40
299.999997209656
100
AcDbArc
50
9.181869506836
51
150.239456176758
0
ARC
5
af8
100
AcDbEntity
8
1-0
6
CONTINUOUS
62
4
100
AcDbCircle
10
51384.139999999999
20
6660.260000000000
30
0.0
40
299.999997209656
100
AcDbArc
50
9.181869506836
51
150.239456176758
0
ARC
5
af9
100
AcDbEntity
8
1-0
6
CONTINUOUS
62
4
100
AcDbCircle
10
42158.059999999998
20
8131.880000000000
30
0.0
40
299.999997209656
100
AcDbArc
50
9.181869506836
51
150.239456176758
0
ARC
5
afa
100
AcDbEntity
8
1-0
6
CONTINUOUS
62
4
100
AcDbCircle
10
47747.279999999999
20
11182.600000000000
30
0.0
40
299.999997209656
100
AcDbArc
50
189.181869506836
51
330.239456176758
0
ARC
5
afb
100
AcDbEntity
8
1-0
6
CONTINUOUS
62
4
100
AcDbCircle
10
43269.870000000003
20
7930.050000000000
30
0.0
40
299.999997209656
100
AcDbArc
50
9.181869506836
51
150.239456176758
0
ARC
5
afc
100
AcDbEntity
8
1-0
6
CONTINUOUS
62
4
100
AcDbCircle
10
51940.059999999998
20
6559.340000000000
30
0.0
40
299.999997209656
100
AcDbArc
50
9.181869506836
51
150.239456176758
0
ARC
5
afd
100
AcDbEntity
8
1-0
6
CONTINUOUS
62
4
100
AcDbCircle
10
42713.970000000001
20
8030.960000000000
30
0.0
40
299.999997209656
100
AcDbArc
50
9.181869506836
51
150.239456176758
0
ARC
5
afe
100
AcDbEntity
8
1-0
6
CONTINUOUS
62
4
100
AcDbCircle
10
52485.070000000000
20
10525.770000000000
30
0.0
40
299.999997209656
100
AcDbArc
50
189.181869506836
51
330.239456176758
0
ARC
5
aff
100
AcDbEntity
8
1-0
6
CONTINUOUS
62
4
100
AcDbCircle
10
41362.360000000001
20
8479.600000000000
30
0.0
40
299.999997209656
100
AcDbArc
50
9.181869506836
51
150.239456176758
0
ARC
5
b00
100
AcDbEntity
8
1-0
6
CONTINUOUS
62
4
100
AcDbCircle
10
51623.910000000003
20
6413.470000000000
30
0.0
40
299.999997209656
100
AcDbArc
50
9.181869506836
51
150.239456176758
0
ARC
5
b01
100
AcDbEntity
8
1-0
6
CONTINUOUS
62
4
100
AcDbCircle
10
48409.680000000000
20
7200.240000000000
30
0.0
40
299.999997209656
100
AcDbArc
50
9.181869506836
51
150.239456176758
0
ARC
5
b02
100
AcDbEntity
8
1-0
6
CONTINUOUS
62
4
100
AcDbCircle
10
49761.269999999997
20
6751.610000000000
30
0.0
40
299.999997209656
100
AcDbArc
50
9.181869506836
51
150.239456176758
0
ARC
5
b03
100
AcDbEntity
8
1-0
6
CONTINUOUS
62
4
100
AcDbCircle
10
49521.489999999998
20
6998.400000000000
30
0.0
40
299.999997209656
100
AcDbArc
50
9.181869506836
51
150.239456176758
0
ARC
5
b04
100
AcDbEntity
8
1-0
6
CONTINUOUS
62
4
100
AcDbCircle
10
54179.389999999999
20
6152.820000000000
30
0.0
40
299.999997209656
100
AcDbArc
50
9.181869506836
51
150.239456176758
0
ARC
5
b05
100
AcDbEntity
8
1-0
6
CONTINUOUS
62
4
100
AcDbCircle
10
48965.580000000002
20
7099.320000000000
30
0.0
40
299.999997209656
100
AcDbArc
50
9.181869506836
51
150.239456176758
0
ARC
5
b06
100
AcDbEntity
8
1-0
6
CONTINUOUS
62
4
100
AcDbCircle
10
55291.220000000001
20
5950.970000000000
30
0.0
40
299.999997209656
100
AcDbArc
50
9.181869506836
51
150.239456176758
0
ARC
5
b07
100
AcDbEntity
8
1-0
6
CONTINUOUS
62
4
100
AcDbCircle
10
49205.360000000001
20
6852.520000000000
30
0.0
40
299.999997209656
100
AcDbArc
50
9.181869506836
51
150.239456176758
0
ARC
5
b08
100
AcDbEntity
8
1-0
6
CONTINUOUS
62
4
100
AcDbCircle
10
54735.309999999998
20
6051.890000000000
30
0.0
40
299.999997209656
100
AcDbArc
50
9.181869506836
51
150.239456176758
0
CIRCLE
5
b09
100
AcDbEntity
8
1-0
6
CONTINUOUS
62
4
100
AcDbCircle
10
51190.040000000001
20
29412.669999999998
30
0.0
40
99.999999069885
0
ARC
5
b0a
100
AcDbEntity
8
1-0
6
CONTINUOUS
62
4
100
AcDbCircle
10
55847.129999999997
20
5850.050000000000
30
0.0
40
299.999997209656
100
AcDbArc
50
9.181869506836
51
150.239456176758
0
ARC
5
b0b
100
AcDbEntity
8
1-0
6
CONTINUOUS
62
4
100
AcDbCircle
10
51068.000000000000
20
6514.390000000000
30
0.0
40
299.999997209656
100
AcDbArc
50
9.181869506836
51
150.239456176758
0
CIRCLE
5
b0c
100
AcDbEntity
8
1-0
6
CONTINUOUS
62
4
100
AcDbCircle
10
6526.910000000000
20
38605.980000000003
30
0.0
40
99.999999069885
0
CIRCLE
5
b0d
100
AcDbEntity
8
1-0
6
CONTINUOUS
62
4
100
AcDbCircle
10
14933.150000000000
20
33781.000000000000
30
0.0
40
99.999999069885
0
CIRCLE
5
b0e
100
AcDbEntity
8
1-0
6
CONTINUOUS
62
4
100
AcDbCircle
10
22781.910000000000
20
30557.369999999999
30
0.0
40
99.999999069885
0
CIRCLE
5
b0f
100
AcDbEntity
8
1-0
6
CONTINUOUS
62
4
100
AcDbCircle
10
59436.139999999999
20
31246.900000000001
30
0.0
40
99.999999069885
0
CIRCLE
5
b10
100
AcDbEntity
8
1-0
6
CONTINUOUS
62
4
100
AcDbCircle
10
41644.680000000000
20
28401.990000000002
30
0.0
40
99.999999069885
0
CIRCLE
5
b11
100
AcDbEntity
8
1-0
6
CONTINUOUS
62
4
100
AcDbCircle
10
80668.339999999997
20
35139.889999999999
30
0.0
40
99.999999069885
0
CIRCLE
5
b12
100
AcDbEntity
8
1-0
6
CONTINUOUS
62
4
100
AcDbCircle
10
34295.169999999998
20
28497.770000000000
30
0.0
40
99.999999069885
0
CIRCLE
5
b13
100
AcDbEntity
8
1-0
6
CONTINUOUS
62
4
100
AcDbCircle
10
70584.229999999996
20
32176.709999999999
30
0.0
40
99.999999069885
0
TEXT
5
b14
100
AcDbEntity
8
1-0
62
3
100
AcDbText
10
73115.810
20
4801.230
30
0.0
40
292.500
1
測
41
1.000
50
0.000
100
AcDbText
0
TEXT
5
b15
100
AcDbEntity
8
1-0
62
3
100
AcDbText
10
74285.810
20
4801.230
30
0.0
40
292.500
1
量
41
1.000
50
0.000
100
AcDbText
0
TEXT
5
b16
100
AcDbEntity
8
1-0
62
3
100
AcDbText
10
74846.030
20
4779.320
30
0.0
40
292.500
1
平成13年8月17日～平成17年11月6日
41
1.000
50
0.000
100
AcDbText
0
TEXT
5
b17
100
AcDbEntity
8
1-0
62
3
100
AcDbText
10
75887.710
20
5893.900
30
0.0
40
292.500
1
坂道現況平面図
41
1.000
50
0.000
100
AcDbText
0
TEXT
5
b18
100
AcDbEntity
8
1-0
62
7
100
AcDbText
10
18620.230
20
46222.310
30
0.0
40
195.000
1
4 m
41
1.000
50
0.000
100
AcDbText
0
TEXT
5
b19
100
AcDbEntity
8
1-0
62
3
100
AcDbText
10
73115.810
20
6478.310
30
0.0
40
292.500
1
事
41
1.000
50
0.000
100
AcDbText
0
TEXT
5
b1a
100
AcDbEntity
8
1-0
62
3
100
AcDbText
10
73700.810
20
6478.310
30
0.0
40
292.500
1
業
41
1.000
50
0.000
100
AcDbText
0
TEXT
5
b1b
100
AcDbEntity
8
1-0
62
3
100
AcDbText
10
74285.810
20
6478.310
30
0.0
40
292.500
1
名
41
1.000
50
0.000
100
AcDbText
0
TEXT
5
b1c
100
AcDbEntity
8
1-0
62
3
100
AcDbText
10
75162.920
20
6441.750
30
0.0
40
292.500
1
大沢の池環境管理プロジェクト
41
1.000
50
0.000
100
AcDbText
0
TEXT
5
b1d
100
AcDbEntity
8
1-0
62
3
100
AcDbText
10
73115.810
20
4238.730
30
0.0
40
292.500
1
調
41
1.000
50
0.000
100
AcDbText
0
TEXT
5
b1e
100
AcDbEntity
8
1-0
62
3
100
AcDbText
10
74285.810
20
4238.730
30
0.0
40
292.500
1
製
41
1.000
50
0.000
100
AcDbText
0
TEXT
5
b1f
100
AcDbEntity
8
1-0
62
3
100
AcDbText
10
75609.930
20
3654.320
30
0.0
40
292.500
1
ソウギョ・バスターズ
41
1.000
50
0.000
100
AcDbText
0
TEXT
5
b20
100
AcDbEntity
8
1-0
62
6
100
AcDbText
10
42916.020
20
39906.640
30
0.0
40
585.000
1
大　沢　池
41
1.083
50
0.000
100
AcDbText
0
TEXT
5
b21
100
AcDbEntity
8
1-0
62
6
100
AcDbText
10
8275.290
20
18159.960
30
0.0
40
585.000
1
有栖川
41
1.083
50
345.203
100
AcDbText
0
TEXT
5
b22
100
AcDbEntity
8
1-0
62
6
100
AcDbText
10
10488.440
20
50876.200
30
0.0
40
585.000
1
大覚寺坂道現況平面図
41
1.083
50
0.000
100
AcDbText
0
TEXT
5
b23
100
AcDbEntity
8
1-0
62
3
100
AcDbText
10
73115.810
20
5915.810
30
0.0
40
292.500
1
図
41
1.000
50
0.000
100
AcDbText
0
TEXT
5
b24
100
AcDbEntity
8
1-0
62
3
100
AcDbText
10
73700.810
20
5915.810
30
0.0
40
292.500
1
面
41
1.000
50
0.000
100
AcDbText
0
TEXT
5
b25
100
AcDbEntity
8
1-0
62
3
100
AcDbText
10
74285.810
20
5915.810
30
0.0
40
292.500
1
名
41
1.000
50
0.000
100
AcDbText
0
TEXT
5
b26
100
AcDbEntity
8
1-0
62
3
100
AcDbText
10
73115.810
20
3676.230
30
0.0
40
292.500
1
作
41
1.000
50
0.000
100
AcDbText
0
TEXT
5
b27
100
AcDbEntity
8
1-0
62
3
100
AcDbText
10
73505.810
20
3676.230
30
0.0
40
292.500
1
業
41
1.000
50
0.000
100
AcDbText
0
TEXT
5
b28
100
AcDbEntity
8
1-0
62
3
100
AcDbText
10
73895.810
20
3676.230
30
0.0
40
292.500
1
機
41
1.000
50
0.000
100
AcDbText
0
TEXT
5
b29
100
AcDbEntity
8
1-0
62
3
100
AcDbText
10
74285.810
20
3676.230
30
0.0
40
292.500
1
関
41
1.000
50
0.000
100
AcDbText
0
TEXT
5
b2a
100
AcDbEntity
8
1-0
62
7
100
AcDbText
10
15620.230
20
46222.310
30
0.0
40
195.000
1
1
41
1.000
50
0.000
100
AcDbText
0
TEXT
5
b2b
100
AcDbEntity
8
1-0
62
3
100
AcDbText
10
15057.900
20
46747.590
30
0.0
40
341.250
1
Scale　1/100
41
1.000
50
0.000
100
AcDbText
0
TEXT
5
b2c
100
AcDbEntity
8
1-0
62
6
100
AcDbText
10
12929.330
20
48566.820
30
0.0
40
585.000
1
縮尺 壱百分之壱
41
1.083
50
0.000
100
AcDbText
0
TEXT
5
b2d
100
AcDbEntity
8
1-0
62
7
100
AcDbText
10
14659.790
20
46243.850
30
0.0
40
195.000
1
0
41
1.000
50
0.000
100
AcDbText
0
TEXT
5
b2e
100
AcDbEntity
8
1-0
62
7
100
AcDbText
10
13625.960
20
46235.130
30
0.0
40
195.000
1
1
41
1.000
50
0.000
100
AcDbText
0
TEXT
5
b2f
100
AcDbEntity
8
1-0
62
7
100
AcDbText
10
17620.900
20
46222.310
30
0.0
40
195.000
1
3
41
1.000
50
0.000
100
AcDbText
0
TEXT
5
b30
100
AcDbEntity
8
1-0
62
3
100
AcDbText
10
73115.810
20
5358.530
30
0.0
40
292.500
1
縮
41
1.000
50
0.000
100
AcDbText
0
TEXT
5
b31
100
AcDbEntity
8
1-0
62
3
100
AcDbText
10
74285.810
20
5358.530
30
0.0
40
292.500
1
尺
41
1.000
50
0.000
100
AcDbText
0
TEXT
5
b32
100
AcDbEntity
8
1-0
62
7
100
AcDbText
10
16620.550
20
46215.900
30
0.0
40
195.000
1
2
41
1.000
50
0.000
100
AcDbText
0
TEXT
5
b33
100
AcDbEntity
8
1-0
62
2
100
AcDbText
10
12135.490
20
57229.420
30
0.0
40
390.000
1
8.58
41
1.050
50
0.000
100
AcDbText
0
TEXT
5
b34
100
AcDbEntity
8
1-0
62
2
100
AcDbText
10
11747.070
20
56793.440
30
0.0
40
390.000
1
（8.55）
41
1.050
50
0.000
100
AcDbText
0
TEXT
5
b35
100
AcDbEntity
8
1-0
62
2
100
AcDbText
10
42308.950
20
48603.810
30
0.0
40
390.000
1
8.68
41
1.050
50
0.000
100
AcDbText
0
TEXT
5
b36
100
AcDbEntity
8
1-0
62
2
100
AcDbText
10
51429.770
20
29217.380
30
0.0
40
390.000
1
T-26
41
1.050
50
0.000
100
AcDbText
0
TEXT
5
b37
100
AcDbEntity
8
1-0
62
2
100
AcDbText
10
22980.860
20
30346.970
30
0.0
40
390.000
1
T-29
41
1.050
50
0.000
100
AcDbText
0
TEXT
5
b38
100
AcDbEntity
8
1-0
62
2
100
AcDbText
10
34566.970
20
28301.260
30
0.0
40
390.000
1
T-28
41
1.050
50
0.000
100
AcDbText
0
TEXT
5
b39
100
AcDbEntity
8
1-0
62
2
100
AcDbText
10
41877.810
20
28200.200
30
0.0
40
390.000
1
T-27
41
1.050
50
0.000
100
AcDbText
0
TEXT
5
b3a
100
AcDbEntity
8
1-0
62
6
100
AcDbText
10
26161.440
20
53557.380
30
0.0
40
585.000
1
8.5
41
1.083
50
344.612
100
AcDbText
0
TEXT
5
b3b
100
AcDbEntity
8
1-0
62
2
100
AcDbText
10
5546.550
20
38355.930
30
0.0
40
390.000
1
T-31
41
1.050
50
0.000
100
AcDbText
0
TEXT
5
b3c
100
AcDbEntity
8
1-0
62
2
100
AcDbText
10
70809.050
20
31956.240
30
0.0
40
390.000
1
T-24
41
1.050
50
0.000
100
AcDbText
0
TEXT
5
b3d
100
AcDbEntity
8
1-0
62
2
100
AcDbText
10
41892.560
20
48173.990
30
0.0
40
390.000
1
（8.68）
41
1.050
50
0.000
100
AcDbText
0
TEXT
5
b3e
100
AcDbEntity
8
1-0
62
3
100
AcDbText
10
75511.210
20
5342.120
30
0.0
40
292.500
1
100
41
1.000
50
0.000
100
AcDbText
0
TEXT
5
b3f
100
AcDbEntity
8
1-0
62
2
100
AcDbText
10
40416.170
20
58464.040
30
0.0
40
390.000
1
8.24
41
1.050
50
0.000
100
AcDbText
0
TEXT
5
b40
100
AcDbEntity
8
1-0
62
3
100
AcDbText
10
75191.760
20
5342.120
30
0.0
40
292.500
1
1/
41
1.000
50
0.000
100
AcDbText
0
TEXT
5
b41
100
AcDbEntity
8
1-0
62
3
100
AcDbText
10
76026.590
20
4216.820
30
0.0
40
292.500
1
平成17年12月1日
41
1.000
50
0.000
100
AcDbText
0
TEXT
5
b42
100
AcDbEntity
8
1-0
62
3
100
AcDbText
10
76849.750
20
5342.120
30
0.0
40
292.500
1
図面番号
41
1.000
50
0.000
100
AcDbText
0
TEXT
5
b43
100
AcDbEntity
8
1-0
62
2
100
AcDbText
10
59663.990
20
31046.080
30
0.0
40
390.000
1
T-25
41
1.050
50
0.000
100
AcDbText
0
TEXT
5
b44
100
AcDbEntity
8
1-0
62
2
100
AcDbText
10
15189.780
20
33602.740
30
0.0
40
390.000
1
T-30
41
1.050
50
0.000
100
AcDbText
0
TEXT
5
b45
100
AcDbEntity
8
1-0
62
6
100
AcDbText
10
1539.590
20
30187.980
30
0.0
40
585.000
1
望雲亭
41
1.083
50
344.424
100
AcDbText
0
TEXT
5
b46
100
AcDbEntity
8
1-0
62
2
100
AcDbText
10
40022.900
20
58008.680
30
0.0
40
390.000
1
（7.79）
41
1.050
50
0.000
100
AcDbText
0
TEXT
5
b47
100
AcDbEntity
8
1-0
62
2
100
AcDbText
10
80878.920
20
34948.040
30
0.0
40
390.000
1
T-23
41
1.050
50
0.000
100
AcDbText
0
POINT
5
b48
100
AcDbEntity
8
1-0
62
7
100
AcDbPoint
10
70584.229999999996
20
32176.709999999999
30
0.0
0
POINT
5
b49
100
AcDbEntity
8
1-0
62
7
100
AcDbPoint
10
80668.339999999997
20
35139.889999999999
30
0.0
0
POINT
5
b4a
100
AcDbEntity
8
1-0
62
7
100
AcDbPoint
10
6526.910000000000
20
38605.980000000003
30
0.0
0
POINT
5
b4b
100
AcDbEntity
8
1-0
62
7
100
AcDbPoint
10
51190.040000000001
20
29412.669999999998
30
0.0
0
POINT
5
b4c
100
AcDbEntity
8
1-0
62
7
100
AcDbPoint
10
22781.910000000000
20
30557.369999999999
30
0.0
0
POINT
5
b4d
100
AcDbEntity
8
1-0
62
7
100
AcDbPoint
10
14933.150000000000
20
33781.000000000000
30
0.0
0
POINT
5
b4e
100
AcDbEntity
8
1-0
62
7
100
AcDbPoint
10
34295.169999999998
20
28497.770000000000
30
0.0
0
POINT
5
b4f
100
AcDbEntity
8
1-0
62
7
100
AcDbPoint
10
41644.680000000000
20
28401.990000000002
30
0.0
0
POINT
5
b50
100
AcDbEntity
8
1-0
62
7
100
AcDbPoint
10
11762.370000000001
20
57271.309999999998
30
0.0
0
POINT
5
b51
100
AcDbEntity
8
1-0
62
7
100
AcDbPoint
10
59436.139999999999
20
31246.900000000001
30
0.0
0
POINT
5
b52
100
AcDbEntity
8
1-0
62
7
100
AcDbPoint
10
41900.180000000000
20
48656.430000000000
30
0.0
0
POINT
5
b53
100
AcDbEntity
8
1-0
62
7
100
AcDbPoint
10
40036.720000000001
20
58481.269999999997
30
0.0
0
ENDSEC
0
EOF
