0
SECTION
2
HEADER
9
$ACADVER
1
AC1009
9
$EXTMIN
10
0.000
20
0.000
30
0.0
9
$EXTMAX
10
84100.000
20
59400.000
30
0.0
9
$LTSCALE
40
100.000
9
$PDMODE
70
0
9
$PDSIZE
40
40.0
0
ENDSEC
0
SECTION
2
TABLES
0
TABLE
2
LTYPE
70
9
0
LTYPE
5
1f4
2
CONTINUOUS
70
64
3
SolidLine
72
65
73
0
40
0.0
0
LTYPE
5
1f5
2
DOT
70
64
3
--  --  --  --  --  --  --  --     
72
65
73
2
40
3.000
49
1.000
49
-2.000
0
LTYPE
5
1f6
2
DASHED
70
64
3
----    ----    ----    ----    
72
65
73
2
40
5.000
49
2.000
49
-3.000
0
LTYPE
5
1f7
2
DASHED2
70
64
3
------  ------  ------  ------ 
72
65
73
2
40
10.000
49
4.000
49
-6.000
0
LTYPE
5
1f8
2
CENTER
70
64
3
----- - ----- - ----- - ----- - 
72
65
73
4
40
10.000
49
6.000
49
-3.000
49
1.000
49
-3.000
0
LTYPE
5
1f9
2
CENTER2
70
64
3
----------  --  ----------  -- 
72
65
73
4
40
17.000
49
12.000
49
-5.000
49
2.000
49
-5.000
0
LTYPE
5
1fa
2
PHANTOM
70
64
3
--- - - --- - - --- - - --- - -
72
65
73
6
40
13.000
49
5.000
49
-3.000
49
1.000
49
-3.000
49
1.000
49
-3.000
0
LTYPE
5
1fb
2
PHANTOM2
70
64
3
--------  -  -  --------  -  -
72
65
73
6
40
20.000
49
6.000
49
-5.000
49
2.000
49
-5.000
49
2.000
49
-5.000
0
LTYPE
5
1fc
2
HIDDEN
70
64
3
-   -   -   -   -   -   -   -   
72
65
73
2
40
3.000
49
0.500
49
-2.500
0
ENDTAB
0
TABLE
2
STYLE
70
1
0
STYLE
5
1fd
100
AcDbSymbolTableRecord
100
AcDbTextStyleTableRecord
2
STANDARD
70
0
40
0.0
41
1.0
50
0.0
71
0
42
0.0
3
txt.shx
4
extfont.shx
0
STYLE
5
1fe
100
AcDbSymbolTableRecord
100
AcDbTextStyleTableRecord
2
TATEGAKI
70
4
40
0.0
41
1.0
50
0.0
71
0
42
0.0
3
txt.shx
4
extfont.shx
0
STYLE
5
1ff
100
AcDbSymbolTableRecord
100
AcDbTextStyleTableRecord
2
DIM
70
0
40
0.0
41
0.75
50
0.0
71
0
42
0.0
3
txt.shx
4
extfont.shx
0
STYLE
5
200
100
AcDbSymbolTableRecord
100
AcDbTextStyleTableRecord
2
_Gothic_
70
0
40
0.0
41
1.0
50
0.0
71
0
42
0.0
3
MS Gothic
4

0
STYLE
5
201
100
AcDbSymbolTableRecord
100
AcDbTextStyleTableRecord
2
_TateGothic_
70
4
40
0.0
41
1.0
50
0.0
71
0
42
0.0
3
@MS Gothic
4

0
ENDTAB
0
TABLE
2
LAYER
5
403
100
AcDbSymbolTable
70
10
0
LAYER
5
404
100
AcDbSymbolTableRecord
100
AcDbLayerTableRecord
2
1-0
70
0
62
7
6
CONTINUOUS
0
LAYER
5
405
100
AcDbSymbolTableRecord
100
AcDbLayerTableRecord
2
2-0
70
0
62
-7
6
CONTINUOUS
0
ENDTAB
0
ENDSEC
0
SECTION
2
ENTITIES
0
LINE
5
406
100
AcDbEntity
8
1-0
6
CONTINUOUS
62
4
100
AcDbLine
10
73804.000000000000
20
5854.830000000000
30
0.0
11
81085.240000000005
21
5854.830000000000
31
0.0
0
LINE
5
407
100
AcDbEntity
8
1-0
6
CONTINUOUS
62
4
100
AcDbLine
10
75356.070000000007
20
6417.330000000000
30
0.0
11
75356.070000000007
21
3052.750000000000
31
0.0
0
LINE
5
408
100
AcDbEntity
8
1-0
6
CONTINUOUS
62
4
100
AcDbLine
10
73804.000000000000
20
4740.250000000000
30
0.0
11
81085.240000000005
21
4740.250000000000
31
0.0
0
LINE
5
409
100
AcDbEntity
8
1-0
6
CONTINUOUS
62
4
100
AcDbLine
10
73804.000000000000
20
6417.330000000000
30
0.0
11
81085.240000000005
21
6417.330000000000
31
0.0
0
LINE
5
40a
100
AcDbEntity
8
1-0
6
CONTINUOUS
62
4
100
AcDbLine
10
73804.000000000000
20
3052.750000000000
30
0.0
11
81085.240000000005
21
3052.750000000000
31
0.0
0
LINE
5
40b
100
AcDbEntity
8
1-0
6
CONTINUOUS
62
4
100
AcDbLine
10
73804.000000000000
20
4177.750000000000
30
0.0
11
81085.240000000005
21
4177.750000000000
31
0.0
0
LINE
5
40c
100
AcDbEntity
8
1-0
6
CONTINUOUS
62
4
100
AcDbLine
10
73804.000000000000
20
3615.250000000000
30
0.0
11
81085.240000000005
21
3615.250000000000
31
0.0
0
LINE
5
40d
100
AcDbEntity
8
1-0
6
CONTINUOUS
62
4
100
AcDbLine
10
77314.410000000003
20
5292.330000000000
30
0.0
11
77314.410000000003
21
4740.250000000000
31
0.0
0
LINE
5
40e
100
AcDbEntity
8
1-0
6
CONTINUOUS
62
4
100
AcDbLine
10
79199.830000000002
20
5292.330000000000
30
0.0
11
79199.830000000002
21
4740.250000000000
31
0.0
0
LINE
5
40f
100
AcDbEntity
8
1-0
6
CONTINUOUS
62
4
100
AcDbLine
10
73804.000000000000
20
5292.330000000000
30
0.0
11
81085.240000000005
21
5292.330000000000
31
0.0
0
LINE
5
410
100
AcDbEntity
8
1-0
6
CONTINUOUS
62
4
100
AcDbLine
10
73804.000000000000
20
6417.330000000000
30
0.0
11
73804.000000000000
21
3052.750000000000
31
0.0
0
LINE
5
411
100
AcDbEntity
8
1-0
6
CONTINUOUS
62
4
100
AcDbLine
10
81085.240000000005
20
6417.330000000000
30
0.0
11
81085.240000000005
21
3052.750000000000
31
0.0
0
LINE
5
412
100
AcDbEntity
8
1-0
6
CONTINUOUS
62
3
100
AcDbLine
10
4510.370000000000
20
13058.410000000000
30
0.0
11
4599.970000000000
21
12700.010000000000
31
0.0
0
LINE
5
413
100
AcDbEntity
8
1-0
6
CONTINUOUS
62
3
100
AcDbLine
10
4093.200000000000
20
7534.030000000000
30
0.0
11
4330.100000000000
21
7928.990000000000
31
0.0
0
LINE
5
414
100
AcDbEntity
8
1-0
6
CONTINUOUS
62
4
100
AcDbLine
10
4689.580000000000
20
13058.410000000000
30
0.0
11
4599.970000000000
21
12700.010000000000
31
0.0
0
LINE
5
415
100
AcDbEntity
8
1-0
6
CONTINUOUS
62
4
100
AcDbLine
10
3966.320000000000
20
8674.459999999999
30
0.0
11
5233.630000000000
21
7407.170000000000
31
0.0
0
LINE
5
416
100
AcDbEntity
8
1-0
6
CONTINUOUS
62
3
100
AcDbLine
10
5106.760000000000
20
8547.590000000000
30
0.0
11
4869.840000000000
21
8152.630000000000
31
0.0
0
LINE
5
417
100
AcDbEntity
8
1-0
6
CONTINUOUS
62
4
100
AcDbLine
10
5943.970000000000
20
8040.810000000000
30
0.0
11
4726.670000000000
21
8167.510000000000
31
0.0
0
LINE
5
418
100
AcDbEntity
8
1-0
6
CONTINUOUS
62
4
100
AcDbLine
10
5106.760000000000
20
8547.590000000000
30
0.0
11
4721.300000000000
21
8316.240000000000
31
0.0
0
LINE
5
419
100
AcDbEntity
8
1-0
6
CONTINUOUS
62
4
100
AcDbLine
10
4599.970000000000
20
6248.820000000000
30
0.0
11
4726.670000000000
21
7914.110000000000
31
0.0
0
LINE
5
41a
100
AcDbEntity
8
1-0
6
CONTINUOUS
62
3
100
AcDbLine
10
4420.770000000000
20
14850.410000000000
30
0.0
11
4420.770000000000
21
15388.010000000000
31
0.0
0
LINE
5
41b
100
AcDbEntity
8
1-0
6
CONTINUOUS
62
4
100
AcDbLine
10
4599.970000000000
20
14312.809999999999
30
0.0
11
4599.970000000000
21
5352.810000000000
31
0.0
0
LINE
5
41c
100
AcDbEntity
8
1-0
6
CONTINUOUS
62
3
100
AcDbLine
10
4093.200000000000
20
8547.590000000000
30
0.0
11
4478.650000000000
21
8316.240000000000
31
0.0
0
LINE
5
41d
100
AcDbEntity
8
1-0
6
CONTINUOUS
62
4
100
AcDbLine
10
4093.200000000000
20
7534.030000000000
30
0.0
11
4484.390000000000
21
7768.610000000000
31
0.0
0
LINE
5
41e
100
AcDbEntity
8
1-0
6
CONTINUOUS
62
4
100
AcDbLine
10
5233.630000000000
20
8674.459999999999
30
0.0
11
3966.320000000000
21
7407.160000000000
31
0.0
0
LINE
5
41f
100
AcDbEntity
8
1-0
6
CONTINUOUS
62
3
100
AcDbLine
10
5943.970000000000
20
8040.810000000000
30
0.0
11
4726.670000000000
21
7914.110000000000
31
0.0
0
LINE
5
420
100
AcDbEntity
8
1-0
6
CONTINUOUS
62
3
100
AcDbLine
10
4779.170000000000
20
14850.410000000000
30
0.0
11
4779.180000000000
21
15388.010000000000
31
0.0
0
LINE
5
421
100
AcDbEntity
8
1-0
6
CONTINUOUS
62
4
100
AcDbLine
10
4599.970000000000
20
14312.809999999999
30
0.0
11
4510.360000000000
21
13416.809999999999
31
0.0
0
LINE
5
422
100
AcDbEntity
8
1-0
6
CONTINUOUS
62
3
100
AcDbLine
10
4599.970000000000
20
6248.820000000000
30
0.0
11
4473.280000000000
21
7914.110000000000
31
0.0
0
LINE
5
423
100
AcDbEntity
8
1-0
6
CONTINUOUS
62
3
100
AcDbLine
10
4420.770000000000
20
15388.010000000000
30
0.0
11
4779.170000000000
21
14850.410000000000
31
0.0
0
LINE
5
424
100
AcDbEntity
8
1-0
6
CONTINUOUS
62
3
100
AcDbLine
10
5106.750000000000
20
7534.030000000000
30
0.0
11
4715.560000000000
21
7768.610000000000
31
0.0
0
LINE
5
425
100
AcDbEntity
8
1-0
6
CONTINUOUS
62
4
100
AcDbLine
10
3255.980000000000
20
8040.810000000000
30
0.0
11
4473.280000000000
21
7914.110000000000
31
0.0
0
LINE
5
426
100
AcDbEntity
8
1-0
6
CONTINUOUS
62
3
100
AcDbLine
10
4689.570000000000
20
13416.809999999999
30
0.0
11
4510.370000000000
21
13058.410000000000
31
0.0
0
LINE
5
427
100
AcDbEntity
8
1-0
6
CONTINUOUS
62
3
100
AcDbLine
10
4599.970000000000
20
11624.809999999999
30
0.0
11
4726.670000000000
21
8167.510000000000
31
0.0
0
LINE
5
428
100
AcDbEntity
8
1-0
6
CONTINUOUS
62
4
100
AcDbLine
10
4599.970000000000
20
11624.809999999999
30
0.0
11
4473.280000000000
21
8167.510000000000
31
0.0
0
LINE
5
429
100
AcDbEntity
8
1-0
6
CONTINUOUS
62
4
100
AcDbLine
10
5106.750000000000
20
7534.030000000000
30
0.0
11
4869.850000000000
21
7928.990000000000
31
0.0
0
LINE
5
42a
100
AcDbEntity
8
1-0
6
CONTINUOUS
62
3
100
AcDbLine
10
3255.980000000000
20
8040.810000000000
30
0.0
11
4473.280000000000
21
8167.510000000000
31
0.0
0
LINE
5
42b
100
AcDbEntity
8
1-0
6
CONTINUOUS
62
4
100
AcDbLine
10
2807.980000000000
20
8040.810000000000
30
0.0
11
6391.980000000000
21
8040.810000000000
31
0.0
0
LINE
5
42c
100
AcDbEntity
8
1-0
6
CONTINUOUS
62
3
100
AcDbLine
10
4599.970000000000
20
14312.809999999999
30
0.0
11
4689.570000000000
21
13416.809999999999
31
0.0
0
LINE
5
42d
100
AcDbEntity
8
1-0
6
CONTINUOUS
62
4
100
AcDbLine
10
4093.200000000000
20
8547.590000000000
30
0.0
11
4330.090000000000
21
8152.630000000000
31
0.0
0
LINE
5
42e
100
AcDbEntity
8
1-0
6
CONTINUOUS
62
4
100
AcDbLine
10
4510.360000000000
20
13416.809999999999
30
0.0
11
4689.580000000000
21
13058.410000000000
31
0.0
0
LINE
5
42f
100
AcDbEntity
8
1-0
6
CONTINUOUS
62
4
100
AcDbLine
10
12452.340000000000
20
6820.370000000000
30
0.0
11
12452.340000000000
21
6920.370000000000
31
0.0
0
LINE
5
430
100
AcDbEntity
8
1-0
6
CONTINUOUS
62
4
100
AcDbLine
10
12452.340000000000
20
6880.370000000000
30
0.0
11
17452.340000000000
21
6880.370000000000
31
0.0
0
LINE
5
431
100
AcDbEntity
8
1-0
6
CONTINUOUS
62
4
100
AcDbLine
10
16452.340000000000
20
6820.370000000000
30
0.0
11
16452.340000000000
21
6920.370000000000
31
0.0
0
LINE
5
432
100
AcDbEntity
8
1-0
6
CONTINUOUS
62
4
100
AcDbLine
10
17452.340000000000
20
6820.370000000000
30
0.0
11
17452.340000000000
21
6920.360000000000
31
0.0
0
LINE
5
433
100
AcDbEntity
8
1-0
6
CONTINUOUS
62
4
100
AcDbLine
10
12852.340000000000
20
6820.370000000000
30
0.0
11
12852.340000000000
21
6878.490000000000
31
0.0
0
LINE
5
434
100
AcDbEntity
8
1-0
6
CONTINUOUS
62
4
100
AcDbLine
10
15452.340000000000
20
6820.370000000000
30
0.0
11
15452.340000000000
21
6920.370000000000
31
0.0
0
LINE
5
435
100
AcDbEntity
8
1-0
6
CONTINUOUS
62
4
100
AcDbLine
10
16952.340000000000
20
6820.370000000000
30
0.0
11
16952.340000000000
21
6901.080000000000
31
0.0
0
LINE
5
436
100
AcDbEntity
8
1-0
6
CONTINUOUS
62
4
100
AcDbLine
10
14952.340000000000
20
6820.370000000000
30
0.0
11
14952.340000000000
21
6901.080000000000
31
0.0
0
LINE
5
437
100
AcDbEntity
8
1-0
6
CONTINUOUS
62
4
100
AcDbLine
10
12952.340000000000
20
6820.370000000000
30
0.0
11
12952.340000000000
21
6901.080000000000
31
0.0
0
LINE
5
438
100
AcDbEntity
8
1-0
6
CONTINUOUS
62
4
100
AcDbLine
10
13952.340000000000
20
6820.370000000000
30
0.0
11
13952.340000000000
21
6901.080000000000
31
0.0
0
LINE
5
439
100
AcDbEntity
8
1-0
6
CONTINUOUS
62
4
100
AcDbLine
10
13352.340000000000
20
6820.370000000000
30
0.0
11
13352.340000000000
21
6881.720000000000
31
0.0
0
LINE
5
43a
100
AcDbEntity
8
1-0
6
CONTINUOUS
62
4
100
AcDbLine
10
14952.340000000000
20
6820.370000000000
30
0.0
11
14952.340000000000
21
6901.080000000000
31
0.0
0
LINE
5
43b
100
AcDbEntity
8
1-0
6
CONTINUOUS
62
4
100
AcDbLine
10
13252.340000000000
20
6820.370000000000
30
0.0
11
13252.340000000000
21
6880.100000000000
31
0.0
0
LINE
5
43c
100
AcDbEntity
8
1-0
6
CONTINUOUS
62
4
100
AcDbLine
10
12652.340000000000
20
6820.370000000000
30
0.0
11
12652.340000000000
21
6878.490000000000
31
0.0
0
LINE
5
43d
100
AcDbEntity
8
1-0
6
CONTINUOUS
62
4
100
AcDbLine
10
14952.340000000000
20
6820.370000000000
30
0.0
11
14952.340000000000
21
6901.080000000000
31
0.0
0
LINE
5
43e
100
AcDbEntity
8
1-0
6
CONTINUOUS
62
4
100
AcDbLine
10
13152.340000000000
20
6820.370000000000
30
0.0
11
13152.340000000000
21
6878.490000000000
31
0.0
0
LINE
5
43f
100
AcDbEntity
8
1-0
6
CONTINUOUS
62
4
100
AcDbLine
10
14452.340000000000
20
6820.370000000000
30
0.0
11
14452.340000000000
21
6920.370000000000
31
0.0
0
LINE
5
440
100
AcDbEntity
8
1-0
6
CONTINUOUS
62
4
100
AcDbLine
10
12452.340000000000
20
6820.370000000000
30
0.0
11
17452.340000000000
21
6820.370000000000
31
0.0
0
LINE
5
441
100
AcDbEntity
8
1-0
6
CONTINUOUS
62
4
100
AcDbLine
10
14952.340000000000
20
6820.370000000000
30
0.0
11
14952.340000000000
21
6901.080000000000
31
0.0
0
LINE
5
442
100
AcDbEntity
8
1-0
6
CONTINUOUS
62
4
100
AcDbLine
10
13452.340000000000
20
6820.370000000000
30
0.0
11
13452.340000000000
21
6920.370000000000
31
0.0
0
LINE
5
443
100
AcDbEntity
8
1-0
6
CONTINUOUS
62
4
100
AcDbLine
10
12552.340000000000
20
6820.370000000000
30
0.0
11
12552.340000000000
21
6878.490000000000
31
0.0
0
LINE
5
444
100
AcDbEntity
8
1-0
6
CONTINUOUS
62
4
100
AcDbLine
10
12752.340000000000
20
6820.370000000000
30
0.0
11
12752.340000000000
21
6880.100000000000
31
0.0
0
LINE
5
445
100
AcDbEntity
8
1-0
6
CONTINUOUS
62
4
100
AcDbLine
10
15452.340000000000
20
6820.370000000000
30
0.0
11
15452.340000000000
21
6920.370000000000
31
0.0
0
LINE
5
446
100
AcDbEntity
8
1-0
6
CONTINUOUS
62
4
100
AcDbLine
10
13052.340000000000
20
6820.370000000000
30
0.0
11
13052.340000000000
21
6876.870000000000
31
0.0
0
LINE
5
447
100
AcDbEntity
8
1-0
6
CONTINUOUS
62
4
100
AcDbLine
10
15952.340000000000
20
6820.370000000000
30
0.0
11
15952.340000000000
21
6901.080000000000
31
0.0
0
LINE
5
448
100
AcDbEntity
8
1-0
6
CONTINUOUS
62
4
100
AcDbLine
10
79907.080000000002
20
37648.489999999998
30
0.0
11
79785.350000000006
21
37374.300000000003
31
0.0
0
LINE
5
449
100
AcDbEntity
8
1-0
6
CONTINUOUS
62
4
100
AcDbLine
10
81576.979999999996
20
36989.029999999999
30
0.0
11
80891.520000000004
21
37293.410000000003
31
0.0
0
LINE
5
44a
100
AcDbEntity
8
1-0
6
CONTINUOUS
62
4
100
AcDbLine
10
81318.070000000007
20
37021.930000000000
30
0.0
11
81089.580000000002
21
37123.410000000003
31
0.0
0
LINE
5
44b
100
AcDbEntity
8
1-0
6
CONTINUOUS
62
4
100
AcDbLine
10
81203.809999999998
20
37072.669999999998
30
0.0
11
81046.059999999998
21
36717.360000000001
31
0.0
0
LINE
5
44c
100
AcDbEntity
8
1-0
6
CONTINUOUS
62
4
100
AcDbLine
10
80021.339999999997
20
37597.750000000000
30
0.0
11
79792.860000000001
21
37699.230000000003
31
0.0
0
LINE
5
44d
100
AcDbEntity
8
1-0
6
CONTINUOUS
62
4
100
AcDbLine
10
83178.110000000001
20
36278.010000000002
30
0.0
11
82492.660000000003
21
36582.389999999999
31
0.0
0
LINE
5
44e
100
AcDbEntity
8
1-0
6
CONTINUOUS
62
4
100
AcDbLine
10
82919.199999999997
20
36310.919999999998
30
0.0
11
82690.720000000001
21
36412.389999999999
31
0.0
0
LINE
5
44f
100
AcDbEntity
8
1-0
6
CONTINUOUS
62
4
100
AcDbLine
10
73445.630000000005
20
41906.470000000001
30
0.0
11
73252.179999999993
21
42064.839999999997
31
0.0
0
LINE
5
450
100
AcDbEntity
8
1-0
6
CONTINUOUS
62
4
100
AcDbLine
10
75838.809999999998
20
39899.419999999998
30
0.0
11
75539.169999999998
21
39547.519999999997
31
0.0
0
LINE
5
451
100
AcDbEntity
8
1-0
6
CONTINUOUS
62
4
100
AcDbLine
10
77368.110000000001
20
39054.279999999999
30
0.0
11
76717.020000000004
21
39426.519999999997
31
0.0
0
LINE
5
452
100
AcDbEntity
8
1-0
6
CONTINUOUS
62
4
100
AcDbLine
10
80280.250000000000
20
37564.839999999997
30
0.0
11
79594.800000000003
21
37869.230000000003
31
0.0
0
LINE
5
453
100
AcDbEntity
8
1-0
6
CONTINUOUS
62
4
100
AcDbLine
10
75934.000000000000
20
39818.379999999997
30
0.0
11
75743.660000000003
21
39980.459999999999
31
0.0
0
LINE
5
454
100
AcDbEntity
8
1-0
6
CONTINUOUS
62
4
100
AcDbLine
10
74638.619999999995
20
40921.419999999998
30
0.0
11
74269.089999999997
21
40487.449999999997
31
0.0
0
LINE
5
455
100
AcDbEntity
8
1-0
6
CONTINUOUS
62
4
100
AcDbLine
10
76216.720000000001
20
39764.790000000001
30
0.0
11
75645.699999999997
21
40251.050000000003
31
0.0
0
LINE
5
456
100
AcDbEntity
8
1-0
6
CONTINUOUS
62
4
100
AcDbLine
10
78401.830000000002
20
38299.190000000002
30
0.0
11
78184.789999999994
21
38423.269999999997
31
0.0
0
LINE
5
457
100
AcDbEntity
8
1-0
6
CONTINUOUS
62
4
100
AcDbLine
10
73348.889999999999
20
41985.669999999998
30
0.0
11
72987.830000000002
21
41544.610000000001
31
0.0
0
LINE
5
458
100
AcDbEntity
8
1-0
6
CONTINUOUS
62
4
100
AcDbLine
10
75016.520000000004
20
40786.800000000003
30
0.0
11
74445.509999999995
21
41273.050000000003
31
0.0
0
LINE
5
459
100
AcDbEntity
8
1-0
6
CONTINUOUS
62
4
100
AcDbLine
10
77080.369999999995
20
39054.650000000001
30
0.0
11
76863.320000000007
21
39178.739999999998
31
0.0
0
LINE
5
45a
100
AcDbEntity
8
1-0
6
CONTINUOUS
62
4
100
AcDbLine
10
72288.710000000006
20
43825.570000000000
30
0.0
11
72203.440000000002
21
44060.580000000002
31
0.0
0
LINE
5
45b
100
AcDbEntity
8
1-0
6
CONTINUOUS
62
4
100
AcDbLine
10
78689.589999999997
20
38298.820000000000
30
0.0
11
78038.490000000005
21
38671.059999999998
31
0.0
0
LINE
5
45c
100
AcDbEntity
8
1-0
6
CONTINUOUS
62
4
100
AcDbLine
10
74733.809999999998
20
40840.389999999999
30
0.0
11
74543.470000000001
21
41002.459999999999
31
0.0
0
LINE
5
45d
100
AcDbEntity
8
1-0
6
CONTINUOUS
62
4
100
AcDbLine
10
78293.320000000007
20
38361.230000000003
30
0.0
11
78110.270000000004
21
38041.070000000000
31
0.0
0
LINE
5
45e
100
AcDbEntity
8
1-0
6
CONTINUOUS
62
4
100
AcDbLine
10
72246.080000000002
20
43943.080000000002
30
0.0
11
71858.960000000006
21
43802.650000000001
31
0.0
0
LINE
5
45f
100
AcDbEntity
8
1-0
6
CONTINUOUS
62
4
100
AcDbLine
10
73729.320000000007
20
41858.370000000003
30
0.0
11
73149.000000000000
21
42333.459999999999
31
0.0
0
LINE
5
460
100
AcDbEntity
8
1-0
6
CONTINUOUS
62
4
100
AcDbLine
10
76971.839999999997
20
39116.690000000002
30
0.0
11
76688.940000000002
21
38621.849999999999
31
0.0
0
LINE
5
461
100
AcDbEntity
8
1-0
6
CONTINUOUS
62
4
100
AcDbLine
10
82804.940000000002
20
36361.660000000003
30
0.0
11
82624.979999999996
21
35956.309999999998
31
0.0
0
LINE
5
462
100
AcDbEntity
8
1-0
6
CONTINUOUS
62
3
100
AcDbLine
10
73031.470000000001
20
42613.820000000000
30
0.0
11
74566.509999999995
21
41357.169999999998
31
0.0
0
LINE
5
463
100
AcDbEntity
8
1-0
6
CONTINUOUS
62
3
100
AcDbLine
10
72250.679999999993
20
44766.070000000000
30
0.0
11
73031.470000000001
21
42613.820000000000
31
0.0
0
LINE
5
464
100
AcDbEntity
8
1-0
6
CONTINUOUS
62
3
100
AcDbLine
10
74566.509999999995
20
41357.169999999998
30
0.0
11
76485.820000000007
21
39722.830000000002
31
0.0
0
LINE
5
465
100
AcDbEntity
8
1-0
6
CONTINUOUS
62
3
100
AcDbLine
10
70632.910000000003
20
46549.519999999997
30
0.0
11
72250.679999999993
21
44766.070000000000
31
0.0
0
LINE
5
466
100
AcDbEntity
8
1-0
6
CONTINUOUS
62
3
100
AcDbLine
10
79246.500000000000
20
43557.089999999997
30
0.0
11
83714.580000000002
21
40928.980000000003
31
0.0
0
LINE
5
467
100
AcDbEntity
8
1-0
6
CONTINUOUS
62
3
100
AcDbLine
10
71698.500000000000
20
50848.559999999998
30
0.0
11
79246.500000000000
21
43557.089999999997
31
0.0
0
LINE
5
468
100
AcDbEntity
8
1-0
6
CONTINUOUS
62
3
100
AcDbLine
10
76485.820000000007
20
39722.830000000002
30
0.0
11
79549.240000000005
21
37971.519999999997
31
0.0
0
LINE
5
469
100
AcDbEntity
8
1-0
6
CONTINUOUS
62
3
100
AcDbLine
10
71048.990000000005
20
51486.870000000003
30
0.0
11
71698.500000000000
21
50848.559999999998
31
0.0
0
LINE
5
46a
100
AcDbEntity
8
1-0
6
CONTINUOUS
62
3
100
AcDbLine
10
79549.240000000005
20
37971.519999999997
30
0.0
11
83756.699999999997
21
36103.139999999999
31
0.0
0
LINE
5
46b
100
AcDbEntity
8
1-0
6
DASHED2
62
3
100
AcDbLine
10
69944.800000000003
20
47032.040000000001
30
0.0
11
71048.990000000005
21
51486.870000000003
31
0.0
0
LINE
5
46c
100
AcDbEntity
8
1-0
6
CONTINUOUS
62
3
100
AcDbLine
10
70632.910000000003
20
46549.519999999997
30
0.0
11
70721.169999999998
21
45387.750000000000
31
0.0
0
LINE
5
46d
100
AcDbEntity
8
1-0
6
CONTINUOUS
62
3
100
AcDbLine
10
70632.910000000003
20
46549.519999999997
30
0.0
11
69944.800000000003
21
47032.040000000001
31
0.0
0
LINE
5
46e
100
AcDbEntity
8
1-0
6
CONTINUOUS
62
3
100
AcDbLine
10
71698.500000000000
20
50848.559999999998
30
0.0
11
72796.610000000001
21
56018.790000000001
31
0.0
0
LINE
5
46f
100
AcDbEntity
8
1-0
6
CONTINUOUS
62
3
100
AcDbLine
10
72045.419999999998
20
56178.330000000002
30
0.0
11
71048.990000000005
21
51486.870000000003
31
0.0
0
LINE
5
470
100
AcDbEntity
8
1-0
6
CONTINUOUS
62
3
100
AcDbLine
10
72914.470000000001
20
41469.779999999999
30
0.0
11
75470.990000000005
21
39587.000000000000
31
0.0
0
LINE
5
471
100
AcDbEntity
8
1-0
6
CONTINUOUS
62
3
100
AcDbLine
10
70721.169999999998
20
45387.750000000000
30
0.0
11
71492.050000000003
21
44378.470000000001
31
0.0
0
LINE
5
472
100
AcDbEntity
8
1-0
6
DASHED2
62
3
100
AcDbLine
10
70632.910000000003
20
46549.519999999997
30
0.0
11
71809.940000000002
21
51298.250000000000
31
0.0
0
LINE
5
473
100
AcDbEntity
8
1-0
6
CONTINUOUS
62
3
100
AcDbLine
10
72135.899999999994
20
43368.040000000001
30
0.0
11
72914.470000000001
21
41469.779999999999
31
0.0
0
LINE
5
474
100
AcDbEntity
8
1-0
6
CONTINUOUS
62
3
100
AcDbLine
10
71492.050000000003
20
44378.470000000001
30
0.0
11
72135.899999999994
21
43368.040000000001
31
0.0
0
LINE
5
475
100
AcDbEntity
8
1-0
6
CONTINUOUS
62
3
100
AcDbLine
10
75470.990000000005
20
39587.000000000000
30
0.0
11
78279.279999999999
21
37960.440000000002
31
0.0
0
LINE
5
476
100
AcDbEntity
8
1-0
6
CONTINUOUS
62
4
100
AcDbLine
10
72507.919999999998
20
43639.150000000001
30
0.0
11
72252.149999999994
21
44344.199999999997
31
0.0
0
LINE
5
477
100
AcDbEntity
8
1-0
6
CONTINUOUS
62
4
100
AcDbLine
10
71602.210000000006
20
45268.870000000003
30
0.0
11
71098.339999999997
21
45824.370000000003
31
0.0
0
LINE
5
478
100
AcDbEntity
8
1-0
6
CONTINUOUS
62
3
100
AcDbLine
10
71885.779999999999
20
53578.510000000002
30
0.0
11
71854.020000000004
21
54211.129999999997
31
0.0
0
LINE
5
479
100
AcDbEntity
8
1-0
6
CONTINUOUS
62
3
100
AcDbLine
10
72415.020000000004
20
56070.360000000001
30
0.0
11
71885.779999999999
21
53578.510000000002
31
0.0
0
LINE
5
47a
100
AcDbEntity
8
1-0
6
CONTINUOUS
62
4
100
AcDbLine
10
71244.729999999996
20
45450.879999999997
30
0.0
11
70906.960000000006
21
45144.480000000003
31
0.0
0
LINE
5
47b
100
AcDbEntity
8
1-0
6
CONTINUOUS
62
4
100
AcDbLine
10
71328.720000000001
20
45358.300000000003
30
0.0
11
71160.750000000000
21
45543.470000000001
31
0.0
0
LINE
5
47c
100
AcDbEntity
8
1-0
6
CONTINUOUS
62
3
100
AcDbLine
10
78279.279999999999
20
37960.440000000002
30
0.0
11
83508.279999999999
21
35465.940000000002
31
0.0
0
LINE
5
47d
100
AcDbEntity
8
1-0
6
CONTINUOUS
62
3
100
AcDbLine
10
7088.930000000000
20
50378.379999999997
30
0.0
11
5945.920000000000
21
49489.370000000003
31
0.0
0
LINE
5
47e
100
AcDbEntity
8
1-0
6
CONTINUOUS
62
3
100
AcDbLine
10
37768.489999999998
20
52085.440000000002
30
0.0
11
32939.360000000001
21
52424.300000000003
31
0.0
0
LINE
5
47f
100
AcDbEntity
8
1-0
6
CONTINUOUS
62
3
100
AcDbLine
10
2643.920000000000
20
41742.360000000001
30
0.0
11
2337.540000000000
21
37419.820000000000
31
0.0
0
LINE
5
480
100
AcDbEntity
8
1-0
6
CONTINUOUS
62
4
100
AcDbLine
10
63276.739999999998
20
12441.090000000000
30
0.0
11
63209.940000000002
21
12406.959999999999
31
0.0
0
LINE
5
481
100
AcDbEntity
8
1-0
6
CONTINUOUS
62
4
100
AcDbLine
10
64719.830000000002
20
13031.610000000001
30
0.0
11
64645.790000000001
21
13019.549999999999
31
0.0
0
LINE
5
482
100
AcDbEntity
8
1-0
6
CONTINUOUS
62
3
100
AcDbLine
10
65104.610000000001
20
48640.849999999999
30
0.0
11
66376.779999999999
21
48397.940000000002
31
0.0
0
LINE
5
483
100
AcDbEntity
8
1-0
6
CONTINUOUS
62
3
100
AcDbLine
10
56451.199999999997
20
50597.400000000001
30
0.0
11
59633.820000000000
21
49736.169999999998
31
0.0
0
LINE
5
484
100
AcDbEntity
8
1-0
6
CONTINUOUS
62
3
100
AcDbLine
10
32939.360000000001
20
52424.300000000003
30
0.0
11
20423.930000000000
21
52664.349999999999
31
0.0
0
LINE
5
485
100
AcDbEntity
8
1-0
6
CONTINUOUS
62
4
100
AcDbLine
10
11302.549999999999
20
27716.939999999999
30
0.0
11
11902.530000000001
21
27722.689999999999
31
0.0
0
LINE
5
486
100
AcDbEntity
8
1-0
6
CONTINUOUS
62
3
100
AcDbLine
10
4802.920000000000
20
49743.370000000003
30
0.0
11
6580.930000000000
21
51775.379999999997
31
0.0
0
LINE
5
487
100
AcDbEntity
8
1-0
6
CONTINUOUS
62
3
100
AcDbLine
10
66899.160000000003
20
46751.459999999999
30
0.0
11
55322.629999999997
21
48936.510000000002
31
0.0
0
LINE
5
488
100
AcDbEntity
8
1-0
6
CONTINUOUS
62
4
100
AcDbLine
10
11601.090000000000
20
27869.820000000000
30
0.0
11
11598.940000000001
21
28094.810000000001
31
0.0
0
LINE
5
489
100
AcDbEntity
8
1-0
6
CONTINUOUS
62
4
100
AcDbLine
10
22405.230000000000
20
17110.169999999998
30
0.0
11
22064.889999999999
21
16815.770000000000
31
0.0
0
LINE
5
48a
100
AcDbEntity
8
1-0
6
CONTINUOUS
62
3
100
AcDbLine
10
54161.959999999999
20
50958.459999999999
30
0.0
11
56451.199999999997
21
50597.400000000001
31
0.0
0
LINE
5
48b
100
AcDbEntity
8
1-0
6
CONTINUOUS
62
4
100
AcDbLine
10
17598.720000000001
20
20991.250000000000
30
0.0
11
17079.889999999999
21
21292.610000000001
31
0.0
0
LINE
5
48c
100
AcDbEntity
8
1-0
6
CONTINUOUS
62
4
100
AcDbLine
10
22429.759999999998
20
17081.810000000001
30
0.0
11
22380.680000000000
21
17138.540000000001
31
0.0
0
LINE
5
48d
100
AcDbEntity
8
1-0
6
CONTINUOUS
62
4
100
AcDbLine
10
22828.380000000001
20
17079.580000000002
30
0.0
11
22435.840000000000
21
17533.349999999999
31
0.0
0
LINE
5
48e
100
AcDbEntity
8
1-0
6
CONTINUOUS
62
4
100
AcDbLine
10
28085.139999999999
20
12233.680000000000
30
0.0
11
28015.060000000001
21
12260.410000000000
31
0.0
0
LINE
5
48f
100
AcDbEntity
8
1-0
6
CONTINUOUS
62
4
100
AcDbLine
10
13154.910000000000
20
23319.509999999998
30
0.0
11
12631.480000000000
21
23612.799999999999
31
0.0
0
LINE
5
490
100
AcDbEntity
8
1-0
6
CONTINUOUS
62
3
100
AcDbLine
10
38008.080000000002
20
53738.570000000000
30
0.0
11
42077.480000000003
21
53139.089999999997
31
0.0
0
LINE
5
491
100
AcDbEntity
8
1-0
6
CONTINUOUS
62
4
100
AcDbLine
10
23918.490000000002
20
15590.219999999999
30
0.0
11
23771.270000000000
21
15760.379999999999
31
0.0
0
LINE
5
492
100
AcDbEntity
8
1-0
6
CONTINUOUS
62
4
100
AcDbLine
10
13159.700000000001
20
27876.560000000001
30
0.0
11
13756.480000000000
21
27938.590000000000
31
0.0
0
LINE
5
493
100
AcDbEntity
8
1-0
6
CONTINUOUS
62
4
100
AcDbLine
10
61806.940000000002
20
11390.450000000001
30
0.0
11
61747.330000000002
21
11344.930000000000
31
0.0
0
LINE
5
494
100
AcDbEntity
8
1-0
6
CONTINUOUS
62
4
100
AcDbLine
10
18464.349999999999
20
20140.160000000000
30
0.0
11
18399.560000000001
21
20177.980000000000
31
0.0
0
LINE
5
495
100
AcDbEntity
8
1-0
6
CONTINUOUS
62
4
100
AcDbLine
10
68729.320000000007
20
14040.340000000000
30
0.0
11
68508.830000000002
21
13995.459999999999
31
0.0
0
LINE
5
496
100
AcDbEntity
8
1-0
6
CONTINUOUS
62
3
100
AcDbLine
10
59633.820000000000
20
49736.169999999998
30
0.0
11
65104.610000000001
21
48640.849999999999
31
0.0
0
LINE
5
497
100
AcDbEntity
8
1-0
6
CONTINUOUS
62
4
100
AcDbLine
10
11563.600000000000
20
27869.450000000001
30
0.0
11
11638.600000000000
21
27870.169999999998
31
0.0
0
LINE
5
498
100
AcDbEntity
8
1-0
6
CONTINUOUS
62
4
100
AcDbLine
10
67314.369999999995
20
13752.370000000001
30
0.0
11
67093.880000000005
21
13707.490000000000
31
0.0
0
LINE
5
499
100
AcDbEntity
8
1-0
6
CONTINUOUS
62
4
100
AcDbLine
10
61775.489999999998
20
11555.180000000000
30
0.0
11
61596.669999999998
21
11418.620000000001
31
0.0
0
LINE
5
49a
100
AcDbEntity
8
1-0
6
CONTINUOUS
62
3
100
AcDbLine
10
5945.920000000000
20
49489.370000000003
30
0.0
11
2643.920000000000
21
41742.360000000001
31
0.0
0
LINE
5
49b
100
AcDbEntity
8
1-0
6
CONTINUOUS
62
4
100
AcDbLine
10
11489.320000000000
20
27793.740000000002
30
0.0
11
11714.309999999999
21
27795.889999999999
31
0.0
0
LINE
5
49c
100
AcDbEntity
8
1-0
6
CONTINUOUS
62
4
100
AcDbLine
10
63243.339999999997
20
12424.020000000000
30
0.0
11
63448.089999999997
21
12023.290000000001
31
0.0
0
LINE
5
49d
100
AcDbEntity
8
1-0
6
CONTINUOUS
62
4
100
AcDbLine
10
63275.279999999999
20
12608.790000000001
30
0.0
11
63074.919999999998
21
12506.410000000000
31
0.0
0
LINE
5
49e
100
AcDbEntity
8
1-0
6
CONTINUOUS
62
4
100
AcDbLine
10
14099.730000000000
20
22790.119999999999
30
0.0
11
13576.309999999999
21
23083.410000000000
31
0.0
0
LINE
5
49f
100
AcDbEntity
8
1-0
6
CONTINUOUS
62
4
100
AcDbLine
10
68893.110000000001
20
14175.709999999999
30
0.0
11
68305.160000000003
21
14056.049999999999
31
0.0
0
LINE
5
4a0
100
AcDbEntity
8
1-0
6
CONTINUOUS
62
4
100
AcDbLine
10
42649.529999999999
20
7625.390000000000
30
0.0
11
42576.290000000001
21
7181.390000000000
31
0.0
0
LINE
5
4a1
100
AcDbEntity
8
1-0
6
CONTINUOUS
62
4
100
AcDbLine
10
67260.809999999998
20
13639.410000000000
30
0.0
11
67187.309999999998
21
13624.459999999999
31
0.0
0
LINE
5
4a2
100
AcDbEntity
8
1-0
6
CONTINUOUS
62
4
100
AcDbLine
10
30421.540000000001
20
11342.860000000001
30
0.0
11
30351.450000000001
21
11369.590000000000
31
0.0
0
LINE
5
4a3
100
AcDbEntity
8
1-0
6
CONTINUOUS
62
4
100
AcDbLine
10
45147.050000000003
20
7570.180000000000
30
0.0
11
44550.470000000001
21
7634.280000000000
31
0.0
0
LINE
5
4a4
100
AcDbEntity
8
1-0
6
CONTINUOUS
62
4
100
AcDbLine
10
13899.500000000000
20
22816.330000000002
30
0.0
11
13703.209999999999
21
22926.320000000000
31
0.0
0
LINE
5
4a5
100
AcDbEntity
8
1-0
6
CONTINUOUS
62
4
100
AcDbLine
10
17221.049999999999
20
20863.669999999998
30
0.0
11
17156.189999999999
21
20901.340000000000
31
0.0
0
LINE
5
4a6
100
AcDbEntity
8
1-0
6
CONTINUOUS
62
4
100
AcDbLine
10
12852.600000000000
20
23316.959999999999
30
0.0
11
12787.150000000000
21
23353.630000000001
31
0.0
0
LINE
5
4a7
100
AcDbEntity
8
1-0
6
CONTINUOUS
62
4
100
AcDbLine
10
11781.170000000000
20
23916.430000000000
30
0.0
11
11669.840000000000
21
23720.889999999999
31
0.0
0
LINE
5
4a8
100
AcDbEntity
8
1-0
6
CONTINUOUS
62
4
100
AcDbLine
10
65325.940000000002
20
31567.590000000000
30
0.0
11
65482.720000000001
21
31823.360000000001
31
0.0
0
LINE
5
4a9
100
AcDbEntity
8
1-0
6
CONTINUOUS
62
4
100
AcDbLine
10
15285.200000000001
20
22335.090000000000
30
0.0
11
14766.370000000001
21
22636.450000000001
31
0.0
0
LINE
5
4aa
100
AcDbEntity
8
1-0
6
CONTINUOUS
62
4
100
AcDbLine
10
19815.849999999999
20
19524.919999999998
30
0.0
11
19621.529999999999
21
19638.360000000001
31
0.0
0
LINE
5
4ab
100
AcDbEntity
8
1-0
6
CONTINUOUS
62
4
100
AcDbLine
10
70007.059999999998
20
29304.740000000002
30
0.0
11
70080.240000000005
21
29288.340000000000
31
0.0
0
LINE
5
4ac
100
AcDbEntity
8
1-0
6
CONTINUOUS
62
4
100
AcDbLine
10
44854.019999999997
20
7299.930000000000
30
0.0
11
44779.430000000000
21
7307.940000000000
31
0.0
0
LINE
5
4ad
100
AcDbEntity
8
1-0
6
CONTINUOUS
62
4
100
AcDbLine
10
68639.020000000004
20
13919.900000000000
30
0.0
11
68698.850000000006
21
13625.920000000000
31
0.0
0
LINE
5
4ae
100
AcDbEntity
8
1-0
6
CONTINUOUS
62
4
100
AcDbLine
10
40451.470000000001
20
8139.940000000000
30
0.0
11
40229.470000000001
21
8176.570000000000
31
0.0
0
LINE
5
4af
100
AcDbEntity
8
1-0
6
CONTINUOUS
62
4
100
AcDbLine
10
14907.530000000001
20
22207.509999999998
30
0.0
11
14842.660000000000
21
22245.180000000000
31
0.0
0
LINE
5
4b0
100
AcDbEntity
8
1-0
6
CONTINUOUS
62
4
100
AcDbLine
10
14875.090000000000
20
22226.360000000001
30
0.0
11
14649.059999999999
21
21837.240000000002
31
0.0
0
LINE
5
4b1
100
AcDbEntity
8
1-0
6
CONTINUOUS
62
4
100
AcDbLine
10
13764.690000000001
20
22805.900000000001
30
0.0
11
13654.709999999999
21
22609.610000000001
31
0.0
0
LINE
5
4b2
100
AcDbEntity
8
1-0
6
CONTINUOUS
62
4
100
AcDbLine
10
28208.660000000000
20
12347.129999999999
30
0.0
11
27998.430000000000
21
12427.280000000001
31
0.0
0
LINE
5
4b3
100
AcDbEntity
8
1-0
6
CONTINUOUS
62
4
100
AcDbLine
10
21022.610000000001
20
18594.900000000001
30
0.0
11
20853.279999999999
21
18743.060000000001
31
0.0
0
LINE
5
4b4
100
AcDbEntity
8
1-0
6
CONTINUOUS
62
4
100
AcDbLine
10
15192.580000000000
20
29209.250000000000
30
0.0
11
15364.180000000000
21
29354.799999999999
31
0.0
0
LINE
5
4b5
100
AcDbEntity
8
1-0
6
CONTINUOUS
62
3
100
AcDbLine
10
42077.480000000003
20
53139.089999999997
30
0.0
11
49963.339999999997
21
51810.839999999997
31
0.0
0
LINE
5
4b6
100
AcDbEntity
8
1-0
6
CONTINUOUS
62
3
100
AcDbLine
10
11152.920000000000
20
52029.379999999997
30
0.0
11
7088.930000000000
21
50378.379999999997
31
0.0
0
LINE
5
4b7
100
AcDbEntity
8
1-0
6
CONTINUOUS
62
4
100
AcDbLine
10
15098.110000000001
20
29030.770000000000
30
0.0
11
15555.680000000000
21
29418.889999999999
31
0.0
0
LINE
5
4b8
100
AcDbEntity
8
1-0
6
CONTINUOUS
62
4
100
AcDbLine
10
12662.660000000000
20
27975.700000000001
30
0.0
11
12737.260000000000
21
27983.459999999999
31
0.0
0
LINE
5
4b9
100
AcDbEntity
8
1-0
6
CONTINUOUS
62
4
100
AcDbLine
10
4417.740000000000
20
29836.389999999999
30
0.0
11
4650.740000000000
21
30256.060000000001
31
0.0
0
LINE
5
4ba
100
AcDbEntity
8
1-0
6
CONTINUOUS
62
4
100
AcDbLine
10
3409.500000000000
20
30441.950000000001
30
0.0
11
3681.330000000000
21
30931.540000000001
31
0.0
0
LINE
5
4bb
100
AcDbEntity
8
1-0
6
CONTINUOUS
62
3
100
AcDbLine
10
2337.540000000000
20
34879.820000000000
30
0.0
11
3861.520000000000
21
31450.790000000001
31
0.0
0
LINE
5
4bc
100
AcDbEntity
8
1-0
6
CONTINUOUS
62
3
100
AcDbLine
10
9990.219999999999
20
27629.340000000000
30
0.0
11
6502.580000000000
21
28404.349999999999
31
0.0
0
LINE
5
4bd
100
AcDbEntity
8
1-0
6
CONTINUOUS
62
4
100
AcDbLine
10
58859.529999999999
20
9449.530000000001
30
0.0
11
58795.709999999999
21
9410.090000000000
31
0.0
0
LINE
5
4be
100
AcDbEntity
8
1-0
6
CONTINUOUS
62
4
100
AcDbLine
10
61833.459999999999
20
11788.200000000001
30
0.0
11
61356.610000000001
21
11424.020000000000
31
0.0
0
LINE
5
4bf
100
AcDbEntity
8
1-0
6
CONTINUOUS
62
4
100
AcDbLine
10
60273.980000000003
20
10323.719999999999
30
0.0
11
60510.570000000000
21
9940.940000000001
31
0.0
0
LINE
5
4c0
100
AcDbEntity
8
1-0
6
CONTINUOUS
62
3
100
AcDbLine
10
15018.639999999999
20
53918.989999999998
30
0.0
11
29620.849999999999
21
54300.440000000002
31
0.0
0
LINE
5
4c1
100
AcDbEntity
8
1-0
6
CONTINUOUS
62
4
100
AcDbLine
10
65898.830000000002
20
13375.530000000001
30
0.0
11
65947.029999999999
21
13079.410000000000
31
0.0
0
LINE
5
4c2
100
AcDbEntity
8
1-0
6
CONTINUOUS
62
3
100
AcDbLine
10
29620.849999999999
20
54300.440000000002
30
0.0
11
38008.080000000002
21
53738.570000000000
31
0.0
0
LINE
5
4c3
100
AcDbEntity
8
1-0
6
CONTINUOUS
62
3
100
AcDbLine
10
12733.809999999999
20
53772.019999999997
30
0.0
11
15018.639999999999
21
53918.989999999998
31
0.0
0
LINE
5
4c4
100
AcDbEntity
8
1-0
6
CONTINUOUS
62
3
100
AcDbLine
10
6580.930000000000
20
51775.379999999997
30
0.0
11
10958.100000000000
21
53502.550000000003
31
0.0
0
LINE
5
4c5
100
AcDbEntity
8
1-0
6
CONTINUOUS
62
3
100
AcDbLine
10
66376.779999999999
20
48397.940000000002
30
0.0
11
69944.800000000003
21
47032.040000000001
31
0.0
0
LINE
5
4c6
100
AcDbEntity
8
1-0
6
CONTINUOUS
62
3
100
AcDbLine
10
10958.100000000000
20
53502.550000000003
30
0.0
11
12733.809999999999
21
53772.019999999997
31
0.0
0
LINE
5
4c7
100
AcDbEntity
8
1-0
6
CONTINUOUS
62
3
100
AcDbLine
10
55322.629999999997
20
48936.510000000002
30
0.0
11
49978.879999999997
21
50032.919999999998
31
0.0
0
LINE
5
4c8
100
AcDbEntity
8
1-0
6
CONTINUOUS
62
4
100
AcDbLine
10
21262.490000000002
20
18584.310000000001
30
0.0
11
20810.939999999999
21
18979.419999999998
31
0.0
0
LINE
5
4c9
100
AcDbEntity
8
1-0
6
CONTINUOUS
62
4
100
AcDbLine
10
20839.169999999998
20
18556.099999999999
30
0.0
11
20542.840000000000
21
18217.430000000000
31
0.0
0
LINE
5
4ca
100
AcDbEntity
8
1-0
6
CONTINUOUS
62
4
100
AcDbLine
10
23755.980000000000
20
15548.790000000001
30
0.0
11
23706.889999999999
21
15605.520000000000
31
0.0
0
LINE
5
4cb
100
AcDbEntity
8
1-0
6
CONTINUOUS
62
4
100
AcDbLine
10
17361.230000000000
20
20955.709999999999
30
0.0
11
17166.669999999998
21
21068.709999999999
31
0.0
0
LINE
5
4cc
100
AcDbEntity
8
1-0
6
CONTINUOUS
62
4
100
AcDbLine
10
19643.080000000002
20
19452.090000000000
30
0.0
11
19416.230000000000
21
19063.470000000001
31
0.0
0
LINE
5
4cd
100
AcDbEntity
8
1-0
6
CONTINUOUS
62
4
100
AcDbLine
10
22592.270000000000
20
17123.240000000002
30
0.0
11
22445.049999999999
21
17293.400000000001
31
0.0
0
LINE
5
4ce
100
AcDbEntity
8
1-0
6
CONTINUOUS
62
4
100
AcDbLine
10
18604.730000000000
20
20231.889999999999
30
0.0
11
18410.410000000000
21
20345.330000000002
31
0.0
0
LINE
5
4cf
100
AcDbEntity
8
1-0
6
CONTINUOUS
62
4
100
AcDbLine
10
67478.160000000003
20
13887.750000000000
30
0.0
11
66890.210000000006
21
13768.090000000000
31
0.0
0
LINE
5
4d0
100
AcDbEntity
8
1-0
6
CONTINUOUS
62
4
100
AcDbLine
10
16209.320000000000
20
21624.820000000000
30
0.0
11
16014.750000000000
21
21737.830000000002
31
0.0
0
LINE
5
4d1
100
AcDbEntity
8
1-0
6
CONTINUOUS
62
4
100
AcDbLine
10
60305.889999999999
20
10343.450000000001
30
0.0
11
60242.080000000002
21
10304.010000000000
31
0.0
0
LINE
5
4d2
100
AcDbEntity
8
1-0
6
CONTINUOUS
62
3
100
AcDbLine
10
49963.339999999997
20
51810.839999999997
30
0.0
11
54161.959999999999
21
50958.459999999999
31
0.0
0
LINE
5
4d3
100
AcDbEntity
8
1-0
6
CONTINUOUS
62
3
100
AcDbLine
10
15978.920000000000
20
52410.389999999999
30
0.0
11
13311.930000000000
21
52156.360000000001
31
0.0
0
LINE
5
4d4
100
AcDbEntity
8
1-0
6
CONTINUOUS
62
4
100
AcDbLine
10
24154.599999999999
20
15546.559999999999
30
0.0
11
23762.049999999999
21
16000.330000000000
31
0.0
0
LINE
5
4d5
100
AcDbEntity
8
1-0
6
CONTINUOUS
62
3
100
AcDbLine
10
44128.209999999999
20
50997.889999999999
30
0.0
11
37768.489999999998
21
52085.440000000002
31
0.0
0
LINE
5
4d6
100
AcDbEntity
8
1-0
6
CONTINUOUS
62
4
100
AcDbLine
10
14583.290000000001
20
28692.450000000001
30
0.0
11
14754.889999999999
21
28838.000000000000
31
0.0
0
LINE
5
4d7
100
AcDbEntity
8
1-0
6
CONTINUOUS
62
4
100
AcDbLine
10
13971.309999999999
20
28271.689999999999
30
0.0
11
14028.520000000000
21
28320.209999999999
31
0.0
0
LINE
5
4d8
100
AcDbEntity
8
1-0
6
CONTINUOUS
62
3
100
AcDbLine
10
13311.930000000000
20
52156.360000000001
30
0.0
11
11152.920000000000
21
52029.379999999997
31
0.0
0
LINE
5
4d9
100
AcDbEntity
8
1-0
6
CONTINUOUS
62
4
100
AcDbLine
10
13962.629999999999
20
28165.980000000000
30
0.0
11
14134.230000000000
21
28311.529999999999
31
0.0
0
LINE
5
4da
100
AcDbEntity
8
1-0
6
CONTINUOUS
62
4
100
AcDbLine
10
12699.959999999999
20
27979.590000000000
30
0.0
11
12676.700000000001
21
28203.369999999999
31
0.0
0
LINE
5
4db
100
AcDbEntity
8
1-0
6
CONTINUOUS
62
4
100
AcDbLine
10
14620.590000000000
20
28822.419999999998
30
0.0
11
14475.030000000001
21
28994.009999999998
31
0.0
0
LINE
5
4dc
100
AcDbEntity
8
1-0
6
CONTINUOUS
62
4
100
AcDbLine
10
13999.920000000000
20
28295.950000000001
30
0.0
11
13854.370000000001
21
28467.540000000001
31
0.0
0
LINE
5
4dd
100
AcDbEntity
8
1-0
6
CONTINUOUS
62
4
100
AcDbLine
10
12595.809999999999
20
27893.349999999999
30
0.0
11
12819.610000000001
21
27916.619999999999
31
0.0
0
LINE
5
4de
100
AcDbEntity
8
1-0
6
CONTINUOUS
62
3
100
AcDbLine
10
20423.930000000000
20
52664.349999999999
30
0.0
11
15978.920000000000
21
52410.389999999999
31
0.0
0
LINE
5
4df
100
AcDbEntity
8
1-0
6
CONTINUOUS
62
4
100
AcDbLine
10
12417.070000000000
20
27799.369999999999
30
0.0
11
13013.850000000000
21
27861.389999999999
31
0.0
0
LINE
5
4e0
100
AcDbEntity
8
1-0
6
CONTINUOUS
62
3
100
AcDbLine
10
69314.279999999999
20
46518.519999999997
30
0.0
11
68679.320000000007
21
46512.989999999998
31
0.0
0
LINE
5
4e1
100
AcDbEntity
8
1-0
6
CONTINUOUS
62
3
100
AcDbLine
10
1067.520000000000
20
37038.779999999999
30
0.0
11
1500.930000000000
21
41996.389999999999
31
0.0
0
LINE
5
4e2
100
AcDbEntity
8
1-0
6
CONTINUOUS
62
3
100
AcDbLine
10
69944.800000000003
20
47032.040000000001
30
0.0
11
69314.279999999999
21
46518.519999999997
31
0.0
0
LINE
5
4e3
100
AcDbEntity
8
1-0
6
CONTINUOUS
62
3
100
AcDbLine
10
2897.930000000000
20
45171.349999999999
30
0.0
11
3405.930000000000
21
46568.349999999999
31
0.0
0
LINE
5
4e4
100
AcDbEntity
8
1-0
6
CONTINUOUS
62
4
100
AcDbLine
10
14591.980000000000
20
28798.160000000000
30
0.0
11
14649.180000000000
21
28846.689999999999
31
0.0
0
LINE
5
4e5
100
AcDbEntity
8
1-0
6
CONTINUOUS
62
3
100
AcDbLine
10
1500.930000000000
20
41996.389999999999
30
0.0
11
1881.930000000000
21
43520.379999999997
31
0.0
0
LINE
5
4e6
100
AcDbEntity
8
1-0
6
CONTINUOUS
62
4
100
AcDbLine
10
20053.400000000001
20
19559.959999999999
30
0.0
11
19535.230000000000
21
19862.430000000000
31
0.0
0
LINE
5
4e7
100
AcDbEntity
8
1-0
6
CONTINUOUS
62
3
100
AcDbLine
10
68679.320000000007
20
46512.989999999998
30
0.0
11
66899.160000000003
21
46751.459999999999
31
0.0
0
LINE
5
4e8
100
AcDbEntity
8
1-0
6
CONTINUOUS
62
4
100
AcDbLine
10
14488.830000000000
20
28513.970000000001
30
0.0
11
14946.389999999999
21
28902.090000000000
31
0.0
0
LINE
5
4e9
100
AcDbEntity
8
1-0
6
CONTINUOUS
62
3
100
AcDbLine
10
1881.930000000000
20
43520.379999999997
30
0.0
11
2897.930000000000
21
45171.349999999999
31
0.0
0
LINE
5
4ea
100
AcDbEntity
8
1-0
6
CONTINUOUS
62
4
100
AcDbLine
10
13868.160000000000
20
27987.490000000002
30
0.0
11
14325.730000000000
21
28375.619999999999
31
0.0
0
LINE
5
4eb
100
AcDbEntity
8
1-0
6
CONTINUOUS
62
4
100
AcDbLine
10
66630.990000000005
20
30533.090000000000
30
0.0
11
67142.539999999994
21
30219.549999999999
31
0.0
0
LINE
5
4ec
100
AcDbEntity
8
1-0
6
CONTINUOUS
62
4
100
AcDbLine
10
68430.779999999999
20
29811.790000000001
30
0.0
11
68496.389999999999
21
30104.529999999999
31
0.0
0
LINE
5
4ed
100
AcDbEntity
8
1-0
6
CONTINUOUS
62
4
100
AcDbLine
10
60290.809999999998
20
10510.469999999999
30
0.0
11
60099.419999999998
21
10392.170000000000
31
0.0
0
LINE
5
4ee
100
AcDbEntity
8
1-0
6
CONTINUOUS
62
4
100
AcDbLine
10
40353.070000000000
20
8004.160000000000
30
0.0
11
40279.050000000003
21
8016.360000000000
31
0.0
0
LINE
5
4ef
100
AcDbEntity
8
1-0
6
CONTINUOUS
62
4
100
AcDbLine
10
69946.550000000003
20
14326.209999999999
30
0.0
11
69730.020000000004
21
14265.110000000001
31
0.0
0
LINE
5
4f0
100
AcDbEntity
8
1-0
6
CONTINUOUS
62
4
100
AcDbLine
10
63268.440000000002
20
32659.980000000000
30
0.0
11
63767.120000000003
21
32326.320000000000
31
0.0
0
LINE
5
4f1
100
AcDbEntity
8
1-0
6
CONTINUOUS
62
4
100
AcDbLine
10
53040.309999999998
20
7334.920000000000
30
0.0
11
52966.320000000000
21
7322.560000000000
31
0.0
0
LINE
5
4f2
100
AcDbEntity
8
1-0
6
CONTINUOUS
62
4
100
AcDbLine
10
68394.190000000002
20
29819.980000000000
30
0.0
11
68467.389999999999
21
29803.580000000002
31
0.0
0
LINE
5
4f3
100
AcDbEntity
8
1-0
6
CONTINUOUS
62
4
100
AcDbLine
10
64965.650000000001
20
31553.840000000000
30
0.0
11
65477.199999999997
21
31240.299999999999
31
0.0
0
LINE
5
4f4
100
AcDbEntity
8
1-0
6
CONTINUOUS
62
4
100
AcDbLine
10
66959.320000000007
20
30566.430000000000
30
0.0
11
67023.270000000004
21
30527.230000000000
31
0.0
0
LINE
5
4f5
100
AcDbEntity
8
1-0
6
CONTINUOUS
62
4
100
AcDbLine
10
37969.709999999999
20
8464.930000000000
30
0.0
11
37809.400000000001
21
8044.450000000000
31
0.0
0
LINE
5
4f6
100
AcDbEntity
8
1-0
6
CONTINUOUS
62
4
100
AcDbLine
10
65293.980000000003
20
31587.180000000000
30
0.0
11
65357.919999999998
21
31547.980000000000
31
0.0
0
LINE
5
4f7
100
AcDbEntity
8
1-0
6
CONTINUOUS
62
4
100
AcDbLine
10
66991.279999999999
20
30546.830000000002
30
0.0
11
67148.059999999998
21
30802.599999999999
31
0.0
0
LINE
5
4f8
100
AcDbEntity
8
1-0
6
CONTINUOUS
62
4
100
AcDbLine
10
47271.809999999998
20
7191.030000000000
30
0.0
11
47048.099999999999
21
7215.060000000000
31
0.0
0
LINE
5
4f9
100
AcDbEntity
8
1-0
6
CONTINUOUS
62
4
100
AcDbLine
10
69851.880000000005
20
14247.549999999999
30
0.0
11
69892.589999999997
21
14103.190000000001
31
0.0
0
LINE
5
4fa
100
AcDbEntity
8
1-0
6
CONTINUOUS
62
4
100
AcDbLine
10
71631.050000000003
20
14749.549999999999
30
0.0
11
71558.850000000006
21
14729.180000000000
31
0.0
0
LINE
5
4fb
100
AcDbEntity
8
1-0
6
CONTINUOUS
62
4
100
AcDbLine
10
63493.779999999999
20
32659.599999999999
30
0.0
11
63680.800000000003
21
32534.480000000000
31
0.0
0
LINE
5
4fc
100
AcDbEntity
8
1-0
6
CONTINUOUS
62
4
100
AcDbLine
10
53089.589999999997
20
7495.210000000000
30
0.0
11
52867.660000000003
21
7458.180000000000
31
0.0
0
LINE
5
4fd
100
AcDbEntity
8
1-0
6
CONTINUOUS
62
4
100
AcDbLine
10
68675.759999999995
20
13927.370000000001
30
0.0
11
68602.270000000004
21
13912.420000000000
31
0.0
0
LINE
5
4fe
100
AcDbEntity
8
1-0
6
CONTINUOUS
62
4
100
AcDbLine
10
71856.520000000004
20
14917.059999999999
30
0.0
11
71279.070000000007
21
14754.129999999999
31
0.0
0
LINE
5
4ff
100
AcDbEntity
8
1-0
6
CONTINUOUS
62
4
100
AcDbLine
10
35571.830000000002
20
9379.170000000000
30
0.0
11
35411.529999999999
21
8958.700000000001
31
0.0
0
LINE
5
500
100
AcDbEntity
8
1-0
6
CONTINUOUS
62
4
100
AcDbLine
10
35730.400000000001
20
9479.250000000000
30
0.0
11
35520.169999999998
21
9559.410000000000
31
0.0
0
LINE
5
501
100
AcDbEntity
8
1-0
6
CONTINUOUS
62
4
100
AcDbLine
10
42994.349999999999
20
7872.560000000000
30
0.0
11
42402.339999999997
21
7970.220000000000
31
0.0
0
LINE
5
502
100
AcDbEntity
8
1-0
6
CONTINUOUS
62
4
100
AcDbLine
10
35606.879999999997
20
9365.799999999999
30
0.0
11
35536.800000000003
21
9392.540000000001
31
0.0
0
LINE
5
503
100
AcDbEntity
8
1-0
6
CONTINUOUS
62
4
100
AcDbLine
10
57332.650000000001
20
8505.830000000000
30
0.0
11
57268.839999999997
21
8466.389999999999
31
0.0
0
LINE
5
504
100
AcDbEntity
8
1-0
6
CONTINUOUS
62
4
100
AcDbLine
10
30545.060000000001
20
11456.299999999999
30
0.0
11
30334.820000000000
21
11536.459999999999
31
0.0
0
LINE
5
505
100
AcDbEntity
8
1-0
6
CONTINUOUS
62
4
100
AcDbLine
10
25604.959999999999
20
13612.110000000001
30
0.0
11
25549.220000000001
21
13662.309999999999
31
0.0
0
LINE
5
506
100
AcDbEntity
8
1-0
6
CONTINUOUS
62
4
100
AcDbLine
10
32662.529999999999
20
10488.420000000000
30
0.0
11
32592.450000000001
21
10515.160000000000
31
0.0
0
LINE
5
507
100
AcDbEntity
8
1-0
6
CONTINUOUS
62
4
100
AcDbLine
10
64682.809999999998
20
13025.580000000000
30
0.0
11
64755.110000000001
21
12581.430000000000
31
0.0
0
LINE
5
508
100
AcDbEntity
8
1-0
6
CONTINUOUS
62
4
100
AcDbLine
10
65935.850000000006
20
13381.549999999999
30
0.0
11
65861.809999999998
21
13369.500000000000
31
0.0
0
LINE
5
509
100
AcDbEntity
8
1-0
6
CONTINUOUS
62
4
100
AcDbLine
10
12954.680000000000
20
23345.720000000001
30
0.0
11
12758.389999999999
21
23455.709999999999
31
0.0
0
LINE
5
50a
100
AcDbEntity
8
1-0
6
CONTINUOUS
62
4
100
AcDbLine
10
15201.260000000000
20
29314.959999999999
30
0.0
11
15258.469999999999
21
29363.480000000000
31
0.0
0
LINE
5
50b
100
AcDbEntity
8
1-0
6
CONTINUOUS
62
4
100
AcDbLine
10
11813.770000000000
20
23897.880000000001
30
0.0
11
11748.580000000000
21
23934.990000000002
31
0.0
0
LINE
5
50c
100
AcDbEntity
8
1-0
6
CONTINUOUS
62
4
100
AcDbLine
10
12116.090000000000
20
23898.349999999999
30
0.0
11
11594.660000000000
21
24195.209999999999
31
0.0
0
LINE
5
50d
100
AcDbEntity
8
1-0
6
CONTINUOUS
62
4
100
AcDbLine
10
38128.279999999999
20
8565.010000000000
30
0.0
11
37918.040000000001
21
8645.160000000000
31
0.0
0
LINE
5
50e
100
AcDbEntity
8
1-0
6
CONTINUOUS
62
4
100
AcDbLine
10
60371.449999999997
20
10736.650000000000
30
0.0
11
59861.070000000000
21
10421.209999999999
31
0.0
0
LINE
5
50f
100
AcDbEntity
8
1-0
6
CONTINUOUS
62
3
100
AcDbLine
10
20677.910000000000
20
17612.389999999999
30
0.0
11
25411.430000000000
21
12733.110000000001
31
0.0
0
LINE
5
510
100
AcDbEntity
8
1-0
6
CONTINUOUS
62
3
100
AcDbLine
10
3405.930000000000
20
46568.349999999999
30
0.0
11
4802.920000000000
21
49743.370000000003
31
0.0
0
LINE
5
511
100
AcDbEntity
8
1-0
6
CONTINUOUS
62
4
100
AcDbLine
10
12819.870000000001
20
23335.290000000001
30
0.0
11
12709.879999999999
21
23139.000000000000
31
0.0
0
LINE
5
512
100
AcDbEntity
8
1-0
6
CONTINUOUS
62
4
100
AcDbLine
10
65993.809999999998
20
13492.299999999999
30
0.0
11
65771.720000000001
21
13456.150000000000
31
0.0
0
LINE
5
513
100
AcDbEntity
8
1-0
6
CONTINUOUS
62
4
100
AcDbLine
10
67224.070000000007
20
13631.930000000000
30
0.0
11
67283.899999999994
21
13337.959999999999
31
0.0
0
LINE
5
514
100
AcDbEntity
8
1-0
6
CONTINUOUS
62
4
100
AcDbLine
10
15047.709999999999
20
22299.549999999999
30
0.0
11
14853.150000000000
21
22412.560000000001
31
0.0
0
LINE
5
515
100
AcDbEntity
8
1-0
6
CONTINUOUS
62
3
100
AcDbLine
10
49978.879999999997
20
50032.919999999998
30
0.0
11
44128.209999999999
21
50997.889999999999
31
0.0
0
LINE
5
516
100
AcDbEntity
8
1-0
6
CONTINUOUS
62
4
100
AcDbLine
10
61777.129999999997
20
11367.700000000001
30
0.0
11
62050.260000000002
21
11010.059999999999
31
0.0
0
LINE
5
517
100
AcDbEntity
8
1-0
6
CONTINUOUS
62
4
100
AcDbLine
10
13442.590000000000
20
28056.779999999999
30
0.0
11
13419.320000000000
21
28280.570000000000
31
0.0
0
LINE
5
518
100
AcDbEntity
8
1-0
6
CONTINUOUS
62
4
100
AcDbLine
10
58827.620000000003
20
9429.799999999999
30
0.0
11
59064.199999999997
21
9047.020000000000
31
0.0
0
LINE
5
519
100
AcDbEntity
8
1-0
6
CONTINUOUS
62
4
100
AcDbLine
10
64769.739999999998
20
13191.700000000001
30
0.0
11
64547.660000000003
21
13155.549999999999
31
0.0
0
LINE
5
51a
100
AcDbEntity
8
1-0
6
CONTINUOUS
62
4
100
AcDbLine
10
64930.709999999999
20
13369.889999999999
30
0.0
11
64338.489999999998
21
13273.490000000000
31
0.0
0
LINE
5
51b
100
AcDbEntity
8
1-0
6
CONTINUOUS
62
4
100
AcDbLine
10
25761.070000000000
20
13673.379999999999
30
0.0
11
25593.900000000001
21
13823.969999999999
31
0.0
0
LINE
5
51c
100
AcDbEntity
8
1-0
6
CONTINUOUS
62
4
100
AcDbLine
10
15229.870000000001
20
29339.220000000001
30
0.0
11
15084.320000000000
21
29510.810000000001
31
0.0
0
LINE
5
51d
100
AcDbEntity
8
1-0
6
CONTINUOUS
62
4
100
AcDbLine
10
70043.649999999994
20
29296.529999999999
30
0.0
11
70076.460000000006
21
29442.910000000000
31
0.0
0
LINE
5
51e
100
AcDbEntity
8
1-0
6
CONTINUOUS
62
3
100
AcDbLine
10
45848.809999999998
20
23658.310000000001
30
0.0
11
44660.699999999997
21
23826.900000000001
31
0.0
0
LINE
5
51f
100
AcDbEntity
8
1-0
6
CONTINUOUS
62
4
100
AcDbLine
10
71594.949999999997
20
14739.360000000001
30
0.0
11
71635.660000000003
21
14594.990000000000
31
0.0
0
LINE
5
520
100
AcDbEntity
8
1-0
6
CONTINUOUS
62
4
100
AcDbLine
10
40660.889999999999
20
8257.440000000001
30
0.0
11
40068.870000000003
21
8355.090000000000
31
0.0
0
LINE
5
521
100
AcDbEntity
8
1-0
6
CONTINUOUS
62
4
100
AcDbLine
10
38004.760000000002
20
8451.560000000000
30
0.0
11
37934.669999999998
21
8478.290000000001
31
0.0
0
LINE
5
522
100
AcDbEntity
8
1-0
6
CONTINUOUS
62
4
100
AcDbLine
10
69729.050000000003
20
29264.580000000002
30
0.0
11
70314.529999999999
21
29133.349999999999
31
0.0
0
LINE
5
523
100
AcDbEntity
8
1-0
6
CONTINUOUS
62
4
100
AcDbLine
10
18842.279999999999
20
20266.930000000000
30
0.0
11
18324.110000000001
21
20569.400000000001
31
0.0
0
LINE
5
524
100
AcDbEntity
8
1-0
6
CONTINUOUS
62
4
100
AcDbLine
10
70113.440000000002
20
14425.250000000000
30
0.0
11
69535.990000000005
21
14262.320000000000
31
0.0
0
LINE
5
525
100
AcDbEntity
8
1-0
6
CONTINUOUS
62
4
100
AcDbLine
10
69922.949999999997
20
29272.360000000001
30
0.0
11
70142.500000000000
21
29223.150000000001
31
0.0
0
LINE
5
526
100
AcDbEntity
8
1-0
6
CONTINUOUS
62
4
100
AcDbLine
10
19675.470000000001
20
19433.189999999999
30
0.0
11
19610.680000000000
21
19471.009999999998
31
0.0
0
LINE
5
527
100
AcDbEntity
8
1-0
6
CONTINUOUS
62
4
100
AcDbLine
10
26000.790000000001
20
13659.350000000000
30
0.0
11
25554.959999999999
21
14060.900000000000
31
0.0
0
LINE
5
528
100
AcDbEntity
8
1-0
6
CONTINUOUS
62
4
100
AcDbLine
10
71689.619999999995
20
14818.010000000000
30
0.0
11
71473.100000000006
21
14756.920000000000
31
0.0
0
LINE
5
529
100
AcDbEntity
8
1-0
6
CONTINUOUS
62
4
100
AcDbLine
10
18431.959999999999
20
20159.060000000001
30
0.0
11
18205.099999999999
21
19770.439999999999
31
0.0
0
LINE
5
52a
100
AcDbEntity
8
1-0
6
CONTINUOUS
62
4
100
AcDbLine
10
23731.450000000001
20
15577.150000000000
30
0.0
11
23391.110000000001
21
15282.750000000000
31
0.0
0
LINE
5
52b
100
AcDbEntity
8
1-0
6
CONTINUOUS
62
4
100
AcDbLine
10
49368.430000000000
20
6814.900000000000
30
0.0
11
49293.849999999999
21
6822.910000000000
31
0.0
0
LINE
5
52c
100
AcDbEntity
8
1-0
6
CONTINUOUS
62
4
100
AcDbLine
10
17188.610000000001
20
20882.509999999998
30
0.0
11
16962.580000000002
21
20493.400000000001
31
0.0
0
LINE
5
52d
100
AcDbEntity
8
1-0
6
CONTINUOUS
62
4
100
AcDbLine
10
28437.299999999999
20
12420.490000000000
30
0.0
11
27876.660000000000
21
12634.240000000000
31
0.0
0
LINE
5
52e
100
AcDbEntity
8
1-0
6
CONTINUOUS
62
4
100
AcDbLine
10
32786.050000000003
20
10601.870000000001
30
0.0
11
32575.820000000000
21
10682.030000000001
31
0.0
0
LINE
5
52f
100
AcDbEntity
8
1-0
6
CONTINUOUS
62
3
100
AcDbLine
10
46067.230000000003
20
25197.639999999999
30
0.0
11
44879.120000000003
21
25366.220000000001
31
0.0
0
LINE
5
530
100
AcDbEntity
8
1-0
6
CONTINUOUS
62
4
100
AcDbLine
10
16446.799999999999
20
21660.360000000001
30
0.0
11
15927.969999999999
21
21961.720000000001
31
0.0
0
LINE
5
531
100
AcDbEntity
8
1-0
6
CONTINUOUS
62
3
100
AcDbLine
10
9990.219999999999
20
27629.340000000000
30
0.0
11
11660.930000000000
21
28153.369999999999
31
0.0
0
LINE
5
532
100
AcDbEntity
8
1-0
6
CONTINUOUS
62
3
100
AcDbLine
10
18010.919999999998
20
31328.360000000001
30
0.0
11
16118.160000000000
21
29797.660000000000
31
0.0
0
LINE
5
533
100
AcDbEntity
8
1-0
6
CONTINUOUS
62
4
100
AcDbLine
10
13797.420000000000
20
22787.570000000000
30
0.0
11
13731.980000000000
21
22824.240000000002
31
0.0
0
LINE
5
534
100
AcDbEntity
8
1-0
6
CONTINUOUS
62
4
100
AcDbLine
10
13405.290000000001
20
28052.889999999999
30
0.0
11
13479.889999999999
21
28060.660000000000
31
0.0
0
LINE
5
535
100
AcDbEntity
8
1-0
6
CONTINUOUS
62
4
100
AcDbLine
10
11916.049999999999
20
23925.939999999999
30
0.0
11
11720.500000000000
21
24037.270000000000
31
0.0
0
LINE
5
536
100
AcDbEntity
8
1-0
6
CONTINUOUS
62
4
100
AcDbLine
10
66162.789999999994
20
13621.110000000001
30
0.0
11
65570.600000000006
21
13524.709999999999
31
0.0
0
LINE
5
537
100
AcDbEntity
8
1-0
6
CONTINUOUS
62
4
100
AcDbLine
10
16036.690000000001
20
21551.630000000001
30
0.0
11
15810.670000000000
21
21162.509999999998
31
0.0
0
LINE
5
538
100
AcDbEntity
8
1-0
6
CONTINUOUS
62
4
100
AcDbLine
10
13338.440000000001
20
27970.540000000001
30
0.0
11
13562.240000000000
21
27993.810000000001
31
0.0
0
LINE
5
539
100
AcDbEntity
8
1-0
6
CONTINUOUS
62
4
100
AcDbLine
10
16069.129999999999
20
21532.779999999999
30
0.0
11
16004.270000000000
21
21570.459999999999
31
0.0
0
LINE
5
53a
100
AcDbEntity
8
1-0
6
CONTINUOUS
62
4
100
AcDbLine
10
2790.300000000000
20
31510.340000000000
30
0.0
11
3390.850000000000
21
31731.590000000000
31
0.0
0
LINE
5
53b
100
AcDbEntity
8
1-0
6
CONTINUOUS
62
3
100
AcDbLine
10
1067.520000000000
20
35260.800000000003
30
0.0
11
2845.530000000000
21
30434.799999999999
31
0.0
0
LINE
5
53c
100
AcDbEntity
8
1-0
6
CONTINUOUS
62
4
100
AcDbLine
10
1607.560000000000
20
34720.669999999998
30
0.0
11
2208.100000000000
21
34941.919999999998
31
0.0
0
LINE
5
53d
100
AcDbEntity
8
1-0
6
CONTINUOUS
62
4
100
AcDbLine
10
5302.700000000000
20
26248.619999999999
30
0.0
11
5184.540000000000
21
26269.459999999999
31
0.0
0
LINE
5
53e
100
AcDbEntity
8
1-0
6
CONTINUOUS
62
3
100
AcDbLine
10
3861.520000000000
20
31450.790000000001
30
0.0
11
6502.580000000000
21
28404.349999999999
31
0.0
0
LINE
5
53f
100
AcDbEntity
8
1-0
6
CONTINUOUS
62
4
100
AcDbLine
10
4312.820000000000
20
29894.639999999999
30
0.0
11
4522.660000000000
21
29778.160000000000
31
0.0
0
LINE
5
540
100
AcDbEntity
8
1-0
6
CONTINUOUS
62
3
100
AcDbLine
10
673.570000000000
20
25788.099999999999
30
0.0
11
5004.530000000000
21
25862.779999999999
31
0.0
0
LINE
5
541
100
AcDbEntity
8
1-0
6
CONTINUOUS
62
3
100
AcDbLine
10
9510.010000000000
20
25468.340000000000
30
0.0
11
11796.709999999999
21
24166.490000000002
31
0.0
0
LINE
5
542
100
AcDbEntity
8
1-0
6
CONTINUOUS
62
3
100
AcDbLine
10
9990.219999999999
20
27629.340000000000
30
0.0
11
9510.010000000000
21
25468.340000000000
31
0.0
0
LINE
5
543
100
AcDbEntity
8
1-0
6
CONTINUOUS
62
4
100
AcDbLine
10
1385.820000000000
20
36380.639999999999
30
0.0
11
2232.700000000000
21
36378.449999999997
31
0.0
0
LINE
5
544
100
AcDbEntity
8
1-0
6
CONTINUOUS
62
4
100
AcDbLine
10
1552.260000000000
20
34870.779999999999
30
0.0
11
1662.890000000000
21
34570.519999999997
31
0.0
0
LINE
5
545
100
AcDbEntity
8
1-0
6
CONTINUOUS
62
3
100
AcDbLine
10
2845.530000000000
20
30434.799999999999
30
0.0
11
6502.580000000000
21
28404.349999999999
31
0.0
0
LINE
5
546
100
AcDbEntity
8
1-0
6
CONTINUOUS
62
4
100
AcDbLine
10
5431.320000000000
20
26286.830000000002
30
0.0
11
5076.780000000000
21
26349.419999999998
31
0.0
0
LINE
5
547
100
AcDbEntity
8
1-0
6
CONTINUOUS
62
4
100
AcDbLine
10
4177.750000000000
20
26484.759999999998
30
0.0
11
3337.740000000000
21
26484.759999999998
31
0.0
0
LINE
5
548
100
AcDbEntity
8
1-0
6
CONTINUOUS
62
4
100
AcDbLine
10
1386.240000000000
20
36540.639999999999
30
0.0
11
1385.420000000000
21
36220.639999999999
31
0.0
0
LINE
5
549
100
AcDbEntity
8
1-0
6
CONTINUOUS
62
4
100
AcDbLine
10
3897.750000000000
20
26344.779999999999
30
0.0
11
3617.740000000000
21
26344.779999999999
31
0.0
0
LINE
5
54a
100
AcDbEntity
8
1-0
6
CONTINUOUS
62
3
100
AcDbLine
10
6020.520000000000
20
26243.790000000001
30
0.0
11
6500.980000000000
21
28405.750000000000
31
0.0
0
LINE
5
54b
100
AcDbEntity
8
1-0
6
CONTINUOUS
62
4
100
AcDbLine
10
5379.710000000000
20
29165.029999999999
30
0.0
11
5484.630000000000
21
29106.799999999999
31
0.0
0
LINE
5
54c
100
AcDbEntity
8
1-0
6
CONTINUOUS
62
4
100
AcDbLine
10
1227.060000000000
20
36861.050000000003
30
0.0
11
1224.580000000000
21
35901.059999999998
31
0.0
0
LINE
5
54d
100
AcDbEntity
8
1-0
6
CONTINUOUS
62
4
100
AcDbLine
10
2974.350000000000
20
30523.400000000001
30
0.0
11
3708.750000000000
21
30115.650000000001
31
0.0
0
LINE
5
54e
100
AcDbEntity
8
1-0
6
CONTINUOUS
62
4
100
AcDbLine
10
1991.010000000000
20
26344.779999999999
30
0.0
11
1991.010000000000
21
25784.779999999999
31
0.0
0
LINE
5
54f
100
AcDbEntity
8
1-0
6
CONTINUOUS
62
4
100
AcDbLine
10
3757.730000000000
20
26344.779999999999
30
0.0
11
3757.730000000000
21
25784.779999999999
31
0.0
0
LINE
5
550
100
AcDbEntity
8
1-0
6
CONTINUOUS
62
3
100
AcDbLine
10
3861.520000000000
20
26624.779999999999
30
0.0
11
6020.520000000000
21
26243.790000000001
31
0.0
0
LINE
5
551
100
AcDbEntity
8
1-0
6
CONTINUOUS
62
4
100
AcDbLine
10
2410.990000000000
20
26484.759999999998
30
0.0
11
1571.000000000000
21
26484.759999999998
31
0.0
0
LINE
5
552
100
AcDbEntity
8
1-0
6
CONTINUOUS
62
3
100
AcDbLine
10
6020.520000000000
20
26243.790000000001
30
0.0
11
9510.010000000000
21
25468.340000000000
31
0.0
0
LINE
5
553
100
AcDbEntity
8
1-0
6
CONTINUOUS
62
4
100
AcDbLine
10
1854.050000000000
20
33588.800000000003
30
0.0
11
2185.930000000000
21
32687.980000000000
31
0.0
0
LINE
5
554
100
AcDbEntity
8
1-0
6
CONTINUOUS
62
3
100
AcDbLine
10
9510.010000000000
20
25468.340000000000
30
0.0
11
11862.549999999999
21
23449.790000000001
31
0.0
0
LINE
5
555
100
AcDbEntity
8
1-0
6
CONTINUOUS
62
4
100
AcDbLine
10
2735.000000000000
20
31660.480000000000
30
0.0
11
2845.630000000000
21
31360.220000000001
31
0.0
0
LINE
5
556
100
AcDbEntity
8
1-0
6
CONTINUOUS
62
4
100
AcDbLine
10
5432.170000000000
20
29135.919999999998
30
0.0
11
5548.670000000000
21
29345.720000000001
31
0.0
0
LINE
5
557
100
AcDbEntity
8
1-0
6
CONTINUOUS
62
4
100
AcDbLine
10
2114.810000000000
20
33343.830000000002
30
0.0
11
2225.430000000000
21
33043.570000000000
31
0.0
0
LINE
5
558
100
AcDbEntity
8
1-0
6
CONTINUOUS
62
3
100
AcDbLine
10
2337.540000000000
20
37419.820000000000
30
0.0
11
2337.540000000000
21
34879.820000000000
31
0.0
0
LINE
5
559
100
AcDbEntity
8
1-0
6
CONTINUOUS
62
4
100
AcDbLine
10
1291.490000000000
20
35115.750000000000
30
0.0
11
1623.370000000000
21
34214.930000000000
31
0.0
0
LINE
5
55a
100
AcDbEntity
8
1-0
6
CONTINUOUS
62
4
100
AcDbLine
10
2170.120000000000
20
33193.720000000001
30
0.0
11
2770.660000000000
21
33414.970000000001
31
0.0
0
LINE
5
55b
100
AcDbEntity
8
1-0
6
CONTINUOUS
62
4
100
AcDbLine
10
3287.090000000000
20
30509.880000000001
30
0.0
11
3531.900000000000
21
30373.980000000000
31
0.0
0
LINE
5
55c
100
AcDbEntity
8
1-0
6
CONTINUOUS
62
4
100
AcDbLine
10
2474.230000000000
20
31905.450000000001
30
0.0
11
2806.110000000000
21
31004.630000000001
31
0.0
0
LINE
5
55d
100
AcDbEntity
8
1-0
6
CONTINUOUS
62
4
100
AcDbLine
10
5245.680000000000
20
29170.830000000002
30
0.0
11
5560.410000000000
21
28996.080000000002
31
0.0
0
LINE
5
55e
100
AcDbEntity
8
1-0
6
CONTINUOUS
62
3
100
AcDbLine
10
631.110000000000
20
26624.779999999999
30
0.0
11
3861.520000000000
21
26624.779999999999
31
0.0
0
LINE
5
55f
100
AcDbEntity
8
1-0
6
CONTINUOUS
62
4
100
AcDbLine
10
2131.000000000000
20
26344.779999999999
30
0.0
11
1851.000000000000
21
26344.779999999999
31
0.0
0
LINE
5
560
100
AcDbEntity
8
1-0
6
CONTINUOUS
62
3
100
AcDbLine
10
1067.520000000000
20
37038.779999999999
30
0.0
11
1062.850000000000
21
35231.220000000001
31
0.0
0
LINE
5
561
100
AcDbEntity
8
1-0
6
CONTINUOUS
62
3
100
AcDbLine
10
5004.530000000000
20
25862.779999999999
30
0.0
11
6020.520000000000
21
26243.790000000001
31
0.0
0
LINE
5
562
100
AcDbEntity
8
1-0
6
CONTINUOUS
62
4
100
AcDbLine
10
5243.600000000000
20
26259.020000000000
30
0.0
11
5201.920000000000
21
26022.700000000001
31
0.0
0
LINE
5
563
100
AcDbEntity
8
1-0
6
CONTINUOUS
62
4
100
AcDbLine
10
4044.750000000000
20
29906.240000000002
30
0.0
11
4674.220000000000
21
29556.720000000001
31
0.0
0
LINE
5
564
100
AcDbEntity
8
1-0
6
CONTINUOUS
62
3
100
AcDbLine
10
58468.959999999999
20
8576.440000000001
30
0.0
11
61247.339999999997
21
10378.740000000000
31
0.0
0
LINE
5
565
100
AcDbEntity
8
1-0
6
CONTINUOUS
62
3
100
AcDbLine
10
25140.799999999999
20
14635.820000000000
30
0.0
11
26676.950000000001
21
13252.190000000001
31
0.0
0
LINE
5
566
100
AcDbEntity
8
1-0
6
CONTINUOUS
62
3
100
AcDbLine
10
62751.330000000002
20
12677.969999999999
30
0.0
11
64015.739999999998
21
13324.000000000000
31
0.0
0
LINE
5
567
100
AcDbEntity
8
1-0
6
CONTINUOUS
62
3
100
AcDbLine
10
50478.239999999998
20
7363.640000000000
30
0.0
11
55297.410000000003
21
8167.750000000000
31
0.0
0
LINE
5
568
100
AcDbEntity
8
1-0
6
CONTINUOUS
62
3
100
AcDbLine
10
55297.410000000003
20
8167.750000000000
30
0.0
11
56564.040000000001
21
8559.810000000000
31
0.0
0
LINE
5
569
100
AcDbEntity
8
1-0
6
CONTINUOUS
62
3
100
AcDbLine
10
14200.920000000000
20
22819.389999999999
30
0.0
11
14782.160000000000
21
22800.740000000002
31
0.0
0
LINE
5
56a
100
AcDbEntity
8
1-0
6
CONTINUOUS
62
3
100
AcDbLine
10
56957.430000000000
20
36250.300000000003
30
0.0
11
49944.970000000001
21
39364.250000000000
31
0.0
0
LINE
5
56b
100
AcDbEntity
8
1-0
6
CONTINUOUS
62
3
100
AcDbLine
10
11796.709999999999
20
24166.490000000002
30
0.0
11
14200.920000000000
21
22819.389999999999
31
0.0
0
LINE
5
56c
100
AcDbEntity
8
1-0
6
CONTINUOUS
62
3
100
AcDbLine
10
18228.770000000000
20
20798.730000000000
30
0.0
11
20423.930000000000
21
19517.360000000001
31
0.0
0
LINE
5
56d
100
AcDbEntity
8
1-0
6
CONTINUOUS
62
3
100
AcDbLine
10
44251.040000000001
20
7817.310000000000
30
0.0
11
49717.370000000003
21
7230.000000000000
31
0.0
0
LINE
5
56e
100
AcDbEntity
8
1-0
6
CONTINUOUS
62
3
100
AcDbLine
10
48584.389999999999
20
6077.080000000000
30
0.0
11
49220.489999999998
21
5955.620000000000
31
0.0
0
LINE
5
56f
100
AcDbEntity
8
1-0
6
CONTINUOUS
62
3
100
AcDbLine
10
38400.400000000001
20
8782.310000000000
30
0.0
11
44251.040000000001
21
7817.310000000000
31
0.0
0
LINE
5
570
100
AcDbEntity
8
1-0
6
CONTINUOUS
62
3
100
AcDbLine
10
60732.739999999998
20
11136.280000000001
30
0.0
11
62751.330000000002
21
12677.969999999999
31
0.0
0
LINE
5
571
100
AcDbEntity
8
1-0
6
CONTINUOUS
62
3
100
AcDbLine
10
58217.190000000002
20
8320.240000000000
30
0.0
11
58468.959999999999
21
8576.440000000001
31
0.0
0
LINE
5
572
100
AcDbEntity
8
1-0
6
CONTINUOUS
62
3
100
AcDbLine
10
36307.720000000001
20
44833.430000000000
30
0.0
11
29322.980000000000
21
44772.459999999999
31
0.0
0
LINE
5
573
100
AcDbEntity
8
1-0
6
CONTINUOUS
62
3
100
AcDbLine
10
18453.490000000002
20
38708.370000000003
30
0.0
11
18645.930000000000
21
33233.389999999999
31
0.0
0
LINE
5
574
100
AcDbEntity
8
1-0
6
CONTINUOUS
62
3
100
AcDbLine
10
49717.370000000003
20
7230.000000000000
30
0.0
11
50478.239999999998
21
7363.640000000000
31
0.0
0
LINE
5
575
100
AcDbEntity
8
1-0
6
CONTINUOUS
62
3
100
AcDbLine
10
19280.930000000000
20
40345.389999999999
30
0.0
11
18453.490000000002
21
38708.370000000003
31
0.0
0
LINE
5
576
100
AcDbEntity
8
1-0
6
CONTINUOUS
62
3
100
AcDbLine
10
29322.980000000000
20
44772.459999999999
30
0.0
11
25652.310000000001
21
43343.379999999997
31
0.0
0
LINE
5
577
100
AcDbEntity
8
1-0
6
CONTINUOUS
62
3
100
AcDbLine
10
16105.920000000000
20
30058.400000000001
30
0.0
11
16416.410000000000
21
30038.860000000001
31
0.0
0
LINE
5
578
100
AcDbEntity
8
1-0
6
CONTINUOUS
62
3
100
AcDbLine
10
49220.489999999998
20
5955.620000000000
30
0.0
11
50617.430000000000
21
5967.830000000000
31
0.0
0
LINE
5
579
100
AcDbEntity
8
1-0
6
CONTINUOUS
62
3
100
AcDbLine
10
16118.160000000000
20
29797.660000000000
30
0.0
11
13848.870000000001
21
27872.790000000001
31
0.0
0
LINE
5
57a
100
AcDbEntity
8
1-0
6
CONTINUOUS
62
3
100
AcDbLine
10
31911.459999999999
20
10122.730000000000
30
0.0
11
37137.110000000001
21
8009.270000000000
31
0.0
0
LINE
5
57b
100
AcDbEntity
8
1-0
6
CONTINUOUS
62
3
100
AcDbLine
10
57205.660000000003
20
7803.370000000000
30
0.0
11
58217.190000000002
21
8320.240000000000
31
0.0
0
LINE
5
57c
100
AcDbEntity
8
1-0
6
CONTINUOUS
62
3
100
AcDbLine
10
46310.110000000001
20
22282.570000000000
30
0.0
11
46776.370000000003
21
25568.520000000000
31
0.0
0
LINE
5
57d
100
AcDbEntity
8
1-0
6
CONTINUOUS
62
3
100
AcDbLine
10
67937.740000000005
20
29614.860000000001
30
0.0
11
63851.720000000001
21
32119.320000000000
31
0.0
0
LINE
5
57e
100
AcDbEntity
8
1-0
6
CONTINUOUS
62
3
100
AcDbLine
10
82533.729999999996
20
16152.700000000001
30
0.0
11
82780.009999999995
21
17043.910000000000
31
0.0
0
LINE
5
57f
100
AcDbEntity
8
1-0
6
CONTINUOUS
62
3
100
AcDbLine
10
61041.209999999999
20
33999.839999999997
30
0.0
11
56957.430000000000
21
36250.300000000003
31
0.0
0
LINE
5
580
100
AcDbEntity
8
1-0
6
CONTINUOUS
62
3
100
AcDbLine
10
63851.720000000001
20
32119.320000000000
30
0.0
11
61041.209999999999
21
33999.839999999997
31
0.0
0
LINE
5
581
100
AcDbEntity
8
1-0
6
CONTINUOUS
62
3
100
AcDbLine
10
43834.900000000001
20
22633.750000000000
30
0.0
11
44301.139999999999
21
25919.709999999999
31
0.0
0
LINE
5
582
100
AcDbEntity
8
1-0
6
CONTINUOUS
62
3
100
AcDbLine
10
42743.430000000000
20
21847.720000000001
30
0.0
11
43476.699999999997
21
27015.490000000002
31
0.0
0
LINE
5
583
100
AcDbEntity
8
1-0
6
CONTINUOUS
62
3
100
AcDbLine
10
64015.739999999998
20
13324.000000000000
30
0.0
11
64522.620000000003
21
13455.430000000000
31
0.0
0
LINE
5
584
100
AcDbEntity
8
1-0
6
CONTINUOUS
62
3
100
AcDbLine
10
49944.970000000001
20
39364.250000000000
30
0.0
11
38729.489999999998
21
43838.519999999997
31
0.0
0
LINE
5
585
100
AcDbEntity
8
1-0
6
CONTINUOUS
62
3
100
AcDbLine
10
20423.930000000000
20
19517.360000000001
30
0.0
11
22455.930000000000
21
17739.369999999999
31
0.0
0
LINE
5
586
100
AcDbEntity
8
1-0
6
CONTINUOUS
62
3
100
AcDbLine
10
56564.040000000001
20
8559.810000000000
30
0.0
11
60732.739999999998
21
11136.280000000001
31
0.0
0
LINE
5
587
100
AcDbEntity
8
1-0
6
CONTINUOUS
62
3
100
AcDbLine
10
25652.310000000001
20
43343.379999999997
30
0.0
11
23879.930000000000
21
42692.919999999998
31
0.0
0
LINE
5
588
100
AcDbEntity
8
1-0
6
CONTINUOUS
62
3
100
AcDbLine
10
19534.919999999998
20
40599.389999999999
30
0.0
11
19280.930000000000
21
40345.389999999999
31
0.0
0
LINE
5
589
100
AcDbEntity
8
1-0
6
CONTINUOUS
62
3
100
AcDbLine
10
37137.110000000001
20
8009.270000000000
30
0.0
11
39682.540000000001
21
7396.440000000000
31
0.0
0
LINE
5
58a
100
AcDbEntity
8
1-0
6
CONTINUOUS
62
3
100
AcDbLine
10
14782.160000000000
20
22800.740000000002
30
0.0
11
18228.770000000000
21
20798.730000000000
31
0.0
0
LINE
5
58b
100
AcDbEntity
8
1-0
6
CONTINUOUS
62
3
100
AcDbLine
10
22455.930000000000
20
17739.369999999999
30
0.0
11
25140.799999999999
21
14635.820000000000
31
0.0
0
LINE
5
58c
100
AcDbEntity
8
1-0
6
CONTINUOUS
62
3
100
AcDbLine
10
70735.419999999998
20
14652.700000000001
30
0.0
11
72129.009999999995
21
15045.889999999999
31
0.0
0
LINE
5
58d
100
AcDbEntity
8
1-0
6
CONTINUOUS
62
3
100
AcDbLine
10
75536.539999999994
20
27640.189999999999
30
0.0
11
71755.350000000006
21
28759.150000000001
31
0.0
0
LINE
5
58e
100
AcDbEntity
8
1-0
6
CONTINUOUS
62
3
100
AcDbLine
10
81246.070000000007
20
18173.540000000001
30
0.0
11
79967.259999999995
21
19178.430000000000
31
0.0
0
LINE
5
58f
100
AcDbEntity
8
1-0
6
CONTINUOUS
62
3
100
AcDbLine
10
71755.350000000006
20
28759.150000000001
30
0.0
11
67937.740000000005
21
29614.860000000001
31
0.0
0
LINE
5
590
100
AcDbEntity
8
1-0
6
CONTINUOUS
62
3
100
AcDbLine
10
18645.930000000000
20
33233.389999999999
30
0.0
11
18010.919999999998
21
31328.360000000001
31
0.0
0
LINE
5
591
100
AcDbEntity
8
1-0
6
CONTINUOUS
62
4
100
AcDbLine
10
20867.400000000001
20
18531.389999999999
30
0.0
11
20810.939999999999
21
18580.790000000001
31
0.0
0
LINE
5
592
100
AcDbEntity
8
1-0
6
CONTINUOUS
62
3
100
AcDbLine
10
76361.490000000005
20
24862.200000000001
30
0.0
11
75536.539999999994
21
27640.189999999999
31
0.0
0
LINE
5
593
100
AcDbEntity
8
1-0
6
CONTINUOUS
62
3
100
AcDbLine
10
82780.009999999995
20
17043.910000000000
30
0.0
11
81246.070000000007
21
18173.540000000001
31
0.0
0
LINE
5
594
100
AcDbEntity
8
1-0
6
CONTINUOUS
62
3
100
AcDbLine
10
74919.600000000006
20
15451.250000000000
30
0.0
11
82533.729999999996
21
16152.700000000001
31
0.0
0
LINE
5
595
100
AcDbEntity
8
1-0
6
CONTINUOUS
62
3
100
AcDbLine
10
79967.259999999995
20
19178.430000000000
30
0.0
11
76361.490000000005
21
24862.200000000001
31
0.0
0
LINE
5
596
100
AcDbEntity
8
1-0
6
CONTINUOUS
62
3
100
AcDbLine
10
13848.870000000001
20
27872.790000000001
30
0.0
11
11660.930000000000
21
27645.380000000001
31
0.0
0
LINE
5
597
100
AcDbEntity
8
1-0
6
CONTINUOUS
62
3
100
AcDbLine
10
23879.930000000000
20
42692.919999999998
30
0.0
11
21820.919999999998
21
41869.379999999997
31
0.0
0
LINE
5
598
100
AcDbEntity
8
1-0
6
CONTINUOUS
62
3
100
AcDbLine
10
26676.950000000001
20
13252.190000000001
30
0.0
11
38400.400000000001
21
8782.310000000000
31
0.0
0
LINE
5
599
100
AcDbEntity
8
1-0
6
CONTINUOUS
62
3
100
AcDbLine
10
21820.919999999998
20
41869.379999999997
30
0.0
11
19534.919999999998
21
40599.389999999999
31
0.0
0
LINE
5
59a
100
AcDbEntity
8
1-0
6
CONTINUOUS
62
3
100
AcDbLine
10
25411.430000000000
20
12733.110000000001
30
0.0
11
31911.459999999999
21
10122.730000000000
31
0.0
0
LINE
5
59b
100
AcDbEntity
8
1-0
6
CONTINUOUS
62
4
100
AcDbLine
10
11120.760000000000
20
53351.730000000003
30
0.0
11
9632.430000000000
21
52764.449999999997
31
0.0
0
LINE
5
59c
100
AcDbEntity
8
1-0
6
CONTINUOUS
62
4
100
AcDbLine
10
68504.119999999995
20
46941.089999999997
30
0.0
11
68356.759999999995
21
46556.190000000002
31
0.0
0
LINE
5
59d
100
AcDbEntity
8
1-0
6
CONTINUOUS
62
4
100
AcDbLine
10
69394.259999999995
20
47028.650000000001
30
0.0
11
67899.990000000005
21
47600.680000000000
31
0.0
0
LINE
5
59e
100
AcDbEntity
8
1-0
6
CONTINUOUS
62
4
100
AcDbLine
10
16636.320000000000
20
53561.120000000003
30
0.0
11
16036.510000000000
21
53545.440000000002
31
0.0
0
LINE
5
59f
100
AcDbEntity
8
1-0
6
CONTINUOUS
62
4
100
AcDbLine
10
25457.330000000002
20
53991.610000000001
30
0.0
11
23857.880000000001
21
53949.820000000000
31
0.0
0
LINE
5
5a0
100
AcDbEntity
8
1-0
6
CONTINUOUS
62
4
100
AcDbLine
10
20091.470000000001
20
53851.449999999997
30
0.0
11
18492.020000000000
21
53809.650000000001
31
0.0
0
LINE
5
5a1
100
AcDbEntity
8
1-0
6
CONTINUOUS
62
4
100
AcDbLine
10
61650.989999999998
20
48924.370000000003
30
0.0
11
61062.660000000003
21
49042.160000000003
31
0.0
0
LINE
5
5a2
100
AcDbEntity
8
1-0
6
CONTINUOUS
62
4
100
AcDbLine
10
66415.779999999999
20
48186.879999999997
30
0.0
11
64844.169999999998
21
48486.980000000003
31
0.0
0
LINE
5
5a3
100
AcDbEntity
8
1-0
6
CONTINUOUS
62
4
100
AcDbLine
10
35460.400000000001
20
45201.040000000001
30
0.0
11
35457.139999999999
21
45576.019999999997
31
0.0
0
LINE
5
5a4
100
AcDbEntity
8
1-0
6
CONTINUOUS
62
4
100
AcDbLine
10
28080.110000000001
20
44530.019999999997
30
0.0
11
28150.009999999998
21
44557.239999999998
31
0.0
0
LINE
5
5a5
100
AcDbEntity
8
1-0
6
CONTINUOUS
62
4
100
AcDbLine
10
30406.450000000001
20
45006.919999999998
30
0.0
11
30404.490000000002
21
45231.910000000003
31
0.0
0
LINE
5
5a6
100
AcDbEntity
8
1-0
6
CONTINUOUS
62
4
100
AcDbLine
10
35162.589999999997
20
44948.440000000002
30
0.0
11
35762.580000000002
21
44953.669999999998
31
0.0
0
LINE
5
5a7
100
AcDbEntity
8
1-0
6
CONTINUOUS
62
4
100
AcDbLine
10
36890.830000000002
20
44864.160000000003
30
0.0
11
37098.970000000001
21
44778.650000000001
31
0.0
0
LINE
5
5a8
100
AcDbEntity
8
1-0
6
CONTINUOUS
62
4
100
AcDbLine
10
35422.910000000003
20
45200.720000000001
30
0.0
11
35497.910000000003
21
45201.360000000001
31
0.0
0
LINE
5
5a9
100
AcDbEntity
8
1-0
6
CONTINUOUS
62
4
100
AcDbLine
10
24505.099999999999
20
43002.230000000003
30
0.0
11
25068.360000000001
21
43208.959999999999
31
0.0
0
LINE
5
5aa
100
AcDbEntity
8
1-0
6
CONTINUOUS
62
4
100
AcDbLine
10
65653.179999999993
20
47925.269999999997
30
0.0
11
65456.720000000001
21
47962.790000000001
31
0.0
0
LINE
5
5ab
100
AcDbEntity
8
1-0
6
CONTINUOUS
62
4
100
AcDbLine
10
68855.800000000003
20
47020.620000000003
30
0.0
11
68295.440000000002
21
47235.139999999999
31
0.0
0
LINE
5
5ac
100
AcDbEntity
8
1-0
6
CONTINUOUS
62
4
100
AcDbLine
10
57164.870000000003
20
49782.699999999997
30
0.0
11
56971.790000000001
21
49834.949999999997
31
0.0
0
LINE
5
5ad
100
AcDbEntity
8
1-0
6
CONTINUOUS
62
4
100
AcDbLine
10
30294.599999999999
20
44930.930000000000
30
0.0
11
30519.599999999999
21
44932.900000000001
31
0.0
0
LINE
5
5ae
100
AcDbEntity
8
1-0
6
CONTINUOUS
62
4
100
AcDbLine
10
61415.629999999997
20
48767.529999999999
30
0.0
11
61219.510000000002
21
48806.790000000001
31
0.0
0
LINE
5
5af
100
AcDbEntity
8
1-0
6
CONTINUOUS
62
4
100
AcDbLine
10
10523.420000000000
20
52686.010000000002
30
0.0
11
10788.299999999999
21
52014.730000000003
31
0.0
0
LINE
5
5b0
100
AcDbEntity
8
1-0
6
CONTINUOUS
62
4
100
AcDbLine
10
54475.839999999997
20
37625.800000000003
30
0.0
11
54681.489999999998
21
37534.500000000000
31
0.0
0
LINE
5
5b1
100
AcDbEntity
8
1-0
6
CONTINUOUS
62
4
100
AcDbLine
10
28037.430000000000
20
44432.919999999998
30
0.0
11
28247.099999999999
21
44514.550000000003
31
0.0
0
LINE
5
5b2
100
AcDbEntity
8
1-0
6
CONTINUOUS
62
4
100
AcDbLine
10
48260.480000000003
20
40440.000000000000
30
0.0
11
48399.440000000002
21
40788.290000000001
31
0.0
0
LINE
5
5b3
100
AcDbEntity
8
1-0
6
CONTINUOUS
62
4
100
AcDbLine
10
48225.639999999999
20
40453.879999999997
30
0.0
11
48295.309999999998
21
40426.099999999999
31
0.0
0
LINE
5
5b4
100
AcDbEntity
8
1-0
6
CONTINUOUS
62
4
100
AcDbLine
10
10616.440000000001
20
52722.730000000003
30
0.0
11
10430.389999999999
21
52649.309999999998
31
0.0
0
LINE
5
5b5
100
AcDbEntity
8
1-0
6
CONTINUOUS
62
4
100
AcDbLine
10
24768.020000000000
20
53573.459999999999
30
0.0
11
24568.080000000002
21
53568.250000000000
31
0.0
0
LINE
5
5b6
100
AcDbEntity
8
1-0
6
CONTINUOUS
62
4
100
AcDbLine
10
13610.150000000000
20
53427.570000000000
30
0.0
11
13011.379999999999
21
53389.059999999998
31
0.0
0
LINE
5
5b7
100
AcDbEntity
8
1-0
6
CONTINUOUS
62
4
100
AcDbLine
10
24962.740000000002
20
53778.610000000001
30
0.0
11
24362.930000000000
21
53762.949999999997
31
0.0
0
LINE
5
5b8
100
AcDbEntity
8
1-0
6
CONTINUOUS
62
4
100
AcDbLine
10
27960.490000000002
20
53656.870000000003
30
0.0
11
27760.560000000001
21
53651.650000000001
31
0.0
0
LINE
5
5b9
100
AcDbEntity
8
1-0
6
CONTINUOUS
62
4
100
AcDbLine
10
13323.610000000001
20
53208.730000000003
30
0.0
11
13383.650000000000
21
52275.260000000002
31
0.0
0
LINE
5
5ba
100
AcDbEntity
8
1-0
6
CONTINUOUS
62
4
100
AcDbLine
10
61317.580000000002
20
48787.160000000003
30
0.0
11
61159.519999999997
21
47997.709999999999
31
0.0
0
LINE
5
5bb
100
AcDbEntity
8
1-0
6
CONTINUOUS
62
4
100
AcDbLine
10
13423.410000000000
20
53215.139999999999
30
0.0
11
13223.809999999999
21
53202.309999999998
31
0.0
0
LINE
5
5bc
100
AcDbEntity
8
1-0
6
CONTINUOUS
62
4
100
AcDbLine
10
16341.639999999999
20
53353.360000000001
30
0.0
11
16362.700000000001
21
52547.349999999999
31
0.0
0
LINE
5
5bd
100
AcDbEntity
8
1-0
6
CONTINUOUS
62
4
100
AcDbLine
10
16441.599999999999
20
53355.970000000001
30
0.0
11
16241.660000000000
21
53350.750000000000
31
0.0
0
LINE
5
5be
100
AcDbEntity
8
1-0
6
CONTINUOUS
62
4
100
AcDbLine
10
10729.080000000000
20
52982.169999999998
30
0.0
11
10170.940000000001
21
52761.940000000002
31
0.0
0
LINE
5
5bf
100
AcDbEntity
8
1-0
6
CONTINUOUS
62
4
100
AcDbLine
10
57410.169999999998
20
49923.510000000002
30
0.0
11
56830.989999999998
21
50080.250000000000
31
0.0
0
LINE
5
5c0
100
AcDbEntity
8
1-0
6
CONTINUOUS
62
4
100
AcDbLine
10
32754.099999999999
20
45102.430000000000
30
0.0
11
32829.099999999999
21
45103.059999999998
31
0.0
0
LINE
5
5c1
100
AcDbEntity
8
1-0
6
CONTINUOUS
62
4
100
AcDbLine
10
59517.680000000000
20
35267.580000000002
30
0.0
11
59583.370000000003
21
35231.389999999999
31
0.0
0
LINE
5
5c2
100
AcDbEntity
8
1-0
6
CONTINUOUS
62
4
100
AcDbLine
10
59550.519999999997
20
35249.489999999998
30
0.0
11
59731.519999999997
21
35577.919999999998
31
0.0
0
LINE
5
5c3
100
AcDbEntity
8
1-0
6
CONTINUOUS
62
4
100
AcDbLine
10
54253.750000000000
20
37587.660000000003
30
0.0
11
54802.120000000003
21
37344.150000000001
31
0.0
0
LINE
5
5c4
100
AcDbEntity
8
1-0
6
CONTINUOUS
62
4
100
AcDbLine
10
63656.809999999998
20
32700.919999999998
30
0.0
11
63865.349999999999
21
33012.599999999999
31
0.0
0
LINE
5
5c5
100
AcDbEntity
8
1-0
6
CONTINUOUS
62
4
100
AcDbLine
10
61322.489999999998
20
33987.559999999998
30
0.0
11
61847.989999999998
21
33697.970000000001
31
0.0
0
LINE
5
5c6
100
AcDbEntity
8
1-0
6
CONTINUOUS
62
4
100
AcDbLine
10
57342.139999999999
20
36466.459999999999
30
0.0
11
57523.139999999999
21
36794.879999999997
31
0.0
0
LINE
5
5c7
100
AcDbEntity
8
1-0
6
CONTINUOUS
62
4
100
AcDbLine
10
57183.279999999999
20
36411.279999999999
30
0.0
11
57380.349999999999
21
36302.690000000002
31
0.0
0
LINE
5
5c8
100
AcDbEntity
8
1-0
6
CONTINUOUS
62
4
100
AcDbLine
10
40369.260000000002
20
43453.529999999999
30
0.0
11
40578.239999999998
21
43370.150000000001
31
0.0
0
LINE
5
5c9
100
AcDbEntity
8
1-0
6
CONTINUOUS
62
4
100
AcDbLine
10
44656.570000000000
20
41877.720000000001
30
0.0
11
44726.239999999998
21
41849.940000000002
31
0.0
0
LINE
5
5ca
100
AcDbEntity
8
1-0
6
CONTINUOUS
62
4
100
AcDbLine
10
51537.000000000000
20
39067.599999999999
30
0.0
11
51689.190000000002
21
39410.330000000002
31
0.0
0
LINE
5
5cb
100
AcDbEntity
8
1-0
6
CONTINUOUS
62
4
100
AcDbLine
10
26355.790000000001
20
43858.709999999999
30
0.0
11
26274.169999999998
21
44068.389999999999
31
0.0
0
LINE
5
5cc
100
AcDbEntity
8
1-0
6
CONTINUOUS
62
4
100
AcDbLine
10
40520.059999999998
20
43527.949999999997
30
0.0
11
40659.019999999997
21
43876.239999999998
31
0.0
0
LINE
5
5cd
100
AcDbEntity
8
1-0
6
CONTINUOUS
62
4
100
AcDbLine
10
32493.360000000001
20
44900.139999999999
30
0.0
11
33093.330000000002
21
44905.370000000003
31
0.0
0
LINE
5
5ce
100
AcDbEntity
8
1-0
6
CONTINUOUS
62
4
100
AcDbLine
10
26278.169999999998
20
43748.000000000000
30
0.0
11
26487.840000000000
21
43829.620000000003
31
0.0
0
LINE
5
5cf
100
AcDbEntity
8
1-0
6
CONTINUOUS
62
4
100
AcDbLine
10
56958.730000000003
20
36392.300000000003
30
0.0
11
57484.230000000003
21
36102.720000000001
31
0.0
0
LINE
5
5d0
100
AcDbEntity
8
1-0
6
CONTINUOUS
62
4
100
AcDbLine
10
28115.049999999999
20
44543.629999999997
30
0.0
11
28033.430000000000
21
44753.309999999998
31
0.0
0
LINE
5
5d1
100
AcDbEntity
8
1-0
6
CONTINUOUS
62
4
100
AcDbLine
10
30107.770000000000
20
44854.300000000003
30
0.0
11
30707.750000000000
21
44859.540000000001
31
0.0
0
LINE
5
5d2
100
AcDbEntity
8
1-0
6
CONTINUOUS
62
4
100
AcDbLine
10
1661.740000000000
20
39242.989999999998
30
0.0
11
1609.480000000000
21
38645.269999999997
31
0.0
0
LINE
5
5d3
100
AcDbEntity
8
1-0
6
CONTINUOUS
62
4
100
AcDbLine
10
27889.919999999998
20
44295.010000000002
30
0.0
11
28449.029999999999
21
44512.690000000002
31
0.0
0
LINE
5
5d4
100
AcDbEntity
8
1-0
6
CONTINUOUS
62
4
100
AcDbLine
10
61547.040000000001
20
34006.540000000001
30
0.0
11
61744.110000000001
21
33897.940000000002
31
0.0
0
LINE
5
5d5
100
AcDbEntity
8
1-0
6
CONTINUOUS
62
4
100
AcDbLine
10
57309.309999999998
20
36484.550000000003
30
0.0
11
57374.989999999998
21
36448.360000000001
31
0.0
0
LINE
5
5d6
100
AcDbEntity
8
1-0
6
CONTINUOUS
62
4
100
AcDbLine
10
32679.970000000001
20
45001.760000000002
30
0.0
11
32904.959999999999
21
45003.739999999998
31
0.0
0
LINE
5
5d7
100
AcDbEntity
8
1-0
6
CONTINUOUS
62
4
100
AcDbLine
10
24699.820000000000
20
43233.500000000000
30
0.0
11
24770.250000000000
21
43259.349999999999
31
0.0
0
LINE
5
5d8
100
AcDbEntity
8
1-0
6
CONTINUOUS
62
4
100
AcDbLine
10
32791.589999999997
20
45102.750000000000
30
0.0
11
32788.980000000003
21
45402.730000000003
31
0.0
0
LINE
5
5d9
100
AcDbEntity
8
1-0
6
CONTINUOUS
62
3
100
AcDbLine
10
66171.339999999997
20
13723.840000000000
30
0.0
11
70735.419999999998
21
14652.700000000001
31
0.0
0
LINE
5
5da
100
AcDbEntity
8
1-0
6
CONTINUOUS
62
4
100
AcDbLine
10
63625.639999999999
20
32721.779999999999
30
0.0
11
63687.980000000003
21
32680.080000000002
31
0.0
0
LINE
5
5db
100
AcDbEntity
8
1-0
6
CONTINUOUS
62
3
100
AcDbLine
10
64522.620000000003
20
13455.430000000000
30
0.0
11
66171.339999999997
21
13723.840000000000
31
0.0
0
LINE
5
5dc
100
AcDbEntity
8
1-0
6
CONTINUOUS
62
3
100
AcDbLine
10
47139.830000000002
20
21223.910000000000
30
0.0
11
47873.089999999997
21
26391.680000000000
31
0.0
0
LINE
5
5dd
100
AcDbEntity
8
1-0
6
CONTINUOUS
62
3
100
AcDbLine
10
72129.009999999995
20
15045.889999999999
30
0.0
11
74919.600000000006
21
15451.250000000000
31
0.0
0
LINE
5
5de
100
AcDbEntity
8
1-0
6
CONTINUOUS
62
3
100
AcDbLine
10
47873.089999999997
20
26391.680000000000
30
0.0
11
43476.699999999997
21
27015.490000000002
31
0.0
0
LINE
5
5df
100
AcDbEntity
8
1-0
6
CONTINUOUS
62
3
100
AcDbLine
10
46776.370000000003
20
25568.520000000000
30
0.0
11
44301.139999999999
21
25919.709999999999
31
0.0
0
LINE
5
5e0
100
AcDbEntity
8
1-0
6
CONTINUOUS
62
3
100
AcDbLine
10
38729.489999999998
20
43838.519999999997
30
0.0
11
36307.720000000001
21
44833.430000000000
31
0.0
0
LINE
5
5e1
100
AcDbEntity
8
1-0
6
CONTINUOUS
62
4
100
AcDbLine
10
53097.529999999999
20
50766.389999999999
30
0.0
11
52509.500000000000
21
50885.779999999999
31
0.0
0
LINE
5
5e2
100
AcDbEntity
8
1-0
6
CONTINUOUS
62
4
100
AcDbLine
10
37007.699999999997
20
44951.269999999997
30
0.0
11
37077.080000000002
21
44922.769999999997
31
0.0
0
LINE
5
5e3
100
AcDbEntity
8
1-0
6
CONTINUOUS
62
4
100
AcDbLine
10
47860.300000000003
20
51556.610000000001
30
0.0
11
47663.070000000000
21
51589.830000000002
31
0.0
0
LINE
5
5e4
100
AcDbEntity
8
1-0
6
CONTINUOUS
62
4
100
AcDbLine
10
52763.720000000001
20
50630.089999999997
30
0.0
11
52567.180000000000
21
49662.010000000002
31
0.0
0
LINE
5
5e5
100
AcDbEntity
8
1-0
6
CONTINUOUS
62
4
100
AcDbLine
10
52861.739999999998
20
50610.190000000002
30
0.0
11
52665.720000000001
21
50649.980000000003
31
0.0
0
LINE
5
5e6
100
AcDbEntity
8
1-0
6
CONTINUOUS
62
4
100
AcDbLine
10
34808.160000000003
20
53552.040000000001
30
0.0
11
34209.500000000000
21
53592.150000000001
31
0.0
0
LINE
5
5e7
100
AcDbEntity
8
1-0
6
CONTINUOUS
62
4
100
AcDbLine
10
48617.010000000002
20
51834.800000000003
30
0.0
11
47039.230000000003
21
52100.550000000003
31
0.0
0
LINE
5
5e8
100
AcDbEntity
8
1-0
6
CONTINUOUS
62
4
100
AcDbLine
10
43049.400000000001
20
52569.750000000000
30
0.0
11
42457.730000000003
21
52669.419999999998
31
0.0
0
LINE
5
5e9
100
AcDbEntity
8
1-0
6
CONTINUOUS
62
4
100
AcDbLine
10
31155.040000000001
20
53596.300000000003
30
0.0
11
30955.470000000001
21
53609.669999999998
31
0.0
0
LINE
5
5ea
100
AcDbEntity
8
1-0
6
CONTINUOUS
62
4
100
AcDbLine
10
27860.529999999999
20
53654.260000000002
30
0.0
11
27884.779999999999
21
52726.160000000003
31
0.0
0
LINE
5
5eb
100
AcDbEntity
8
1-0
6
CONTINUOUS
62
4
100
AcDbLine
10
35320.419999999998
20
53718.169999999998
30
0.0
11
33723.980000000003
21
53825.120000000003
31
0.0
0
LINE
5
5ec
100
AcDbEntity
8
1-0
6
CONTINUOUS
62
4
100
AcDbLine
10
54595.120000000003
20
37709.620000000003
30
0.0
11
54663.680000000000
21
37679.160000000003
31
0.0
0
LINE
5
5ed
100
AcDbEntity
8
1-0
6
CONTINUOUS
62
4
100
AcDbLine
10
24655.270000000000
20
43137.239999999998
30
0.0
11
24866.500000000000
21
43214.779999999999
31
0.0
0
LINE
5
5ee
100
AcDbEntity
8
1-0
6
CONTINUOUS
62
4
100
AcDbLine
10
8068.820000000000
20
52147.480000000003
30
0.0
11
6580.490000000000
21
51560.209999999999
31
0.0
0
LINE
5
5ef
100
AcDbEntity
8
1-0
6
CONTINUOUS
62
4
100
AcDbLine
10
3642.260000000000
20
45462.550000000003
30
0.0
11
3573.900000000000
21
45274.570000000000
31
0.0
0
LINE
5
5f0
100
AcDbEntity
8
1-0
6
CONTINUOUS
62
4
100
AcDbLine
10
2208.510000000000
20
42352.800000000003
30
0.0
11
2790.590000000000
21
42207.269999999997
31
0.0
0
LINE
5
5f1
100
AcDbEntity
8
1-0
6
CONTINUOUS
62
4
100
AcDbLine
10
30368.939999999999
20
45006.610000000001
30
0.0
11
30443.950000000001
21
45007.239999999998
31
0.0
0
LINE
5
5f2
100
AcDbEntity
8
1-0
6
CONTINUOUS
62
4
100
AcDbLine
10
7677.140000000000
20
51777.910000000003
30
0.0
11
7119.000000000000
21
51557.690000000002
31
0.0
0
LINE
5
5f3
100
AcDbEntity
8
1-0
6
CONTINUOUS
62
4
100
AcDbLine
10
22784.189999999999
20
42335.440000000002
30
0.0
11
23341.290000000001
21
42558.260000000002
31
0.0
0
LINE
5
5f4
100
AcDbEntity
8
1-0
6
CONTINUOUS
62
4
100
AcDbLine
10
22065.750000000000
20
53702.949999999997
30
0.0
11
21465.939999999999
21
53687.279999999999
31
0.0
0
LINE
5
5f5
100
AcDbEntity
8
1-0
6
CONTINUOUS
62
4
100
AcDbLine
10
48090.730000000003
20
51720.620000000003
30
0.0
11
47499.070000000000
21
51820.290000000001
31
0.0
0
LINE
5
5f6
100
AcDbEntity
8
1-0
6
CONTINUOUS
62
4
100
AcDbLine
10
53627.309999999998
20
50862.930000000000
30
0.0
11
52059.309999999998
21
51181.250000000000
31
0.0
0
LINE
5
5f7
100
AcDbEntity
8
1-0
6
CONTINUOUS
62
4
100
AcDbLine
10
31055.259999999998
20
53602.989999999998
30
0.0
11
30994.230000000000
21
52692.239999999998
31
0.0
0
LINE
5
5f8
100
AcDbEntity
8
1-0
6
CONTINUOUS
62
4
100
AcDbLine
10
19302.200000000001
20
53430.690000000002
30
0.0
11
19321.290000000001
21
52700.120000000003
31
0.0
0
LINE
5
5f9
100
AcDbEntity
8
1-0
6
CONTINUOUS
62
4
100
AcDbLine
10
21771.070000000000
20
53495.190000000002
30
0.0
11
21790.070000000000
21
52767.980000000003
31
0.0
0
LINE
5
5fa
100
AcDbEntity
8
1-0
6
CONTINUOUS
62
4
100
AcDbLine
10
21871.029999999999
20
53497.790000000001
30
0.0
11
21671.090000000000
21
53492.580000000002
31
0.0
0
LINE
5
5fb
100
AcDbEntity
8
1-0
6
CONTINUOUS
62
4
100
AcDbLine
10
3608.080000000000
20
45368.550000000003
30
0.0
11
4135.360000000000
21
45176.809999999998
31
0.0
0
LINE
5
5fc
100
AcDbEntity
8
1-0
6
CONTINUOUS
62
4
100
AcDbLine
10
1506.040000000000
20
39758.510000000002
30
0.0
11
1366.700000000000
21
38164.589999999997
31
0.0
0
LINE
5
5fd
100
AcDbEntity
8
1-0
6
CONTINUOUS
62
4
100
AcDbLine
10
2087.230000000000
20
42692.339999999997
30
0.0
11
1941.710000000000
21
42110.250000000000
31
0.0
0
LINE
5
5fe
100
AcDbEntity
8
1-0
6
CONTINUOUS
62
4
100
AcDbLine
10
5161.360000000000
20
49068.199999999997
30
0.0
11
5080.810000000000
21
48885.120000000003
31
0.0
0
LINE
5
5ff
100
AcDbEntity
8
1-0
6
CONTINUOUS
62
4
100
AcDbLine
10
23007.029999999999
20
42586.129999999997
30
0.0
11
22923.480000000000
21
42795.040000000001
31
0.0
0
LINE
5
600
100
AcDbEntity
8
1-0
6
CONTINUOUS
62
4
100
AcDbLine
10
3505.550000000000
20
46257.089999999997
30
0.0
11
2958.770000000000
21
44753.410000000003
31
0.0
0
LINE
5
601
100
AcDbEntity
8
1-0
6
CONTINUOUS
62
4
100
AcDbLine
10
28155.209999999999
20
53862.019999999997
30
0.0
11
27555.400000000001
21
53846.349999999999
31
0.0
0
LINE
5
602
100
AcDbEntity
8
1-0
6
CONTINUOUS
62
4
100
AcDbLine
10
19402.160000000000
20
53433.300000000003
30
0.0
11
19202.220000000001
21
53428.070000000000
31
0.0
0
LINE
5
603
100
AcDbEntity
8
1-0
6
CONTINUOUS
62
4
100
AcDbLine
10
22972.209999999999
20
42572.199999999997
30
0.0
11
23041.849999999999
21
42600.059999999998
31
0.0
0
LINE
5
604
100
AcDbEntity
8
1-0
6
CONTINUOUS
62
4
100
AcDbLine
10
38356.910000000003
20
8638.370000000001
30
0.0
11
37796.279999999999
21
8852.120000000001
31
0.0
0
LINE
5
605
100
AcDbEntity
8
1-0
6
CONTINUOUS
62
4
100
AcDbLine
10
69887.979999999996
20
14257.740000000000
30
0.0
11
69815.779999999999
21
14237.370000000001
31
0.0
0
LINE
5
606
100
AcDbEntity
8
1-0
6
CONTINUOUS
62
4
100
AcDbLine
10
57300.750000000000
20
8486.100000000000
30
0.0
11
57537.330000000002
21
8103.320000000000
31
0.0
0
LINE
5
607
100
AcDbEntity
8
1-0
6
CONTINUOUS
62
4
100
AcDbLine
10
30386.490000000002
20
11356.219999999999
30
0.0
11
30226.180000000000
21
10935.750000000000
31
0.0
0
LINE
5
608
100
AcDbEntity
8
1-0
6
CONTINUOUS
62
4
100
AcDbLine
10
68094.309999999998
20
29682.240000000002
30
0.0
11
68679.779999999999
21
29551.020000000000
31
0.0
0
LINE
5
609
100
AcDbEntity
8
1-0
6
CONTINUOUS
62
4
100
AcDbLine
10
66843.110000000001
20
30520.360000000001
30
0.0
11
67034.949999999997
21
30402.779999999999
31
0.0
0
LINE
5
60a
100
AcDbEntity
8
1-0
6
CONTINUOUS
62
4
100
AcDbLine
10
68299.130000000005
20
29738.810000000001
30
0.0
11
68518.690000000002
21
29689.599999999999
31
0.0
0
LINE
5
60b
100
AcDbEntity
8
1-0
6
CONTINUOUS
62
4
100
AcDbLine
10
57317.580000000002
20
8672.860000000001
30
0.0
11
57126.190000000002
21
8554.560000000000
31
0.0
0
LINE
5
60c
100
AcDbEntity
8
1-0
6
CONTINUOUS
62
4
100
AcDbLine
10
58925.089999999997
20
9842.730000000000
30
0.0
11
58414.699999999997
21
9527.290000000001
31
0.0
0
LINE
5
60d
100
AcDbEntity
8
1-0
6
CONTINUOUS
62
4
100
AcDbLine
10
55804.250000000000
20
8010.580000000000
30
0.0
11
55589.309999999998
21
7944.050000000000
31
0.0
0
LINE
5
60e
100
AcDbEntity
8
1-0
6
CONTINUOUS
62
4
100
AcDbLine
10
55939.000000000000
20
8209.330000000000
30
0.0
11
55365.839999999997
21
8031.910000000000
31
0.0
0
LINE
5
60f
100
AcDbEntity
8
1-0
6
CONTINUOUS
62
4
100
AcDbLine
10
65177.760000000002
20
31541.110000000001
30
0.0
11
65369.610000000001
21
31423.529999999999
31
0.0
0
LINE
5
610
100
AcDbEntity
8
1-0
6
CONTINUOUS
62
4
100
AcDbLine
10
55776.959999999999
20
7845.110000000000
30
0.0
11
55705.300000000003
21
7822.940000000000
31
0.0
0
LINE
5
611
100
AcDbEntity
8
1-0
6
CONTINUOUS
62
4
100
AcDbLine
10
30773.689999999999
20
11529.670000000000
30
0.0
11
30213.049999999999
21
11743.410000000000
31
0.0
0
LINE
5
612
100
AcDbEntity
8
1-0
6
CONTINUOUS
62
4
100
AcDbLine
10
28050.090000000000
20
12247.049999999999
30
0.0
11
27889.779999999999
21
11826.570000000000
31
0.0
0
LINE
5
613
100
AcDbEntity
8
1-0
6
CONTINUOUS
62
4
100
AcDbLine
10
32627.480000000000
20
10501.790000000001
30
0.0
11
32467.169999999998
21
10081.320000000000
31
0.0
0
LINE
5
614
100
AcDbEntity
8
1-0
6
CONTINUOUS
62
4
100
AcDbLine
10
57398.220000000001
20
8899.040000000001
30
0.0
11
56887.830000000002
21
8583.590000000000
31
0.0
0
LINE
5
615
100
AcDbEntity
8
1-0
6
CONTINUOUS
62
4
100
AcDbLine
10
49661.459999999999
20
7085.150000000000
30
0.0
11
49064.889999999999
21
7149.250000000000
31
0.0
0
LINE
5
616
100
AcDbEntity
8
1-0
6
CONTINUOUS
62
4
100
AcDbLine
10
55741.129999999997
20
7834.040000000000
30
0.0
11
55874.190000000002
21
7404.150000000000
31
0.0
0
LINE
5
617
100
AcDbEntity
8
1-0
6
CONTINUOUS
62
4
100
AcDbLine
10
47143.949999999997
20
7053.920000000000
30
0.0
11
47095.870000000003
21
6606.480000000000
31
0.0
0
LINE
5
618
100
AcDbEntity
8
1-0
6
CONTINUOUS
62
4
100
AcDbLine
10
42686.529999999999
20
7619.280000000000
30
0.0
11
42612.510000000002
21
7631.490000000000
31
0.0
0
LINE
5
619
100
AcDbEntity
8
1-0
6
CONTINUOUS
62
4
100
AcDbLine
10
44944.589999999997
20
7441.060000000000
30
0.0
11
44720.879999999997
21
7465.090000000000
31
0.0
0
LINE
5
61a
100
AcDbEntity
8
1-0
6
CONTINUOUS
62
4
100
AcDbLine
10
33014.690000000002
20
10675.240000000000
30
0.0
11
32454.049999999999
21
10888.980000000000
31
0.0
0
LINE
5
61b
100
AcDbEntity
8
1-0
6
CONTINUOUS
62
4
100
AcDbLine
10
40316.070000000000
20
8010.260000000000
30
0.0
11
40242.820000000000
21
7566.260000000000
31
0.0
0
LINE
5
61c
100
AcDbEntity
8
1-0
6
CONTINUOUS
62
4
100
AcDbLine
10
35959.040000000001
20
9552.620000000001
30
0.0
11
35398.400000000001
21
9766.360000000001
31
0.0
0
LINE
5
61d
100
AcDbEntity
8
1-0
6
CONTINUOUS
62
4
100
AcDbLine
10
47181.239999999998
20
7049.900000000000
30
0.0
11
47106.650000000001
21
7057.910000000000
31
0.0
0
LINE
5
61e
100
AcDbEntity
8
1-0
6
CONTINUOUS
62
4
100
AcDbLine
10
58844.449999999997
20
9616.549999999999
30
0.0
11
58653.059999999998
21
9498.250000000000
31
0.0
0
LINE
5
61f
100
AcDbEntity
8
1-0
6
CONTINUOUS
62
4
100
AcDbLine
10
53003.330000000002
20
7328.740000000000
30
0.0
11
53077.379999999997
21
6884.880000000000
31
0.0
0
LINE
5
620
100
AcDbEntity
8
1-0
6
CONTINUOUS
62
4
100
AcDbLine
10
42784.940000000002
20
7755.070000000000
30
0.0
11
42562.940000000002
21
7791.690000000000
31
0.0
0
LINE
5
621
100
AcDbEntity
8
1-0
6
CONTINUOUS
62
4
100
AcDbLine
10
7471.480000000000
20
51481.760000000002
30
0.0
11
7748.920000000000
21
50778.650000000001
31
0.0
0
LINE
5
622
100
AcDbEntity
8
1-0
6
CONTINUOUS
62
4
100
AcDbLine
10
40485.220000000001
20
43541.830000000002
30
0.0
11
40554.900000000001
21
43514.050000000003
31
0.0
0
LINE
5
623
100
AcDbEntity
8
1-0
6
CONTINUOUS
62
4
100
AcDbLine
10
50995.160000000003
20
6993.670000000000
30
0.0
11
50921.169999999998
21
6981.310000000000
31
0.0
0
LINE
5
624
100
AcDbEntity
8
1-0
6
CONTINUOUS
62
4
100
AcDbLine
10
51044.440000000002
20
7153.970000000000
30
0.0
11
50822.510000000002
21
7116.930000000000
31
0.0
0
LINE
5
625
100
AcDbEntity
8
1-0
6
CONTINUOUS
62
4
100
AcDbLine
10
51204.709999999999
20
7332.780000000000
30
0.0
11
50612.879999999997
21
7234.030000000000
31
0.0
0
LINE
5
626
100
AcDbEntity
8
1-0
6
CONTINUOUS
62
4
100
AcDbLine
10
44816.720000000001
20
7303.950000000000
30
0.0
11
44768.639999999999
21
6856.510000000000
31
0.0
0
LINE
5
627
100
AcDbEntity
8
1-0
6
CONTINUOUS
62
4
100
AcDbLine
10
49459.010000000002
20
6956.030000000000
30
0.0
11
49235.300000000003
21
6980.060000000000
31
0.0
0
LINE
5
628
100
AcDbEntity
8
1-0
6
CONTINUOUS
62
3
100
AcDbLine
10
46310.110000000001
20
22282.570000000000
30
0.0
11
43834.900000000001
21
22633.750000000000
31
0.0
0
LINE
5
629
100
AcDbEntity
8
1-0
6
CONTINUOUS
62
4
100
AcDbLine
10
50958.169999999998
20
6987.490000000000
30
0.0
11
51032.220000000001
21
6543.630000000000
31
0.0
0
LINE
5
62a
100
AcDbEntity
8
1-0
6
CONTINUOUS
62
4
100
AcDbLine
10
47474.269999999997
20
7320.150000000000
30
0.0
11
46877.699999999997
21
7384.250000000000
31
0.0
0
LINE
5
62b
100
AcDbEntity
8
1-0
6
CONTINUOUS
62
4
100
AcDbLine
10
59167.110000000001
20
35175.330000000002
30
0.0
11
59692.610000000001
21
34885.750000000000
31
0.0
0
LINE
5
62c
100
AcDbEntity
8
1-0
6
CONTINUOUS
62
4
100
AcDbLine
10
48109.680000000000
20
40365.580000000002
30
0.0
11
48318.660000000003
21
40282.199999999997
31
0.0
0
LINE
5
62d
100
AcDbEntity
8
1-0
6
CONTINUOUS
62
4
100
AcDbLine
10
49331.139999999999
20
6818.910000000000
30
0.0
11
49283.059999999998
21
6371.480000000000
31
0.0
0
LINE
5
62e
100
AcDbEntity
8
1-0
6
CONTINUOUS
62
3
100
AcDbLine
10
45848.809999999998
20
23658.310000000001
30
0.0
11
46067.230000000003
21
25197.639999999999
31
0.0
0
LINE
5
62f
100
AcDbEntity
8
1-0
6
CONTINUOUS
62
3
100
AcDbLine
10
44660.699999999997
20
23826.900000000001
30
0.0
11
44879.120000000003
21
25366.220000000001
31
0.0
0
LINE
5
630
100
AcDbEntity
8
1-0
6
CONTINUOUS
62
4
100
AcDbLine
10
63374.000000000000
20
12827.670000000000
30
0.0
11
62839.690000000002
21
12554.680000000000
31
0.0
0
LINE
5
631
100
AcDbEntity
8
1-0
6
CONTINUOUS
62
3
100
AcDbLine
10
9990.219999999999
20
27629.340000000000
30
0.0
11
11660.930000000000
21
27645.380000000001
31
0.0
0
LINE
5
632
100
AcDbEntity
8
1-0
6
CONTINUOUS
62
4
100
AcDbLine
10
25577.099999999999
20
13637.209999999999
30
0.0
11
25275.919999999998
21
13302.850000000000
31
0.0
0
LINE
5
633
100
AcDbEntity
8
1-0
6
CONTINUOUS
62
4
100
AcDbLine
10
53249.860000000001
20
7674.030000000000
30
0.0
11
52658.029999999999
21
7575.280000000000
31
0.0
0
LINE
5
634
100
AcDbEntity
8
1-0
6
CONTINUOUS
62
4
100
AcDbLine
10
38526.870000000003
20
53055.669999999998
30
0.0
11
38328.989999999998
21
53084.830000000002
31
0.0
0
LINE
5
635
100
AcDbEntity
8
1-0
6
CONTINUOUS
62
4
100
AcDbLine
10
57945.050000000003
20
49985.970000000001
30
0.0
11
56400.599999999999
21
50403.910000000003
31
0.0
0
LINE
5
636
100
AcDbEntity
8
1-0
6
CONTINUOUS
62
4
100
AcDbLine
10
47761.680000000000
20
51573.230000000003
30
0.0
11
47599.339999999997
21
50609.349999999999
31
0.0
0
LINE
5
637
100
AcDbEntity
8
1-0
6
CONTINUOUS
62
4
100
AcDbLine
10
42720.349999999999
20
52422.379999999997
30
0.0
11
42558.620000000003
21
51462.150000000001
31
0.0
0
LINE
5
638
100
AcDbEntity
8
1-0
6
CONTINUOUS
62
4
100
AcDbLine
10
24668.060000000001
20
53570.849999999999
30
0.0
11
24689.939999999999
21
52733.290000000001
31
0.0
0
LINE
5
639
100
AcDbEntity
8
1-0
6
CONTINUOUS
62
4
100
AcDbLine
10
38427.930000000000
20
53070.239999999998
30
0.0
11
38291.190000000002
21
52142.139999999999
31
0.0
0
LINE
5
63a
100
AcDbEntity
8
1-0
6
CONTINUOUS
62
4
100
AcDbLine
10
31880.220000000001
20
53948.629999999997
30
0.0
11
30283.779999999999
21
54055.580000000002
31
0.0
0
LINE
5
63b
100
AcDbEntity
8
1-0
6
CONTINUOUS
62
4
100
AcDbLine
10
42818.970000000001
20
52405.750000000000
30
0.0
11
42621.730000000003
21
52438.970000000001
31
0.0
0
LINE
5
63c
100
AcDbEntity
8
1-0
6
CONTINUOUS
62
4
100
AcDbLine
10
57068.339999999997
20
49808.820000000000
30
0.0
11
56799.510000000002
21
48815.470000000001
31
0.0
0
LINE
5
63d
100
AcDbEntity
8
1-0
6
CONTINUOUS
62
4
100
AcDbLine
10
31367.959999999999
20
53782.489999999998
30
0.0
11
30769.299999999999
21
53822.599999999999
31
0.0
0
LINE
5
63e
100
AcDbEntity
8
1-0
6
CONTINUOUS
62
4
100
AcDbLine
10
43575.680000000000
20
52683.930000000000
30
0.0
11
41997.889999999999
21
52949.680000000000
31
0.0
0
LINE
5
63f
100
AcDbEntity
8
1-0
6
CONTINUOUS
62
4
100
AcDbLine
10
65887.139999999999
20
48084.199999999997
30
0.0
11
65297.779999999999
21
48196.750000000000
31
0.0
0
LINE
5
640
100
AcDbEntity
8
1-0
6
CONTINUOUS
62
4
100
AcDbLine
10
34595.239999999998
20
53365.860000000001
30
0.0
11
34395.669999999998
21
53379.220000000001
31
0.0
0
LINE
5
641
100
AcDbEntity
8
1-0
6
CONTINUOUS
62
4
100
AcDbLine
10
39277.690000000002
20
53349.389999999999
30
0.0
11
37694.769999999997
21
53582.570000000000
31
0.0
0
LINE
5
642
100
AcDbEntity
8
1-0
6
CONTINUOUS
62
4
100
AcDbLine
10
37042.400000000001
20
44937.019999999997
30
0.0
11
37184.900000000001
21
45283.900000000001
31
0.0
0
LINE
5
643
100
AcDbEntity
8
1-0
6
CONTINUOUS
62
4
100
AcDbLine
10
34495.470000000001
20
53372.529999999999
30
0.0
11
34436.989999999998
21
52500.010000000002
31
0.0
0
LINE
5
644
100
AcDbEntity
8
1-0
6
CONTINUOUS
62
4
100
AcDbLine
10
35348.989999999998
20
45075.059999999998
30
0.0
11
35574.000000000000
21
45077.040000000001
31
0.0
0
LINE
5
645
100
AcDbEntity
8
1-0
6
CONTINUOUS
62
4
100
AcDbLine
10
38753.889999999999
20
53224.389999999999
30
0.0
11
38160.269999999997
21
53311.839999999997
31
0.0
0
LINE
5
646
100
AcDbEntity
8
1-0
6
CONTINUOUS
62
4
100
AcDbLine
10
26130.660000000000
20
43610.080000000002
30
0.0
11
26689.770000000000
21
43827.769999999997
31
0.0
0
LINE
5
647
100
AcDbEntity
8
1-0
6
CONTINUOUS
62
4
100
AcDbLine
10
62180.529999999999
20
49022.330000000002
30
0.0
11
60611.660000000003
21
49336.440000000002
31
0.0
0
LINE
5
648
100
AcDbEntity
8
1-0
6
CONTINUOUS
62
4
100
AcDbLine
10
36669.900000000001
20
44819.790000000001
30
0.0
11
37224.900000000001
21
44591.769999999997
31
0.0
0
LINE
5
649
100
AcDbEntity
8
1-0
6
CONTINUOUS
62
4
100
AcDbLine
10
65554.960000000006
20
47944.019999999997
30
0.0
11
65405.680000000000
21
47162.260000000002
31
0.0
0
LINE
5
64a
100
AcDbEntity
8
1-0
6
CONTINUOUS
62
4
100
AcDbLine
10
68597.509999999995
20
46905.349999999999
30
0.0
11
68410.720000000001
21
46976.839999999997
31
0.0
0
LINE
5
64b
100
AcDbEntity
8
1-0
6
CONTINUOUS
62
4
100
AcDbLine
10
2232.760000000000
20
42449.800000000003
30
0.0
11
2184.250000000000
21
42255.769999999997
31
0.0
0
LINE
5
64c
100
AcDbEntity
8
1-0
6
CONTINUOUS
62
4
100
AcDbLine
10
22930.430000000000
20
42474.709999999999
30
0.0
11
23139.340000000000
21
42558.260000000002
31
0.0
0
LINE
5
64d
100
AcDbEntity
8
1-0
6
CONTINUOUS
62
4
100
AcDbLine
10
1843.570000000000
20
39026.330000000002
30
0.0
11
1826.140000000000
21
38827.080000000002
31
0.0
0
LINE
5
64e
100
AcDbEntity
8
1-0
6
CONTINUOUS
62
4
100
AcDbLine
10
3522.640000000000
20
45718.849999999999
30
0.0
11
3317.590000000000
21
45154.959999999999
31
0.0
0
LINE
5
64f
100
AcDbEntity
8
1-0
6
CONTINUOUS
62
4
100
AcDbLine
10
28649.810000000001
20
54075.019999999997
30
0.0
11
27050.349999999999
21
54033.230000000003
31
0.0
0
LINE
5
650
100
AcDbEntity
8
1-0
6
CONTINUOUS
62
4
100
AcDbLine
10
2014.460000000000
20
43225.930000000000
30
0.0
11
1626.420000000000
21
41673.699999999997
31
0.0
0
LINE
5
651
100
AcDbEntity
8
1-0
6
CONTINUOUS
62
4
100
AcDbLine
10
19596.869999999999
20
53638.449999999997
30
0.0
11
18997.070000000000
21
53622.779999999999
31
0.0
0
LINE
5
652
100
AcDbEntity
8
1-0
6
CONTINUOUS
62
4
100
AcDbLine
10
22560.349999999999
20
53915.940000000002
30
0.0
11
20960.889999999999
21
53874.160000000003
31
0.0
0
LINE
5
653
100
AcDbEntity
8
1-0
6
CONTINUOUS
62
4
100
AcDbLine
10
40148.779999999999
20
43406.889999999999
30
0.0
11
40706.080000000002
21
43184.580000000002
31
0.0
0
LINE
5
654
100
AcDbEntity
8
1-0
6
CONTINUOUS
62
4
100
AcDbLine
10
44540.599999999999
20
41789.419999999998
30
0.0
11
44749.589999999997
21
41706.050000000003
31
0.0
0
LINE
5
655
100
AcDbEntity
8
1-0
6
CONTINUOUS
62
4
100
AcDbLine
10
14096.280000000001
20
53659.260000000002
30
0.0
11
12499.590000000000
21
53556.550000000003
31
0.0
0
LINE
5
656
100
AcDbEntity
8
1-0
6
CONTINUOUS
62
4
100
AcDbLine
10
54629.389999999999
20
37694.389999999999
30
0.0
11
54781.580000000002
21
38037.120000000003
31
0.0
0
LINE
5
657
100
AcDbEntity
8
1-0
6
CONTINUOUS
62
4
100
AcDbLine
10
47889.199999999997
20
40318.949999999997
30
0.0
11
48446.500000000000
21
40096.629999999997
31
0.0
0
LINE
5
658
100
AcDbEntity
8
1-0
6
CONTINUOUS
62
4
100
AcDbLine
10
5058.840000000000
20
49331.809999999998
30
0.0
11
4817.200000000000
21
48782.620000000003
31
0.0
0
LINE
5
659
100
AcDbEntity
8
1-0
6
CONTINUOUS
62
4
100
AcDbLine
10
51383.449999999997
20
38999.019999999997
30
0.0
11
51589.089999999997
21
38907.709999999999
31
0.0
0
LINE
5
65a
100
AcDbEntity
8
1-0
6
CONTINUOUS
62
4
100
AcDbLine
10
5077.150000000000
20
49870.010000000002
30
0.0
11
4432.770000000000
21
48405.489999999998
31
0.0
0
LINE
5
65b
100
AcDbEntity
8
1-0
6
CONTINUOUS
62
4
100
AcDbLine
10
44691.400000000001
20
41863.839999999997
30
0.0
11
44830.360000000001
21
42212.129999999997
31
0.0
0
LINE
5
65c
100
AcDbEntity
8
1-0
6
CONTINUOUS
62
4
100
AcDbLine
10
61705.900000000001
20
34061.709999999999
30
0.0
11
61886.889999999999
21
34390.139999999999
31
0.0
0
LINE
5
65d
100
AcDbEntity
8
1-0
6
CONTINUOUS
62
4
100
AcDbLine
10
44320.120000000003
20
41742.790000000001
30
0.0
11
44877.419999999998
21
41520.470000000001
31
0.0
0
LINE
5
65e
100
AcDbEntity
8
1-0
6
CONTINUOUS
62
4
100
AcDbLine
10
17130.919999999998
20
53774.120000000003
30
0.0
11
15531.459999999999
21
53732.330000000002
31
0.0
0
LINE
5
65f
100
AcDbEntity
8
1-0
6
CONTINUOUS
62
4
100
AcDbLine
10
51502.730000000003
20
39082.839999999997
30
0.0
11
51571.290000000001
21
39052.379999999997
31
0.0
0
LINE
5
660
100
AcDbEntity
8
1-0
6
CONTINUOUS
62
4
100
AcDbLine
10
7564.500000000000
20
51518.470000000001
30
0.0
11
7378.450000000000
21
51445.040000000001
31
0.0
0
LINE
5
661
100
AcDbEntity
8
1-0
6
CONTINUOUS
62
4
100
AcDbLine
10
5121.090000000000
20
48976.660000000003
30
0.0
11
5625.150000000000
21
48754.870000000003
31
0.0
0
LINE
5
662
100
AcDbEntity
8
1-0
6
CONTINUOUS
62
4
100
AcDbLine
10
51161.349999999999
20
38960.870000000003
30
0.0
11
51709.730000000003
21
38717.370000000003
31
0.0
0
LINE
5
663
100
AcDbEntity
8
1-0
6
CONTINUOUS
62
4
100
AcDbLine
10
59391.650000000001
20
35194.309999999998
30
0.0
11
59588.730000000003
21
35085.720000000001
31
0.0
0
LINE
5
664
100
AcDbEntity
8
1-0
6
CONTINUOUS
62
4
100
AcDbLine
10
61673.059999999998
20
34079.809999999998
30
0.0
11
61738.750000000000
21
34043.620000000003
31
0.0
0
LINE
5
665
100
AcDbEntity
8
1-0
6
CONTINUOUS
62
4
100
AcDbLine
10
1834.850000000000
20
38926.709999999999
30
0.0
11
2432.570000000000
21
38874.459999999999
31
0.0
0
LINE
5
666
100
AcDbEntity
8
1-0
6
CONTINUOUS
62
4
100
AcDbLine
10
26320.840000000000
20
43845.099999999999
30
0.0
11
26390.740000000002
21
43872.320000000000
31
0.0
0
LINE
5
667
100
AcDbEntity
8
1-0
6
CONTINUOUS
62
4
100
AcDbLine
10
24735.040000000001
20
43246.419999999998
30
0.0
11
24657.529999999999
21
43457.650000000001
31
0.0
0
LINE
5
668
100
AcDbEntity
8
1-0
6
CONTINUOUS
62
3
100
AcDbLine
10
58217.190000000002
20
8320.240000000000
30
0.0
11
58449.559999999998
21
8179.080000000000
31
0.0
0
LINE
5
669
100
AcDbEntity
8
1-0
6
CONTINUOUS
62
3
100
AcDbLine
10
71755.350000000006
20
28759.150000000001
30
0.0
11
71295.300000000003
21
28955.299999999999
31
0.0
0
LINE
5
66a
100
AcDbEntity
8
1-0
6
CONTINUOUS
62
3
100
AcDbLine
10
71295.300000000003
20
28955.299999999999
30
0.0
11
70836.830000000002
21
29154.790000000001
31
0.0
0
LINE
5
66b
100
AcDbEntity
8
1-0
6
CONTINUOUS
62
3
100
AcDbLine
10
70836.830000000002
20
29154.790000000001
30
0.0
11
70381.449999999997
21
29360.660000000000
31
0.0
0
LINE
5
66c
100
AcDbEntity
8
1-0
6
CONTINUOUS
62
3
100
AcDbLine
10
70381.449999999997
20
29360.660000000000
30
0.0
11
69927.440000000002
21
29569.540000000001
31
0.0
0
LINE
5
66d
100
AcDbEntity
8
1-0
6
CONTINUOUS
62
3
100
AcDbLine
10
69927.440000000002
20
29569.540000000001
30
0.0
11
69469.979999999996
21
29771.580000000002
31
0.0
0
LINE
5
66e
100
AcDbEntity
8
1-0
6
CONTINUOUS
62
3
100
AcDbLine
10
69469.979999999996
20
29771.580000000002
30
0.0
11
69004.339999999997
21
29957.099999999999
31
0.0
0
LINE
5
66f
100
AcDbEntity
8
1-0
6
CONTINUOUS
62
3
100
AcDbLine
10
69004.339999999997
20
29957.099999999999
30
0.0
11
68533.119999999995
21
30130.799999999999
31
0.0
0
LINE
5
670
100
AcDbEntity
8
1-0
6
CONTINUOUS
62
3
100
AcDbLine
10
68533.119999999995
20
30130.799999999999
30
0.0
11
68067.820000000007
21
30314.730000000000
31
0.0
0
LINE
5
671
100
AcDbEntity
8
1-0
6
CONTINUOUS
62
3
100
AcDbLine
10
68067.820000000007
20
30314.730000000000
30
0.0
11
67620.460000000006
21
30531.910000000000
31
0.0
0
LINE
5
672
100
AcDbEntity
8
1-0
6
CONTINUOUS
62
3
100
AcDbLine
10
67620.460000000006
20
30531.910000000000
30
0.0
11
67197.500000000000
21
30794.869999999999
31
0.0
0
LINE
5
673
100
AcDbEntity
8
1-0
6
CONTINUOUS
62
3
100
AcDbLine
10
67197.500000000000
20
30794.869999999999
30
0.0
11
66790.259999999995
21
31087.160000000000
31
0.0
0
LINE
5
674
100
AcDbEntity
8
1-0
6
CONTINUOUS
62
3
100
AcDbLine
10
66790.259999999995
20
31087.160000000000
30
0.0
11
66387.419999999998
21
31387.459999999999
31
0.0
0
LINE
5
675
100
AcDbEntity
8
1-0
6
CONTINUOUS
62
3
100
AcDbLine
10
66387.419999999998
20
31387.459999999999
30
0.0
11
65979.970000000001
21
31678.889999999999
31
0.0
0
LINE
5
676
100
AcDbEntity
8
1-0
6
CONTINUOUS
62
3
100
AcDbLine
10
65979.970000000001
20
31678.889999999999
30
0.0
11
65567.429999999993
21
31961.000000000000
31
0.0
0
LINE
5
677
100
AcDbEntity
8
1-0
6
CONTINUOUS
62
3
100
AcDbLine
10
65567.429999999993
20
31961.000000000000
30
0.0
11
65151.300000000003
21
32237.189999999999
31
0.0
0
LINE
5
678
100
AcDbEntity
8
1-0
6
CONTINUOUS
62
3
100
AcDbLine
10
65151.300000000003
20
32237.189999999999
30
0.0
11
64733.029999999999
21
32510.580000000002
31
0.0
0
LINE
5
679
100
AcDbEntity
8
1-0
6
CONTINUOUS
62
3
100
AcDbLine
10
64733.029999999999
20
32510.580000000002
30
0.0
11
64313.900000000001
21
32783.239999999998
31
0.0
0
LINE
5
67a
100
AcDbEntity
8
1-0
6
CONTINUOUS
62
3
100
AcDbLine
10
64313.900000000001
20
32783.239999999998
30
0.0
11
63895.230000000003
21
33056.849999999999
31
0.0
0
LINE
5
67b
100
AcDbEntity
8
1-0
6
CONTINUOUS
62
3
100
AcDbLine
10
63895.230000000003
20
33056.849999999999
30
0.0
11
63478.300000000003
21
33333.089999999997
31
0.0
0
LINE
5
67c
100
AcDbEntity
8
1-0
6
CONTINUOUS
62
3
100
AcDbLine
10
63478.300000000003
20
33333.089999999997
30
0.0
11
63063.639999999999
21
33612.650000000001
31
0.0
0
LINE
5
67d
100
AcDbEntity
8
1-0
6
CONTINUOUS
62
3
100
AcDbLine
10
63063.639999999999
20
33612.650000000001
30
0.0
11
62650.449999999997
21
33894.279999999999
31
0.0
0
LINE
5
67e
100
AcDbEntity
8
1-0
6
CONTINUOUS
62
3
100
AcDbLine
10
62650.449999999997
20
33894.279999999999
30
0.0
11
62237.790000000001
21
34176.540000000001
31
0.0
0
LINE
5
67f
100
AcDbEntity
8
1-0
6
CONTINUOUS
62
3
100
AcDbLine
10
62237.790000000001
20
34176.540000000001
30
0.0
11
61824.720000000001
21
34457.980000000003
31
0.0
0
LINE
5
680
100
AcDbEntity
8
1-0
6
CONTINUOUS
62
3
100
AcDbLine
10
61824.720000000001
20
34457.980000000003
30
0.0
11
61411.160000000003
21
34738.610000000001
31
0.0
0
LINE
5
681
100
AcDbEntity
8
1-0
6
CONTINUOUS
62
3
100
AcDbLine
10
61411.160000000003
20
34738.610000000001
30
0.0
11
60998.769999999997
21
35021.279999999999
31
0.0
0
LINE
5
682
100
AcDbEntity
8
1-0
6
CONTINUOUS
62
3
100
AcDbLine
10
60998.769999999997
20
35021.279999999999
30
0.0
11
60589.389999999999
21
35309.110000000001
31
0.0
0
LINE
5
683
100
AcDbEntity
8
1-0
6
CONTINUOUS
62
3
100
AcDbLine
10
60589.389999999999
20
35309.110000000001
30
0.0
11
60182.650000000001
21
35601.449999999997
31
0.0
0
LINE
5
684
100
AcDbEntity
8
1-0
6
CONTINUOUS
62
3
100
AcDbLine
10
60182.650000000001
20
35601.449999999997
30
0.0
11
59772.430000000000
21
35887.830000000002
31
0.0
0
LINE
5
685
100
AcDbEntity
8
1-0
6
CONTINUOUS
62
3
100
AcDbLine
10
59772.430000000000
20
35887.830000000002
30
0.0
11
59351.680000000000
21
36156.150000000001
31
0.0
0
LINE
5
686
100
AcDbEntity
8
1-0
6
CONTINUOUS
62
3
100
AcDbLine
10
59351.680000000000
20
36156.150000000001
30
0.0
11
58915.699999999997
21
36398.330000000002
31
0.0
0
LINE
5
687
100
AcDbEntity
8
1-0
6
CONTINUOUS
62
3
100
AcDbLine
10
58915.699999999997
20
36398.330000000002
30
0.0
11
58467.830000000002
21
36620.129999999997
31
0.0
0
LINE
5
688
100
AcDbEntity
8
1-0
6
CONTINUOUS
62
3
100
AcDbLine
10
58467.830000000002
20
36620.129999999997
30
0.0
11
58013.150000000001
21
36830.309999999998
31
0.0
0
LINE
5
689
100
AcDbEntity
8
1-0
6
CONTINUOUS
62
3
100
AcDbLine
10
58013.150000000001
20
36830.309999999998
30
0.0
11
57556.769999999997
21
37037.709999999999
31
0.0
0
LINE
5
68a
100
AcDbEntity
8
1-0
6
CONTINUOUS
62
3
100
AcDbLine
10
57556.769999999997
20
37037.709999999999
30
0.0
11
57103.620000000003
21
37250.760000000002
31
0.0
0
LINE
5
68b
100
AcDbEntity
8
1-0
6
CONTINUOUS
62
3
100
AcDbLine
10
57103.620000000003
20
37250.760000000002
30
0.0
11
56654.580000000002
21
37470.860000000001
31
0.0
0
LINE
5
68c
100
AcDbEntity
8
1-0
6
CONTINUOUS
62
3
100
AcDbLine
10
56654.580000000002
20
37470.860000000001
30
0.0
11
56206.620000000003
21
37692.440000000002
31
0.0
0
LINE
5
68d
100
AcDbEntity
8
1-0
6
CONTINUOUS
62
3
100
AcDbLine
10
56206.620000000003
20
37692.440000000002
30
0.0
11
55756.620000000003
21
37909.839999999997
31
0.0
0
LINE
5
68e
100
AcDbEntity
8
1-0
6
CONTINUOUS
62
3
100
AcDbLine
10
55756.620000000003
20
37909.839999999997
30
0.0
11
55303.620000000003
21
38121.290000000001
31
0.0
0
LINE
5
68f
100
AcDbEntity
8
1-0
6
CONTINUOUS
62
3
100
AcDbLine
10
55303.620000000003
20
38121.290000000001
30
0.0
11
54848.000000000000
21
38327.389999999999
31
0.0
0
LINE
5
690
100
AcDbEntity
8
1-0
6
CONTINUOUS
62
3
100
AcDbLine
10
54848.000000000000
20
38327.389999999999
30
0.0
11
54390.209999999999
21
38528.860000000001
31
0.0
0
LINE
5
691
100
AcDbEntity
8
1-0
6
CONTINUOUS
62
3
100
AcDbLine
10
54390.209999999999
20
38528.860000000001
30
0.0
11
53930.650000000001
21
38726.370000000003
31
0.0
0
LINE
5
692
100
AcDbEntity
8
1-0
6
CONTINUOUS
62
3
100
AcDbLine
10
53930.650000000001
20
38726.370000000003
30
0.0
11
53469.720000000001
21
38920.620000000003
31
0.0
0
LINE
5
693
100
AcDbEntity
8
1-0
6
CONTINUOUS
62
3
100
AcDbLine
10
53469.720000000001
20
38920.620000000003
30
0.0
11
53007.860000000001
21
39112.269999999997
31
0.0
0
LINE
5
694
100
AcDbEntity
8
1-0
6
CONTINUOUS
62
3
100
AcDbLine
10
53007.860000000001
20
39112.269999999997
30
0.0
11
52545.199999999997
21
39301.750000000000
31
0.0
0
LINE
5
695
100
AcDbEntity
8
1-0
6
CONTINUOUS
62
3
100
AcDbLine
10
52545.199999999997
20
39301.750000000000
30
0.0
11
52081.709999999999
21
39489.220000000001
31
0.0
0
LINE
5
696
100
AcDbEntity
8
1-0
6
CONTINUOUS
62
3
100
AcDbLine
10
52081.709999999999
20
39489.220000000001
30
0.0
11
51617.309999999998
21
39674.879999999997
31
0.0
0
LINE
5
697
100
AcDbEntity
8
1-0
6
CONTINUOUS
62
3
100
AcDbLine
10
51617.309999999998
20
39674.879999999997
30
0.0
11
51152.599999999999
21
39860.160000000003
31
0.0
0
LINE
5
698
100
AcDbEntity
8
1-0
6
CONTINUOUS
62
3
100
AcDbLine
10
51152.599999999999
20
39860.160000000003
30
0.0
11
50689.489999999998
21
40049.160000000003
31
0.0
0
LINE
5
699
100
AcDbEntity
8
1-0
6
CONTINUOUS
62
3
100
AcDbLine
10
50689.489999999998
20
40049.160000000003
30
0.0
11
50230.099999999999
21
40246.309999999998
31
0.0
0
LINE
5
69a
100
AcDbEntity
8
1-0
6
CONTINUOUS
62
3
100
AcDbLine
10
50230.099999999999
20
40246.309999999998
30
0.0
11
49776.449999999997
21
40455.959999999999
31
0.0
0
LINE
5
69b
100
AcDbEntity
8
1-0
6
CONTINUOUS
62
3
100
AcDbLine
10
49776.449999999997
20
40455.959999999999
30
0.0
11
49327.910000000003
21
40676.709999999999
31
0.0
0
LINE
5
69c
100
AcDbEntity
8
1-0
6
CONTINUOUS
62
3
100
AcDbLine
10
49327.910000000003
20
40676.709999999999
30
0.0
11
48879.800000000003
21
40898.769999999997
31
0.0
0
LINE
5
69d
100
AcDbEntity
8
1-0
6
CONTINUOUS
62
3
100
AcDbLine
10
48879.800000000003
20
40898.769999999997
30
0.0
11
48427.300000000003
21
41111.910000000003
31
0.0
0
LINE
5
69e
100
AcDbEntity
8
1-0
6
CONTINUOUS
62
3
100
AcDbLine
10
48427.300000000003
20
41111.910000000003
30
0.0
11
47968.120000000003
21
41310.510000000002
31
0.0
0
LINE
5
69f
100
AcDbEntity
8
1-0
6
CONTINUOUS
62
3
100
AcDbLine
10
47968.120000000003
20
41310.510000000002
30
0.0
11
47502.480000000003
21
41493.379999999997
31
0.0
0
LINE
5
6a0
100
AcDbEntity
8
1-0
6
CONTINUOUS
62
3
100
AcDbLine
10
47502.480000000003
20
41493.379999999997
30
0.0
11
47030.730000000003
21
41659.550000000003
31
0.0
0
LINE
5
6a1
100
AcDbEntity
8
1-0
6
CONTINUOUS
62
3
100
AcDbLine
10
47030.730000000003
20
41659.550000000003
30
0.0
11
46554.290000000001
21
41811.849999999999
31
0.0
0
LINE
5
6a2
100
AcDbEntity
8
1-0
6
CONTINUOUS
62
3
100
AcDbLine
10
46554.290000000001
20
41811.849999999999
30
0.0
11
46077.070000000000
21
41961.360000000001
31
0.0
0
LINE
5
6a3
100
AcDbEntity
8
1-0
6
CONTINUOUS
62
3
100
AcDbLine
10
46077.070000000000
20
41961.360000000001
30
0.0
11
45603.250000000000
21
42120.260000000002
31
0.0
0
LINE
5
6a4
100
AcDbEntity
8
1-0
6
CONTINUOUS
62
3
100
AcDbLine
10
45603.250000000000
20
42120.260000000002
30
0.0
11
45135.629999999997
21
42296.620000000003
31
0.0
0
LINE
5
6a5
100
AcDbEntity
8
1-0
6
CONTINUOUS
62
3
100
AcDbLine
10
45135.629999999997
20
42296.620000000003
30
0.0
11
44671.169999999998
21
42482.110000000001
31
0.0
0
LINE
5
6a6
100
AcDbEntity
8
1-0
6
CONTINUOUS
62
3
100
AcDbLine
10
44671.169999999998
20
42482.110000000001
30
0.0
11
44205.389999999999
21
42664.379999999997
31
0.0
0
LINE
5
6a7
100
AcDbEntity
8
1-0
6
CONTINUOUS
62
3
100
AcDbLine
10
44205.389999999999
20
42664.379999999997
30
0.0
11
43736.309999999998
21
42837.730000000003
31
0.0
0
LINE
5
6a8
100
AcDbEntity
8
1-0
6
CONTINUOUS
62
3
100
AcDbLine
10
43736.309999999998
20
42837.730000000003
30
0.0
11
43266.570000000000
21
43009.129999999997
31
0.0
0
LINE
5
6a9
100
AcDbEntity
8
1-0
6
CONTINUOUS
62
3
100
AcDbLine
10
43266.570000000000
20
43009.129999999997
30
0.0
11
42799.309999999998
21
43186.879999999997
31
0.0
0
LINE
5
6aa
100
AcDbEntity
8
1-0
6
CONTINUOUS
62
3
100
AcDbLine
10
42799.309999999998
20
43186.879999999997
30
0.0
11
42337.250000000000
21
43378.070000000000
31
0.0
0
LINE
5
6ab
100
AcDbEntity
8
1-0
6
CONTINUOUS
62
3
100
AcDbLine
10
42337.250000000000
20
43378.070000000000
30
0.0
11
41878.570000000000
21
43578.019999999997
31
0.0
0
LINE
5
6ac
100
AcDbEntity
8
1-0
6
CONTINUOUS
62
3
100
AcDbLine
10
41878.570000000000
20
43578.019999999997
30
0.0
11
41419.080000000002
21
43775.629999999997
31
0.0
0
LINE
5
6ad
100
AcDbEntity
8
1-0
6
CONTINUOUS
62
3
100
AcDbLine
10
41419.080000000002
20
43775.629999999997
30
0.0
11
40954.570000000000
21
43959.739999999998
31
0.0
0
LINE
5
6ae
100
AcDbEntity
8
1-0
6
CONTINUOUS
62
3
100
AcDbLine
10
40954.570000000000
20
43959.739999999998
30
0.0
11
40481.870000000003
21
44122.000000000000
31
0.0
0
LINE
5
6af
100
AcDbEntity
8
1-0
6
CONTINUOUS
62
3
100
AcDbLine
10
40481.870000000003
20
44122.000000000000
30
0.0
11
40004.620000000003
21
44271.900000000001
31
0.0
0
LINE
5
6b0
100
AcDbEntity
8
1-0
6
CONTINUOUS
62
3
100
AcDbLine
10
40004.620000000003
20
44271.900000000001
30
0.0
11
39528.989999999998
21
44425.389999999999
31
0.0
0
LINE
5
6b1
100
AcDbEntity
8
1-0
6
CONTINUOUS
62
3
100
AcDbLine
10
39528.989999999998
20
44425.389999999999
30
0.0
11
39058.160000000003
21
44591.500000000000
31
0.0
0
LINE
5
6b2
100
AcDbEntity
8
1-0
6
CONTINUOUS
62
3
100
AcDbLine
10
39058.160000000003
20
44591.500000000000
30
0.0
11
38592.050000000003
21
44771.279999999999
31
0.0
0
LINE
5
6b3
100
AcDbEntity
8
1-0
6
CONTINUOUS
62
3
100
AcDbLine
10
38592.050000000003
20
44771.279999999999
30
0.0
11
38130.320000000000
21
44965.309999999998
31
0.0
0
LINE
5
6b4
100
AcDbEntity
8
1-0
6
CONTINUOUS
62
3
100
AcDbLine
10
38130.320000000000
20
44965.309999999998
30
0.0
11
37672.629999999997
21
45173.919999999998
31
0.0
0
LINE
5
6b5
100
AcDbEntity
8
1-0
6
CONTINUOUS
62
3
100
AcDbLine
10
37672.629999999997
20
45173.919999999998
30
0.0
11
37214.400000000001
21
45381.919999999998
31
0.0
0
LINE
5
6b6
100
AcDbEntity
8
1-0
6
CONTINUOUS
62
3
100
AcDbLine
10
37214.400000000001
20
45381.919999999998
30
0.0
11
36744.809999999998
21
45550.849999999999
31
0.0
0
LINE
5
6b7
100
AcDbEntity
8
1-0
6
CONTINUOUS
62
3
100
AcDbLine
10
36744.809999999998
20
45550.849999999999
30
0.0
11
36253.769999999997
21
45641.879999999997
31
0.0
0
LINE
5
6b8
100
AcDbEntity
8
1-0
6
CONTINUOUS
62
3
100
AcDbLine
10
36253.769999999997
20
45641.879999999997
30
0.0
11
35749.800000000003
21
45640.129999999997
31
0.0
0
LINE
5
6b9
100
AcDbEntity
8
1-0
6
CONTINUOUS
62
3
100
AcDbLine
10
35749.800000000003
20
45640.129999999997
30
0.0
11
35255.169999999998
21
45549.430000000000
31
0.0
0
LINE
5
6ba
100
AcDbEntity
8
1-0
6
CONTINUOUS
62
3
100
AcDbLine
10
35255.169999999998
20
45549.430000000000
30
0.0
11
34772.290000000001
21
45426.949999999997
31
0.0
0
LINE
5
6bb
100
AcDbEntity
8
1-0
6
CONTINUOUS
62
3
100
AcDbLine
10
34772.290000000001
20
45426.949999999997
30
0.0
11
34282.699999999997
21
45359.779999999999
31
0.0
0
LINE
5
6bc
100
AcDbEntity
8
1-0
6
CONTINUOUS
62
3
100
AcDbLine
10
34282.699999999997
20
45359.779999999999
30
0.0
11
33786.129999999997
21
45342.110000000001
31
0.0
0
LINE
5
6bd
100
AcDbEntity
8
1-0
6
CONTINUOUS
62
3
100
AcDbLine
10
33786.129999999997
20
45342.110000000001
30
0.0
11
33284.570000000000
21
45357.449999999997
31
0.0
0
LINE
5
6be
100
AcDbEntity
8
1-0
6
CONTINUOUS
62
3
100
AcDbLine
10
33284.570000000000
20
45357.449999999997
30
0.0
11
32779.989999999998
21
45389.320000000000
31
0.0
0
LINE
5
6bf
100
AcDbEntity
8
1-0
6
CONTINUOUS
62
3
100
AcDbLine
10
32779.989999999998
20
45389.320000000000
30
0.0
11
32274.410000000000
21
45421.260000000002
31
0.0
0
LINE
5
6c0
100
AcDbEntity
8
1-0
6
CONTINUOUS
62
3
100
AcDbLine
10
32274.410000000000
20
45421.260000000002
30
0.0
11
31769.790000000001
21
45436.779999999999
31
0.0
0
LINE
5
6c1
100
AcDbEntity
8
1-0
6
CONTINUOUS
62
3
100
AcDbLine
10
31769.790000000001
20
45436.779999999999
30
0.0
11
31268.090000000000
21
45419.459999999999
31
0.0
0
LINE
5
6c2
100
AcDbEntity
8
1-0
6
CONTINUOUS
62
3
100
AcDbLine
10
31268.090000000000
20
45419.459999999999
30
0.0
11
30770.049999999999
21
45366.589999999997
31
0.0
0
LINE
5
6c3
100
AcDbEntity
8
1-0
6
CONTINUOUS
62
3
100
AcDbLine
10
30770.049999999999
20
45366.589999999997
30
0.0
11
30273.169999999998
21
45309.540000000001
31
0.0
0
LINE
5
6c4
100
AcDbEntity
8
1-0
6
CONTINUOUS
62
3
100
AcDbLine
10
30273.169999999998
20
45309.540000000001
30
0.0
11
29774.520000000000
21
45284.849999999999
31
0.0
0
LINE
5
6c5
100
AcDbEntity
8
1-0
6
CONTINUOUS
62
3
100
AcDbLine
10
29774.520000000000
20
45284.849999999999
30
0.0
11
29275.799999999999
21
45263.099999999999
31
0.0
0
LINE
5
6c6
100
AcDbEntity
8
1-0
6
CONTINUOUS
62
3
100
AcDbLine
10
29275.799999999999
20
45263.099999999999
30
0.0
11
28789.299999999999
21
45141.750000000000
31
0.0
0
LINE
5
6c7
100
AcDbEntity
8
1-0
6
CONTINUOUS
62
3
100
AcDbLine
10
28789.299999999999
20
45141.750000000000
30
0.0
11
28320.080000000002
21
44967.519999999997
31
0.0
0
LINE
5
6c8
100
AcDbEntity
8
1-0
6
CONTINUOUS
62
3
100
AcDbLine
10
28320.080000000002
20
44967.519999999997
30
0.0
11
27856.549999999999
21
44781.230000000003
31
0.0
0
LINE
5
6c9
100
AcDbEntity
8
1-0
6
CONTINUOUS
62
3
100
AcDbLine
10
27856.549999999999
20
44781.230000000003
30
0.0
11
27386.230000000000
21
44612.580000000002
31
0.0
0
LINE
5
6ca
100
AcDbEntity
8
1-0
6
CONTINUOUS
62
3
100
AcDbLine
10
27386.230000000000
20
44612.580000000002
30
0.0
11
26911.529999999999
21
44454.800000000003
31
0.0
0
LINE
5
6cb
100
AcDbEntity
8
1-0
6
CONTINUOUS
62
3
100
AcDbLine
10
26911.529999999999
20
44454.800000000003
30
0.0
11
26440.029999999999
21
44288.349999999999
31
0.0
0
LINE
5
6cc
100
AcDbEntity
8
1-0
6
CONTINUOUS
62
3
100
AcDbLine
10
26440.029999999999
20
44288.349999999999
30
0.0
11
25973.740000000002
21
44108.010000000002
31
0.0
0
LINE
5
6cd
100
AcDbEntity
8
1-0
6
CONTINUOUS
62
3
100
AcDbLine
10
25973.740000000002
20
44108.010000000002
30
0.0
11
25508.570000000000
21
43923.940000000002
31
0.0
0
LINE
5
6ce
100
AcDbEntity
8
1-0
6
CONTINUOUS
62
3
100
AcDbLine
10
25508.570000000000
20
43923.940000000002
30
0.0
11
25042.639999999999
21
43741.599999999999
31
0.0
0
LINE
5
6cf
100
AcDbEntity
8
1-0
6
CONTINUOUS
62
3
100
AcDbLine
10
25042.639999999999
20
43741.599999999999
30
0.0
11
24578.209999999999
21
43557.080000000002
31
0.0
0
LINE
5
6d0
100
AcDbEntity
8
1-0
6
CONTINUOUS
62
3
100
AcDbLine
10
24578.209999999999
20
43557.080000000002
30
0.0
11
24117.459999999999
21
43365.870000000003
31
0.0
0
LINE
5
6d1
100
AcDbEntity
8
1-0
6
CONTINUOUS
62
3
100
AcDbLine
10
24117.459999999999
20
43365.870000000003
30
0.0
11
23658.509999999998
21
43165.980000000003
31
0.0
0
LINE
5
6d2
100
AcDbEntity
8
1-0
6
CONTINUOUS
62
3
100
AcDbLine
10
23658.509999999998
20
43165.980000000003
30
0.0
11
23200.529999999999
21
42954.209999999999
31
0.0
0
LINE
5
6d3
100
AcDbEntity
8
1-0
6
CONTINUOUS
62
3
100
AcDbLine
10
23200.529999999999
20
42954.209999999999
30
0.0
11
22758.990000000002
21
42713.860000000001
31
0.0
0
LINE
5
6d4
100
AcDbEntity
8
1-0
6
CONTINUOUS
62
3
100
AcDbLine
10
22758.990000000002
20
42713.860000000001
30
0.0
11
22355.360000000001
21
42423.169999999998
31
0.0
0
LINE
5
6d5
100
AcDbEntity
8
1-0
6
CONTINUOUS
62
3
100
AcDbLine
10
22355.360000000001
20
42423.169999999998
30
0.0
11
22000.970000000001
21
42072.050000000003
31
0.0
0
LINE
5
6d6
100
AcDbEntity
8
1-0
6
CONTINUOUS
62
3
100
AcDbLine
10
22000.970000000001
20
42072.050000000003
30
0.0
11
21820.919999999998
21
41869.379999999997
31
0.0
0
LINE
5
6d7
100
AcDbEntity
8
1-0
6
CONTINUOUS
62
3
100
AcDbLine
10
11660.930000000000
20
28153.369999999999
30
0.0
11
12122.600000000000
21
28350.200000000001
31
0.0
0
LINE
5
6d8
100
AcDbEntity
8
1-0
6
CONTINUOUS
62
3
100
AcDbLine
10
12122.600000000000
20
28350.200000000001
30
0.0
11
12622.440000000001
21
28379.889999999999
31
0.0
0
LINE
5
6d9
100
AcDbEntity
8
1-0
6
CONTINUOUS
62
3
100
AcDbLine
10
12622.440000000001
20
28379.889999999999
30
0.0
11
13132.350000000000
21
28353.320000000000
31
0.0
0
LINE
5
6da
100
AcDbEntity
8
1-0
6
CONTINUOUS
62
3
100
AcDbLine
10
13132.350000000000
20
28353.320000000000
30
0.0
11
13599.850000000000
21
28483.599999999999
31
0.0
0
LINE
5
6db
100
AcDbEntity
8
1-0
6
CONTINUOUS
62
3
100
AcDbLine
10
13599.850000000000
20
28483.599999999999
30
0.0
11
14026.680000000000
21
28747.110000000001
31
0.0
0
LINE
5
6dc
100
AcDbEntity
8
1-0
6
CONTINUOUS
62
3
100
AcDbLine
10
14026.680000000000
20
28747.110000000001
30
0.0
11
14409.620000000001
21
29104.529999999999
31
0.0
0
LINE
5
6dd
100
AcDbEntity
8
1-0
6
CONTINUOUS
62
3
100
AcDbLine
10
14409.620000000001
20
29104.529999999999
30
0.0
11
14755.719999999999
21
29531.500000000000
31
0.0
0
LINE
5
6de
100
AcDbEntity
8
1-0
6
CONTINUOUS
62
3
100
AcDbLine
10
14755.719999999999
20
29531.500000000000
30
0.0
11
15173.530000000001
21
29663.580000000002
31
0.0
0
LINE
5
6df
100
AcDbEntity
8
1-0
6
CONTINUOUS
62
3
100
AcDbLine
10
15173.530000000001
20
29663.580000000002
30
0.0
11
15654.000000000000
21
29558.290000000001
31
0.0
0
LINE
5
6e0
100
AcDbEntity
8
1-0
6
CONTINUOUS
62
3
100
AcDbLine
10
15654.000000000000
20
29558.290000000001
30
0.0
11
16010.750000000000
21
29900.240000000002
31
0.0
0
LINE
5
6e1
100
AcDbEntity
8
1-0
6
CONTINUOUS
62
3
100
AcDbLine
10
16010.750000000000
20
29900.240000000002
30
0.0
11
16105.920000000000
21
30058.400000000001
31
0.0
0
LINE
5
6e2
100
AcDbEntity
8
1-0
6
CONTINUOUS
62
3
100
AcDbLine
10
61247.339999999997
20
10378.740000000000
30
0.0
11
61702.320000000000
21
10608.240000000000
31
0.0
0
LINE
5
6e3
100
AcDbEntity
8
1-0
6
CONTINUOUS
62
3
100
AcDbLine
10
61702.320000000000
20
10608.240000000000
30
0.0
11
62148.220000000001
21
10848.430000000000
31
0.0
0
LINE
5
6e4
100
AcDbEntity
8
1-0
6
CONTINUOUS
62
3
100
AcDbLine
10
62148.220000000001
20
10848.430000000000
30
0.0
11
62575.910000000003
21
11110.040000000001
31
0.0
0
LINE
5
6e5
100
AcDbEntity
8
1-0
6
CONTINUOUS
62
3
100
AcDbLine
10
62575.910000000003
20
11110.040000000001
30
0.0
11
62976.300000000003
21
11403.770000000000
31
0.0
0
LINE
5
6e6
100
AcDbEntity
8
1-0
6
CONTINUOUS
62
3
100
AcDbLine
10
62976.300000000003
20
11403.770000000000
30
0.0
11
63340.470000000001
21
11740.150000000000
31
0.0
0
LINE
5
6e7
100
AcDbEntity
8
1-0
6
CONTINUOUS
62
3
100
AcDbLine
10
63340.470000000001
20
11740.150000000000
30
0.0
11
63694.680000000000
21
12094.430000000000
31
0.0
0
LINE
5
6e8
100
AcDbEntity
8
1-0
6
CONTINUOUS
62
3
100
AcDbLine
10
63694.680000000000
20
12094.430000000000
30
0.0
11
64110.930000000000
21
12381.959999999999
31
0.0
0
LINE
5
6e9
100
AcDbEntity
8
1-0
6
CONTINUOUS
62
3
100
AcDbLine
10
64110.930000000000
20
12381.959999999999
30
0.0
11
64586.150000000001
21
12554.690000000001
31
0.0
0
LINE
5
6ea
100
AcDbEntity
8
1-0
6
CONTINUOUS
62
3
100
AcDbLine
10
64586.150000000001
20
12554.690000000001
30
0.0
11
65095.849999999999
21
12604.070000000000
31
0.0
0
LINE
5
6eb
100
AcDbEntity
8
1-0
6
CONTINUOUS
62
3
100
AcDbLine
10
65095.849999999999
20
12604.070000000000
30
0.0
11
65572.220000000001
21
12715.950000000001
31
0.0
0
LINE
5
6ec
100
AcDbEntity
8
1-0
6
CONTINUOUS
62
3
100
AcDbLine
10
65572.220000000001
20
12715.950000000001
30
0.0
11
65985.300000000003
21
12999.299999999999
31
0.0
0
LINE
5
6ed
100
AcDbEntity
8
1-0
6
CONTINUOUS
62
3
100
AcDbLine
10
65985.300000000003
20
12999.299999999999
30
0.0
11
66434.660000000003
21
13196.690000000001
31
0.0
0
LINE
5
6ee
100
AcDbEntity
8
1-0
6
CONTINUOUS
62
3
100
AcDbLine
10
66434.660000000003
20
13196.690000000001
30
0.0
11
66923.089999999997
21
13299.379999999999
31
0.0
0
LINE
5
6ef
100
AcDbEntity
8
1-0
6
CONTINUOUS
62
3
100
AcDbLine
10
66923.089999999997
20
13299.379999999999
30
0.0
11
67431.910000000003
21
13355.250000000000
31
0.0
0
LINE
5
6f0
100
AcDbEntity
8
1-0
6
CONTINUOUS
62
3
100
AcDbLine
10
67431.910000000003
20
13355.250000000000
30
0.0
11
67942.419999999998
21
13412.129999999999
31
0.0
0
LINE
5
6f1
100
AcDbEntity
8
1-0
6
CONTINUOUS
62
3
100
AcDbLine
10
67942.419999999998
20
13412.129999999999
30
0.0
11
68435.990000000005
21
13517.719999999999
31
0.0
0
LINE
5
6f2
100
AcDbEntity
8
1-0
6
CONTINUOUS
62
3
100
AcDbLine
10
68435.990000000005
20
13517.719999999999
30
0.0
11
68905.000000000000
21
13690.620000000001
31
0.0
0
LINE
5
6f3
100
AcDbEntity
8
1-0
6
CONTINUOUS
62
3
100
AcDbLine
10
68905.000000000000
20
13690.620000000001
30
0.0
11
69365.580000000002
21
13887.000000000000
31
0.0
0
LINE
5
6f4
100
AcDbEntity
8
1-0
6
CONTINUOUS
62
3
100
AcDbLine
10
69365.580000000002
20
13887.000000000000
30
0.0
11
69832.990000000005
21
14065.270000000000
31
0.0
0
LINE
5
6f5
100
AcDbEntity
8
1-0
6
CONTINUOUS
62
3
100
AcDbLine
10
69832.990000000005
20
14065.270000000000
30
0.0
11
70308.850000000006
21
14219.639999999999
31
0.0
0
LINE
5
6f6
100
AcDbEntity
8
1-0
6
CONTINUOUS
62
3
100
AcDbLine
10
70308.850000000006
20
14219.639999999999
30
0.0
11
70791.759999999995
21
14352.190000000001
31
0.0
0
LINE
5
6f7
100
AcDbEntity
8
1-0
6
CONTINUOUS
62
3
100
AcDbLine
10
70791.759999999995
20
14352.190000000001
30
0.0
11
71280.380000000005
21
14465.030000000001
31
0.0
0
LINE
5
6f8
100
AcDbEntity
8
1-0
6
CONTINUOUS
62
3
100
AcDbLine
10
71280.380000000005
20
14465.030000000001
30
0.0
11
71773.210000000006
21
14560.540000000001
31
0.0
0
LINE
5
6f9
100
AcDbEntity
8
1-0
6
CONTINUOUS
62
3
100
AcDbLine
10
71773.210000000006
20
14560.540000000001
30
0.0
11
72261.270000000004
21
14666.540000000001
31
0.0
0
LINE
5
6fa
100
AcDbEntity
8
1-0
6
CONTINUOUS
62
3
100
AcDbLine
10
72261.270000000004
20
14666.540000000001
30
0.0
11
72728.220000000001
21
14836.389999999999
31
0.0
0
LINE
5
6fb
100
AcDbEntity
8
1-0
6
CONTINUOUS
62
3
100
AcDbLine
10
72728.220000000001
20
14836.389999999999
30
0.0
11
73178.300000000003
21
15058.110000000001
31
0.0
0
LINE
5
6fc
100
AcDbEntity
8
1-0
6
CONTINUOUS
62
3
100
AcDbLine
10
73178.300000000003
20
15058.110000000001
30
0.0
11
73523.960000000006
21
15248.500000000000
31
0.0
0
LINE
5
6fd
100
AcDbEntity
8
1-0
6
CONTINUOUS
62
3
100
AcDbLine
10
50617.430000000000
20
5967.830000000000
30
0.0
11
51104.959999999999
21
6082.020000000000
31
0.0
0
LINE
5
6fe
100
AcDbEntity
8
1-0
6
CONTINUOUS
62
3
100
AcDbLine
10
51104.959999999999
20
6082.020000000000
30
0.0
11
51592.300000000003
21
6196.880000000000
31
0.0
0
LINE
5
6ff
100
AcDbEntity
8
1-0
6
CONTINUOUS
62
3
100
AcDbLine
10
51592.300000000003
20
6196.880000000000
30
0.0
11
52079.230000000003
21
6313.070000000000
31
0.0
0
LINE
5
700
100
AcDbEntity
8
1-0
6
CONTINUOUS
62
3
100
AcDbLine
10
52079.230000000003
20
6313.070000000000
30
0.0
11
52565.559999999998
21
6431.230000000000
31
0.0
0
LINE
5
701
100
AcDbEntity
8
1-0
6
CONTINUOUS
62
3
100
AcDbLine
10
52565.559999999998
20
6431.230000000000
30
0.0
11
53051.080000000002
21
6552.070000000000
31
0.0
0
LINE
5
702
100
AcDbEntity
8
1-0
6
CONTINUOUS
62
3
100
AcDbLine
10
53051.080000000002
20
6552.070000000000
30
0.0
11
53535.589999999997
21
6676.210000000000
31
0.0
0
LINE
5
703
100
AcDbEntity
8
1-0
6
CONTINUOUS
62
3
100
AcDbLine
10
53535.589999999997
20
6676.210000000000
30
0.0
11
54018.900000000001
21
6804.340000000000
31
0.0
0
LINE
5
704
100
AcDbEntity
8
1-0
6
CONTINUOUS
62
3
100
AcDbLine
10
54018.900000000001
20
6804.340000000000
30
0.0
11
54500.790000000001
21
6937.110000000000
31
0.0
0
LINE
5
705
100
AcDbEntity
8
1-0
6
CONTINUOUS
62
3
100
AcDbLine
10
54500.790000000001
20
6937.110000000000
30
0.0
11
54981.070000000000
21
7075.190000000000
31
0.0
0
LINE
5
706
100
AcDbEntity
8
1-0
6
CONTINUOUS
62
3
100
AcDbLine
10
54981.070000000000
20
7075.190000000000
30
0.0
11
55459.540000000001
21
7219.230000000000
31
0.0
0
LINE
5
707
100
AcDbEntity
8
1-0
6
CONTINUOUS
62
3
100
AcDbLine
10
55459.540000000001
20
7219.230000000000
30
0.0
11
55936.000000000000
21
7369.920000000000
31
0.0
0
LINE
5
708
100
AcDbEntity
8
1-0
6
CONTINUOUS
62
3
100
AcDbLine
10
55936.000000000000
20
7369.920000000000
30
0.0
11
56410.320000000000
21
7527.650000000000
31
0.0
0
LINE
5
709
100
AcDbEntity
8
1-0
6
CONTINUOUS
62
3
100
AcDbLine
10
56410.320000000000
20
7527.650000000000
30
0.0
11
56883.050000000003
21
7690.600000000000
31
0.0
0
LINE
5
70a
100
AcDbEntity
8
1-0
6
CONTINUOUS
62
3
100
AcDbLine
10
56883.050000000003
20
7690.600000000000
30
0.0
11
57205.660000000003
21
7803.370000000000
31
0.0
0
LINE
5
70b
100
AcDbEntity
8
1-0
6
CONTINUOUS
62
3
100
AcDbLine
10
39682.540000000001
20
7396.440000000000
30
0.0
11
40177.870000000003
21
7328.650000000000
31
0.0
0
LINE
5
70c
100
AcDbEntity
8
1-0
6
CONTINUOUS
62
3
100
AcDbLine
10
40177.870000000003
20
7328.650000000000
30
0.0
11
40672.980000000003
21
7259.310000000000
31
0.0
0
LINE
5
70d
100
AcDbEntity
8
1-0
6
CONTINUOUS
62
3
100
AcDbLine
10
40672.980000000003
20
7259.310000000000
30
0.0
11
41167.690000000002
21
7186.900000000000
31
0.0
0
LINE
5
70e
100
AcDbEntity
8
1-0
6
CONTINUOUS
62
3
100
AcDbLine
10
41167.690000000002
20
7186.900000000000
30
0.0
11
41661.779999999999
21
7109.850000000000
31
0.0
0
LINE
5
70f
100
AcDbEntity
8
1-0
6
CONTINUOUS
62
3
100
AcDbLine
10
41661.779999999999
20
7109.850000000000
30
0.0
11
42155.059999999998
21
7026.660000000000
31
0.0
0
LINE
5
710
100
AcDbEntity
8
1-0
6
CONTINUOUS
62
3
100
AcDbLine
10
42155.059999999998
20
7026.660000000000
30
0.0
11
42647.720000000001
21
6938.970000000000
31
0.0
0
LINE
5
711
100
AcDbEntity
8
1-0
6
CONTINUOUS
62
3
100
AcDbLine
10
42647.720000000001
20
6938.970000000000
30
0.0
11
43141.160000000003
21
6857.500000000000
31
0.0
0
LINE
5
712
100
AcDbEntity
8
1-0
6
CONTINUOUS
62
3
100
AcDbLine
10
43141.160000000003
20
6857.500000000000
30
0.0
11
43636.959999999999
21
6794.620000000000
31
0.0
0
LINE
5
713
100
AcDbEntity
8
1-0
6
CONTINUOUS
62
3
100
AcDbLine
10
43636.959999999999
20
6794.620000000000
30
0.0
11
44135.800000000003
21
6755.850000000000
31
0.0
0
LINE
5
714
100
AcDbEntity
8
1-0
6
CONTINUOUS
62
3
100
AcDbLine
10
44135.800000000003
20
6755.850000000000
30
0.0
11
44634.970000000001
21
6721.440000000000
31
0.0
0
LINE
5
715
100
AcDbEntity
8
1-0
6
CONTINUOUS
62
3
100
AcDbLine
10
44634.970000000001
20
6721.440000000000
30
0.0
11
45130.989999999998
21
6665.790000000000
31
0.0
0
LINE
5
716
100
AcDbEntity
8
1-0
6
CONTINUOUS
62
3
100
AcDbLine
10
45130.989999999998
20
6665.790000000000
30
0.0
11
45622.180000000000
21
6576.250000000000
31
0.0
0
LINE
5
717
100
AcDbEntity
8
1-0
6
CONTINUOUS
62
3
100
AcDbLine
10
45622.180000000000
20
6576.250000000000
30
0.0
11
46110.699999999997
21
6467.460000000000
31
0.0
0
LINE
5
718
100
AcDbEntity
8
1-0
6
CONTINUOUS
62
3
100
AcDbLine
10
46110.699999999997
20
6467.460000000000
30
0.0
11
46599.300000000003
21
6357.520000000000
31
0.0
0
LINE
5
719
100
AcDbEntity
8
1-0
6
CONTINUOUS
62
3
100
AcDbLine
10
46599.300000000003
20
6357.520000000000
30
0.0
11
47090.540000000001
21
6263.740000000000
31
0.0
0
LINE
5
71a
100
AcDbEntity
8
1-0
6
CONTINUOUS
62
3
100
AcDbLine
10
47090.540000000001
20
6263.740000000000
30
0.0
11
47584.989999999998
21
6190.240000000000
31
0.0
0
LINE
5
71b
100
AcDbEntity
8
1-0
6
CONTINUOUS
62
3
100
AcDbLine
10
47584.989999999998
20
6190.240000000000
30
0.0
11
48081.599999999999
21
6130.470000000000
31
0.0
0
LINE
5
71c
100
AcDbEntity
8
1-0
6
CONTINUOUS
62
3
100
AcDbLine
10
48081.599999999999
20
6130.470000000000
30
0.0
11
48579.320000000000
21
6077.610000000000
31
0.0
0
LINE
5
71d
100
AcDbEntity
8
1-0
6
CONTINUOUS
62
3
100
AcDbLine
10
48579.320000000000
20
6077.610000000000
30
0.0
11
48584.389999999999
21
6077.080000000000
31
0.0
0
LINE
5
71e
100
AcDbEntity
8
1-0
6
CONTINUOUS
62
3
100
AcDbLine
10
11864.299999999999
20
23446.740000000002
30
0.0
11
11994.809999999999
21
23495.180000000000
31
0.0
0
LINE
5
71f
100
AcDbEntity
8
1-0
6
CONTINUOUS
62
3
100
AcDbLine
10
11994.809999999999
20
23495.180000000000
30
0.0
11
12598.160000000000
21
23066.110000000001
31
0.0
0
LINE
5
720
100
AcDbEntity
8
1-0
6
CONTINUOUS
62
3
100
AcDbLine
10
12598.160000000000
20
23066.110000000001
30
0.0
11
13242.639999999999
21
22599.869999999999
31
0.0
0
LINE
5
721
100
AcDbEntity
8
1-0
6
CONTINUOUS
62
3
100
AcDbLine
10
13242.639999999999
20
22599.869999999999
30
0.0
11
13740.200000000001
21
22287.189999999999
31
0.0
0
LINE
5
722
100
AcDbEntity
8
1-0
6
CONTINUOUS
62
3
100
AcDbLine
10
13740.200000000001
20
22287.189999999999
30
0.0
11
14138.870000000001
21
22076.790000000001
31
0.0
0
LINE
5
723
100
AcDbEntity
8
1-0
6
CONTINUOUS
62
3
100
AcDbLine
10
14138.870000000001
20
22076.790000000001
30
0.0
11
14496.340000000000
21
21907.520000000000
31
0.0
0
LINE
5
724
100
AcDbEntity
8
1-0
6
CONTINUOUS
62
3
100
AcDbLine
10
14496.340000000000
20
21907.520000000000
30
0.0
11
14869.400000000000
21
21719.060000000001
31
0.0
0
LINE
5
725
100
AcDbEntity
8
1-0
6
CONTINUOUS
62
3
100
AcDbLine
10
14869.400000000000
20
21719.060000000001
30
0.0
11
15281.719999999999
21
21482.500000000000
31
0.0
0
LINE
5
726
100
AcDbEntity
8
1-0
6
CONTINUOUS
62
3
100
AcDbLine
10
15281.719999999999
20
21482.500000000000
30
0.0
11
15715.790000000001
21
21207.970000000001
31
0.0
0
LINE
5
727
100
AcDbEntity
8
1-0
6
CONTINUOUS
62
3
100
AcDbLine
10
15715.790000000001
20
21207.970000000001
30
0.0
11
16151.459999999999
21
20908.009999999998
31
0.0
0
LINE
5
728
100
AcDbEntity
8
1-0
6
CONTINUOUS
62
3
100
AcDbLine
10
16151.459999999999
20
20908.009999999998
30
0.0
11
16569.650000000001
21
20594.930000000000
31
0.0
0
LINE
5
729
100
AcDbEntity
8
1-0
6
CONTINUOUS
62
3
100
AcDbLine
10
16569.650000000001
20
20594.930000000000
30
0.0
11
16966.720000000001
21
20276.750000000000
31
0.0
0
LINE
5
72a
100
AcDbEntity
8
1-0
6
CONTINUOUS
62
3
100
AcDbLine
10
16966.720000000001
20
20276.750000000000
30
0.0
11
17351.070000000000
21
19958.150000000001
31
0.0
0
LINE
5
72b
100
AcDbEntity
8
1-0
6
CONTINUOUS
62
3
100
AcDbLine
10
17351.070000000000
20
19958.150000000001
30
0.0
11
17731.439999999999
21
19643.759999999998
31
0.0
0
LINE
5
72c
100
AcDbEntity
8
1-0
6
CONTINUOUS
62
3
100
AcDbLine
10
17731.439999999999
20
19643.759999999998
30
0.0
11
18116.560000000001
21
19338.169999999998
31
0.0
0
LINE
5
72d
100
AcDbEntity
8
1-0
6
CONTINUOUS
62
3
100
AcDbLine
10
18116.560000000001
20
19338.169999999998
30
0.0
11
18515.040000000001
21
19045.919999999998
31
0.0
0
LINE
5
72e
100
AcDbEntity
8
1-0
6
CONTINUOUS
62
3
100
AcDbLine
10
18515.040000000001
20
19045.919999999998
30
0.0
11
18928.770000000000
21
18766.840000000000
31
0.0
0
LINE
5
72f
100
AcDbEntity
8
1-0
6
CONTINUOUS
62
3
100
AcDbLine
10
18928.770000000000
20
18766.840000000000
30
0.0
11
19349.900000000001
21
18494.040000000001
31
0.0
0
LINE
5
730
100
AcDbEntity
8
1-0
6
CONTINUOUS
62
3
100
AcDbLine
10
19349.900000000001
20
18494.040000000001
30
0.0
11
19770.119999999999
21
18220.389999999999
31
0.0
0
LINE
5
731
100
AcDbEntity
8
1-0
6
CONTINUOUS
62
3
100
AcDbLine
10
19770.119999999999
20
18220.389999999999
30
0.0
11
20186.520000000000
21
17943.380000000001
31
0.0
0
LINE
5
732
100
AcDbEntity
8
1-0
6
CONTINUOUS
62
3
100
AcDbLine
10
20186.520000000000
20
17943.380000000001
30
0.0
11
20600.770000000000
21
17664.470000000001
31
0.0
0
LINE
5
733
100
AcDbEntity
8
1-0
6
CONTINUOUS
62
3
100
AcDbLine
10
20600.770000000000
20
17664.470000000001
30
0.0
11
20677.910000000000
21
17612.389999999999
31
0.0
0
CIRCLE
5
734
100
AcDbEntity
8
1-0
6
CONTINUOUS
62
4
100
AcDbCircle
10
853.940000000000
20
34232.260000000002
30
0.0
40
99.999999069885
0
CIRCLE
5
735
100
AcDbEntity
8
1-0
6
CONTINUOUS
62
4
100
AcDbCircle
10
61836.209999999999
20
18152.270000000000
30
0.0
40
99.999999069885
0
CIRCLE
5
736
100
AcDbEntity
8
1-0
6
CONTINUOUS
62
4
100
AcDbCircle
10
7088.900000000000
20
53039.650000000001
30
0.0
40
99.999999069885
0
CIRCLE
5
737
100
AcDbEntity
8
1-0
6
CONTINUOUS
62
4
100
AcDbCircle
10
1495.090000000000
20
44223.849999999999
30
0.0
40
99.999999069885
0
CIRCLE
5
738
100
AcDbEntity
8
1-0
6
CONTINUOUS
62
4
100
AcDbCircle
10
32325.369999999999
20
23547.660000000000
30
0.0
40
99.999999069885
0
CIRCLE
5
739
100
AcDbEntity
8
1-0
6
CONTINUOUS
62
4
100
AcDbCircle
10
27813.810000000001
20
28626.610000000001
30
0.0
40
99.999999069885
0
CIRCLE
5
73a
100
AcDbEntity
8
1-0
6
CONTINUOUS
62
4
100
AcDbCircle
10
51999.260000000002
20
19950.740000000002
30
0.0
40
99.999999069885
0
CIRCLE
5
73b
100
AcDbEntity
8
1-0
6
CONTINUOUS
62
4
100
AcDbCircle
10
42162.320000000000
20
21749.200000000001
30
0.0
40
99.999999069885
0
CIRCLE
5
73c
100
AcDbEntity
8
1-0
6
CONTINUOUS
62
4
100
AcDbCircle
10
73137.490000000005
20
45027.980000000003
30
0.0
40
99.999999069885
0
CIRCLE
5
73d
100
AcDbEntity
8
1-0
6
CONTINUOUS
62
4
100
AcDbCircle
10
64847.089999999997
20
49788.010000000002
30
0.0
40
99.999999069885
0
CIRCLE
5
73e
100
AcDbEntity
8
1-0
6
CONTINUOUS
62
4
100
AcDbCircle
10
26309.000000000000
20
55414.599999999999
30
0.0
40
99.999999069885
0
CIRCLE
5
73f
100
AcDbEntity
8
1-0
6
CONTINUOUS
62
4
100
AcDbCircle
10
82923.990000000005
20
43847.830000000002
30
0.0
40
99.999999069885
0
CIRCLE
5
740
100
AcDbEntity
8
1-0
6
CONTINUOUS
62
4
100
AcDbCircle
10
36346.480000000003
20
55002.330000000002
30
0.0
40
99.999999069885
0
CIRCLE
5
741
100
AcDbEntity
8
1-0
6
CONTINUOUS
62
4
100
AcDbCircle
10
16532.730000000000
20
54950.580000000002
30
0.0
40
99.999999069885
0
CIRCLE
5
742
100
AcDbEntity
8
1-0
6
CONTINUOUS
62
4
100
AcDbCircle
10
55541.540000000001
20
52249.150000000001
30
0.0
40
99.999999069885
0
CIRCLE
5
743
100
AcDbEntity
8
1-0
6
CONTINUOUS
62
4
100
AcDbCircle
10
45752.919999999998
20
54115.629999999997
30
0.0
40
99.999999069885
0
CIRCLE
5
744
100
AcDbEntity
8
1-0
6
CONTINUOUS
62
4
100
AcDbCircle
10
37233.959999999999
20
31645.619999999999
30
0.0
40
99.999999069885
0
CIRCLE
5
745
100
AcDbEntity
8
1-0
6
CONTINUOUS
62
4
100
AcDbCircle
10
24740.919999999998
20
16209.840000000000
30
0.0
40
99.999999069885
0
CIRCLE
5
746
100
AcDbEntity
8
1-0
6
CONTINUOUS
62
4
100
AcDbCircle
10
22488.430000000000
20
25346.119999999999
30
0.0
40
99.999999069885
0
CIRCLE
5
747
100
AcDbEntity
8
1-0
6
CONTINUOUS
62
4
100
AcDbCircle
10
40552.440000000002
20
8996.160000000000
30
0.0
40
99.999999069885
0
CIRCLE
5
748
100
AcDbEntity
8
1-0
6
CONTINUOUS
62
4
100
AcDbCircle
10
33664.589999999997
20
12167.879999999999
30
0.0
40
99.999999069885
0
CIRCLE
5
749
100
AcDbEntity
8
1-0
6
CONTINUOUS
62
3
100
AcDbCircle
10
74046.110000000001
20
40033.260000000002
30
0.0
40
349.999996744598
0
CIRCLE
5
74a
100
AcDbEntity
8
1-0
6
CONTINUOUS
62
3
100
AcDbCircle
10
74046.110000000001
20
40033.260000000002
30
0.0
40
299.999997209656
0
CIRCLE
5
74b
100
AcDbEntity
8
1-0
6
CONTINUOUS
62
4
100
AcDbCircle
10
16425.779999999999
20
22941.840000000000
30
0.0
40
99.999999069885
0
CIRCLE
5
74c
100
AcDbEntity
8
1-0
6
CONTINUOUS
62
4
100
AcDbCircle
10
7285.050000000000
20
26617.419999999998
30
0.0
40
99.999999069885
0
CIRCLE
5
74d
100
AcDbEntity
8
1-0
6
CONTINUOUS
62
4
100
AcDbCircle
10
64023.940000000002
20
26583.150000000001
30
0.0
40
99.999999069885
0
CIRCLE
5
74e
100
AcDbEntity
8
1-0
6
CONTINUOUS
62
4
100
AcDbCircle
10
73220.710000000006
20
21144.599999999999
30
0.0
40
99.999999069885
0
CIRCLE
5
74f
100
AcDbEntity
8
1-0
6
CONTINUOUS
62
4
100
AcDbCircle
10
46845.470000000001
20
32341.160000000000
30
0.0
40
99.999999069885
0
CIRCLE
5
750
100
AcDbEntity
8
1-0
6
CONTINUOUS
62
4
100
AcDbCircle
10
56882.519999999997
20
30405.459999999999
30
0.0
40
99.999999069885
0
CIRCLE
5
751
100
AcDbEntity
8
1-0
6
CONTINUOUS
62
4
100
AcDbCircle
10
62377.370000000003
20
12930.139999999999
30
0.0
40
99.999999069885
0
CIRCLE
5
752
100
AcDbEntity
8
1-0
6
CONTINUOUS
62
4
100
AcDbCircle
10
53132.150000000001
20
9100.070000000000
30
0.0
40
99.999999069885
0
CIRCLE
5
753
100
AcDbEntity
8
1-0
6
CONTINUOUS
62
4
100
AcDbCircle
10
81130.750000000000
20
16635.549999999999
30
0.0
40
99.999999069885
0
CIRCLE
5
754
100
AcDbEntity
8
1-0
6
CONTINUOUS
62
4
100
AcDbCircle
10
69575.179999999993
20
16735.799999999999
30
0.0
40
99.999999069885
0
TEXT
5
755
100
AcDbEntity
8
1-0
62
6
100
AcDbText
10
44648.050
20
2186.730
30
0.0
40
585.000
1
大　沢　池
41
1.083
50
0.000
100
AcDbText
0
TEXT
5
756
100
AcDbEntity
8
1-0
62
3
100
AcDbText
10
73885.600
20
3757.610
30
0.0
40
292.500
1
調
41
1.000
50
0.000
100
AcDbText
0
TEXT
5
757
100
AcDbEntity
8
1-0
62
3
100
AcDbText
10
75055.600
20
3757.610
30
0.0
40
292.500
1
製
41
1.000
50
0.000
100
AcDbText
0
TEXT
5
758
100
AcDbEntity
8
1-0
62
3
100
AcDbText
10
73885.600
20
4320.110
30
0.0
40
292.500
1
測
41
1.000
50
0.000
100
AcDbText
0
TEXT
5
759
100
AcDbEntity
8
1-0
62
3
100
AcDbText
10
75055.600
20
4320.110
30
0.0
40
292.500
1
量
41
1.000
50
0.000
100
AcDbText
0
TEXT
5
75a
100
AcDbEntity
8
1-0
62
3
100
AcDbText
10
73885.600
20
5434.690
30
0.0
40
292.500
1
図
41
1.000
50
0.000
100
AcDbText
0
TEXT
5
75b
100
AcDbEntity
8
1-0
62
3
100
AcDbText
10
74470.600
20
5434.690
30
0.0
40
292.500
1
面
41
1.000
50
0.000
100
AcDbText
0
TEXT
5
75c
100
AcDbEntity
8
1-0
62
3
100
AcDbText
10
75055.600
20
5434.690
30
0.0
40
292.500
1
名
41
1.000
50
0.000
100
AcDbText
0
TEXT
5
75d
100
AcDbEntity
8
1-0
62
3
100
AcDbText
10
73885.600
20
3195.110
30
0.0
40
292.500
1
作
41
1.000
50
0.000
100
AcDbText
0
TEXT
5
75e
100
AcDbEntity
8
1-0
62
3
100
AcDbText
10
74275.600
20
3195.110
30
0.0
40
292.500
1
業
41
1.000
50
0.000
100
AcDbText
0
TEXT
5
75f
100
AcDbEntity
8
1-0
62
3
100
AcDbText
10
74665.600
20
3195.110
30
0.0
40
292.500
1
機
41
1.000
50
0.000
100
AcDbText
0
TEXT
5
760
100
AcDbEntity
8
1-0
62
3
100
AcDbText
10
75055.600
20
3195.110
30
0.0
40
292.500
1
関
41
1.000
50
0.000
100
AcDbText
0
TEXT
5
761
100
AcDbEntity
8
1-0
62
3
100
AcDbText
10
73885.600
20
4877.400
30
0.0
40
292.500
1
縮
41
1.000
50
0.000
100
AcDbText
0
TEXT
5
762
100
AcDbEntity
8
1-0
62
3
100
AcDbText
10
75055.600
20
4877.400
30
0.0
40
292.500
1
尺
41
1.000
50
0.000
100
AcDbText
0
TEXT
5
763
100
AcDbEntity
8
1-0
62
3
100
AcDbText
10
73885.600
20
5997.190
30
0.0
40
292.500
1
事
41
1.000
50
0.000
100
AcDbText
0
TEXT
5
764
100
AcDbEntity
8
1-0
62
3
100
AcDbText
10
74470.600
20
5997.190
30
0.0
40
292.500
1
業
41
1.000
50
0.000
100
AcDbText
0
TEXT
5
765
100
AcDbEntity
8
1-0
62
3
100
AcDbText
10
75055.600
20
5997.190
30
0.0
40
292.500
1
名
41
1.000
50
0.000
100
AcDbText
0
TEXT
5
766
100
AcDbEntity
8
1-0
62
3
100
AcDbText
10
76281.000
20
4861.000
30
0.0
40
292.500
1
100
41
1.000
50
0.000
100
AcDbText
0
TEXT
5
767
100
AcDbEntity
8
1-0
62
3
100
AcDbText
10
75932.710
20
5960.630
30
0.0
40
292.500
1
大沢の池環境管理プロジェクト
41
1.000
50
0.000
100
AcDbText
0
TEXT
5
768
100
AcDbEntity
8
1-0
62
3
100
AcDbText
10
75961.550
20
4861.000
30
0.0
40
292.500
1
1/
41
1.000
50
0.000
100
AcDbText
0
TEXT
5
769
100
AcDbEntity
8
1-0
62
3
100
AcDbText
10
77619.550
20
4861.000
30
0.0
40
292.500
1
図面番号
41
1.000
50
0.000
100
AcDbText
0
TEXT
5
76a
100
AcDbEntity
8
1-0
62
3
100
AcDbText
10
75615.820
20
4298.200
30
0.0
40
292.500
1
平成13年8月17日～平成17年11月6日
41
1.000
50
0.000
100
AcDbText
0
TEXT
5
76b
100
AcDbEntity
8
1-0
62
3
100
AcDbText
10
76379.730
20
3173.200
30
0.0
40
292.500
1
ソウギョ・バスターズ
41
1.000
50
0.000
100
AcDbText
0
TEXT
5
76c
100
AcDbEntity
8
1-0
62
3
100
AcDbText
10
76657.500
20
5412.780
30
0.0
40
292.500
1
天神島現況平面図
41
1.000
50
0.000
100
AcDbText
0
TEXT
5
76d
100
AcDbEntity
8
1-0
62
3
100
AcDbText
10
76796.380
20
3735.700
30
0.0
40
292.500
1
平成17年12月1日
41
1.000
50
0.000
100
AcDbText
0
TEXT
5
76e
100
AcDbEntity
8
1-0
62
7
100
AcDbText
10
14380.990
20
6977.700
30
0.0
40
195.000
1
1
41
1.000
50
0.000
100
AcDbText
0
TEXT
5
76f
100
AcDbEntity
8
1-0
62
7
100
AcDbText
10
16381.660
20
6977.700
30
0.0
40
195.000
1
3
41
1.000
50
0.000
100
AcDbText
0
TEXT
5
770
100
AcDbEntity
8
1-0
62
6
100
AcDbText
10
11690.100
20
9322.200
30
0.0
40
585.000
1
縮尺 壱百分之壱
41
1.083
50
0.000
100
AcDbText
0
TEXT
5
771
100
AcDbEntity
8
1-0
62
3
100
AcDbText
10
13818.660
20
7502.980
30
0.0
40
341.250
1
Scale　1/100
41
1.000
50
0.000
100
AcDbText
0
TEXT
5
772
100
AcDbEntity
8
1-0
62
7
100
AcDbText
10
12386.720
20
6990.520
30
0.0
40
195.000
1
1
41
1.000
50
0.000
100
AcDbText
0
TEXT
5
773
100
AcDbEntity
8
1-0
62
6
100
AcDbText
10
8514.700
20
11439.140
30
0.0
40
585.000
1
大覚寺天神島現況平面図
41
1.083
50
0.000
100
AcDbText
0
TEXT
5
774
100
AcDbEntity
8
1-0
62
7
100
AcDbText
10
13420.550
20
6999.230
30
0.0
40
195.000
1
0
41
1.000
50
0.000
100
AcDbText
0
TEXT
5
775
100
AcDbEntity
8
1-0
62
7
100
AcDbText
10
17380.990
20
6977.700
30
0.0
40
195.000
1
4 m
41
1.000
50
0.000
100
AcDbText
0
TEXT
5
776
100
AcDbEntity
8
1-0
62
7
100
AcDbText
10
15381.320
20
6971.280
30
0.0
40
195.000
1
2
41
1.000
50
0.000
100
AcDbText
0
TEXT
5
777
100
AcDbEntity
8
1-0
62
2
100
AcDbText
10
57137.830
20
30171.250
30
0.0
40
390.000
1
T-66
41
1.050
50
0.000
100
AcDbText
0
TEXT
5
778
100
AcDbEntity
8
1-0
62
2
100
AcDbText
10
1001.770
20
44379.960
30
0.0
40
390.000
1
T-71
41
1.050
50
0.000
100
AcDbText
0
TEXT
5
779
100
AcDbEntity
8
1-0
62
2
100
AcDbText
10
73474.160
20
20916.550
30
0.0
40
390.000
1
T-64
41
1.050
50
0.000
100
AcDbText
0
TEXT
5
77a
100
AcDbEntity
8
1-0
62
2
100
AcDbText
10
32597.560
20
23356.940
30
0.0
40
390.000
1
T-113
41
1.050
50
0.000
100
AcDbText
0
TEXT
5
77b
100
AcDbEntity
8
1-0
62
2
100
AcDbText
10
65198.090
20
49522.340
30
0.0
40
390.000
1
T-78
41
1.050
50
0.000
100
AcDbText
0
TEXT
5
77c
100
AcDbEntity
8
1-0
62
2
100
AcDbText
10
26634.080
20
55192.860
30
0.0
40
390.000
1
T-74
41
1.050
50
0.000
100
AcDbText
0
TEXT
5
77d
100
AcDbEntity
8
1-0
62
2
100
AcDbText
10
73396.420
20
44801.960
30
0.0
40
390.000
1
T-79
41
1.050
50
0.000
100
AcDbText
0
TEXT
5
77e
100
AcDbEntity
8
1-0
62
2
100
AcDbText
10
22793.810
20
25137.420
30
0.0
40
390.000
1
T-112
41
1.050
50
0.000
100
AcDbText
0
TEXT
5
77f
100
AcDbEntity
8
1-0
62
2
100
AcDbText
10
16857.520
20
54708.440
30
0.0
40
390.000
1
T-73
41
1.050
50
0.000
100
AcDbText
0
TEXT
5
780
100
AcDbEntity
8
1-0
62
6
100
AcDbText
10
70394.430
20
38901.240
30
0.0
40
487.500
1
蓋上標高 EL=9.75
41
1.080
50
0.000
100
AcDbText
0
TEXT
5
781
100
AcDbEntity
8
1-0
62
2
100
AcDbText
10
52303.720
20
19752.830
30
0.0
40
390.000
1
T-115
41
1.050
50
0.000
100
AcDbText
0
TEXT
5
782
100
AcDbEntity
8
1-0
62
2
100
AcDbText
10
64237.940
20
26377.990
30
0.0
40
390.000
1
T-65
41
1.050
50
0.000
100
AcDbText
0
TEXT
5
783
100
AcDbEntity
8
1-0
62
2
100
AcDbText
10
37500.480
20
31448.040
30
0.0
40
390.000
1
T-68
41
1.050
50
0.000
100
AcDbText
0
TEXT
5
784
100
AcDbEntity
8
1-0
62
2
100
AcDbText
10
62165.940
20
17939.650
30
0.0
40
390.000
1
T-116
41
1.050
50
0.000
100
AcDbText
0
TEXT
5
785
100
AcDbEntity
8
1-0
62
2
100
AcDbText
10
40808.330
20
8768.070
30
0.0
40
390.000
1
T-59
41
1.050
50
0.000
100
AcDbText
0
TEXT
5
786
100
AcDbEntity
8
1-0
62
2
100
AcDbText
10
47076.780
20
32144.840
30
0.0
40
390.000
1
T-67
41
1.050
50
0.000
100
AcDbText
0
TEXT
5
787
100
AcDbEntity
8
1-0
62
2
100
AcDbText
10
40708.690
20
21536.830
30
0.0
40
390.000
1
T-114
41
1.050
50
0.000
100
AcDbText
0
TEXT
5
788
100
AcDbEntity
8
1-0
62
2
100
AcDbText
10
53405.120
20
8856.260
30
0.0
40
390.000
1
T-60
41
1.050
50
0.000
100
AcDbText
0
TEXT
5
789
100
AcDbEntity
8
1-0
62
2
100
AcDbText
10
24991.880
20
15975.530
30
0.0
40
390.000
1
T-57
41
1.050
50
0.000
100
AcDbText
0
TEXT
5
78a
100
AcDbEntity
8
1-0
62
2
100
AcDbText
10
81668.960
20
43611.380
30
0.0
40
390.000
1
T-80
41
1.050
50
0.000
100
AcDbText
0
TEXT
5
78b
100
AcDbEntity
8
1-0
62
2
100
AcDbText
10
55869.740
20
51980.360
30
0.0
40
390.000
1
T-77
41
1.050
50
0.000
100
AcDbText
0
TEXT
5
78c
100
AcDbEntity
8
1-0
62
2
100
AcDbText
10
46075.890
20
53897.680
30
0.0
40
390.000
1
T-76
41
1.050
50
0.000
100
AcDbText
0
TEXT
5
78d
100
AcDbEntity
8
1-0
62
2
100
AcDbText
10
33975.530
20
11948.320
30
0.0
40
390.000
1
T-58
41
1.050
50
0.000
100
AcDbText
0
TEXT
5
78e
100
AcDbEntity
8
1-0
62
2
100
AcDbText
10
7314.910
20
52851.550
30
0.0
40
390.000
1
T-72
41
1.050
50
0.000
100
AcDbText
0
TEXT
5
78f
100
AcDbEntity
8
1-0
62
2
100
AcDbText
10
16692.150
20
22734.790
30
0.0
40
390.000
1
T-56
41
1.050
50
0.000
100
AcDbText
0
TEXT
5
790
100
AcDbEntity
8
1-0
62
2
100
AcDbText
10
28125.560
20
28410.810
30
0.0
40
390.000
1
T-69
41
1.050
50
0.000
100
AcDbText
0
TEXT
5
791
100
AcDbEntity
8
1-0
62
6
100
AcDbText
10
69311.740
20
39688.640
30
0.0
40
487.500
1
ポンプ・ピット
41
1.080
50
0.000
100
AcDbText
0
TEXT
5
792
100
AcDbEntity
8
1-0
62
2
100
AcDbText
10
61056.490
20
12692.680
30
0.0
40
390.000
1
T-61
41
1.050
50
0.000
100
AcDbText
0
TEXT
5
793
100
AcDbEntity
8
1-0
62
2
100
AcDbText
10
7509.010
20
26430.610
30
0.0
40
390.000
1
T-55
41
1.050
50
0.000
100
AcDbText
0
TEXT
5
794
100
AcDbEntity
8
1-0
62
2
100
AcDbText
10
81392.180
20
16387.840
30
0.0
40
390.000
1
T-63
41
1.050
50
0.000
100
AcDbText
0
TEXT
5
795
100
AcDbEntity
8
1-0
62
2
100
AcDbText
10
36685.880
20
54773.840
30
0.0
40
390.000
1
T-75
41
1.050
50
0.000
100
AcDbText
0
TEXT
5
796
100
AcDbEntity
8
1-0
62
2
100
AcDbText
10
529.540
20
33578.980
30
0.0
40
390.000
1
T-70
41
1.050
50
0.000
100
AcDbText
0
TEXT
5
797
100
AcDbEntity
8
1-0
62
2
100
AcDbText
10
69911.990
20
16503.880
30
0.0
40
390.000
1
T-62
41
1.050
50
0.000
100
AcDbText
0
POINT
5
798
100
AcDbEntity
8
1-0
62
7
100
AcDbPoint
10
55541.540000000001
20
52249.150000000001
30
0.0
0
POINT
5
799
100
AcDbEntity
8
1-0
62
7
100
AcDbPoint
10
45752.919999999998
20
54115.629999999997
30
0.0
0
POINT
5
79a
100
AcDbEntity
8
1-0
62
7
100
AcDbPoint
10
36346.480000000003
20
55002.330000000002
30
0.0
0
POINT
5
79b
100
AcDbEntity
8
1-0
62
7
100
AcDbPoint
10
64847.089999999997
20
49788.010000000002
30
0.0
0
POINT
5
79c
100
AcDbEntity
8
1-0
62
7
100
AcDbPoint
10
61836.209999999999
20
18152.270000000000
30
0.0
0
POINT
5
79d
100
AcDbEntity
8
1-0
62
7
100
AcDbPoint
10
51999.260000000002
20
19950.740000000002
30
0.0
0
POINT
5
79e
100
AcDbEntity
8
1-0
62
7
100
AcDbPoint
10
853.940000000000
20
34232.260000000002
30
0.0
0
POINT
5
79f
100
AcDbEntity
8
1-0
62
7
100
AcDbPoint
10
46845.470000000001
20
32341.160000000000
30
0.0
0
POINT
5
7a0
100
AcDbEntity
8
1-0
62
7
100
AcDbPoint
10
1495.090000000000
20
44223.849999999999
30
0.0
0
POINT
5
7a1
100
AcDbEntity
8
1-0
62
7
100
AcDbPoint
10
26309.000000000000
20
55414.599999999999
30
0.0
0
POINT
5
7a2
100
AcDbEntity
8
1-0
62
7
100
AcDbPoint
10
27813.810000000001
20
28626.610000000001
30
0.0
0
POINT
5
7a3
100
AcDbEntity
8
1-0
62
7
100
AcDbPoint
10
37233.959999999999
20
31645.619999999999
30
0.0
0
POINT
5
7a4
100
AcDbEntity
8
1-0
62
7
100
AcDbPoint
10
7285.050000000000
20
26617.419999999998
30
0.0
0
POINT
5
7a5
100
AcDbEntity
8
1-0
62
7
100
AcDbPoint
10
74046.110000000001
20
40033.260000000002
30
0.0
0
POINT
5
7a6
100
AcDbEntity
8
1-0
62
7
100
AcDbPoint
10
24740.919999999998
20
16209.840000000000
30
0.0
0
POINT
5
7a7
100
AcDbEntity
8
1-0
62
7
100
AcDbPoint
10
73220.710000000006
20
21144.599999999999
30
0.0
0
POINT
5
7a8
100
AcDbEntity
8
1-0
62
7
100
AcDbPoint
10
32325.369999999999
20
23547.660000000000
30
0.0
0
POINT
5
7a9
100
AcDbEntity
8
1-0
62
7
100
AcDbPoint
10
33664.589999999997
20
12167.879999999999
30
0.0
0
POINT
5
7aa
100
AcDbEntity
8
1-0
62
7
100
AcDbPoint
10
16425.779999999999
20
22941.840000000000
30
0.0
0
POINT
5
7ab
100
AcDbEntity
8
1-0
62
7
100
AcDbPoint
10
40552.440000000002
20
8996.160000000000
30
0.0
0
POINT
5
7ac
100
AcDbEntity
8
1-0
62
7
100
AcDbPoint
10
64023.940000000002
20
26583.150000000001
30
0.0
0
POINT
5
7ad
100
AcDbEntity
8
1-0
62
7
100
AcDbPoint
10
62377.370000000003
20
12930.139999999999
30
0.0
0
POINT
5
7ae
100
AcDbEntity
8
1-0
62
7
100
AcDbPoint
10
53132.150000000001
20
9100.070000000000
30
0.0
0
POINT
5
7af
100
AcDbEntity
8
1-0
62
7
100
AcDbPoint
10
81130.750000000000
20
16635.549999999999
30
0.0
0
POINT
5
7b0
100
AcDbEntity
8
1-0
62
7
100
AcDbPoint
10
82923.990000000005
20
43847.830000000002
30
0.0
0
POINT
5
7b1
100
AcDbEntity
8
1-0
62
7
100
AcDbPoint
10
73137.490000000005
20
45027.980000000003
30
0.0
0
POINT
5
7b2
100
AcDbEntity
8
1-0
62
7
100
AcDbPoint
10
16532.730000000000
20
54950.580000000002
30
0.0
0
POINT
5
7b3
100
AcDbEntity
8
1-0
62
7
100
AcDbPoint
10
22488.430000000000
20
25346.119999999999
30
0.0
0
POINT
5
7b4
100
AcDbEntity
8
1-0
62
7
100
AcDbPoint
10
42162.320000000000
20
21749.200000000001
30
0.0
0
POINT
5
7b5
100
AcDbEntity
8
1-0
62
7
100
AcDbPoint
10
7088.900000000000
20
53039.650000000001
30
0.0
0
POINT
5
7b6
100
AcDbEntity
8
1-0
62
7
100
AcDbPoint
10
69575.179999999993
20
16735.799999999999
30
0.0
0
POINT
5
7b7
100
AcDbEntity
8
1-0
62
7
100
AcDbPoint
10
56882.519999999997
20
30405.459999999999
30
0.0
0
ENDSEC
0
EOF
